ISO-10303-21;
HEADER;
/* Generated by software containing ST-Developer
 * from STEP Tools, Inc. (www.steptools.com) 
 */
/* OPTION: using custom schema-name function */

FILE_DESCRIPTION(
/* description */ (''),
/* implementation_level */ '2;1');

FILE_NAME(
/* name */ 'ABHF-D06X30-WA25.stp',
/* time_stamp */ '2023-10-18T09:46:50+03:00',
/* author */ (''),
/* organization */ (''),
/* preprocessor_version */ 'ST-DEVELOPER v19.4',
/* originating_system */ 'SIEMENS PLM Software NX2306.3001',
/* authorisation */ '');

FILE_SCHEMA (('AP203_CONFIGURATION_CONTROLLED_3D_DESIGN_OF_MECHANICAL_PARTS_AND_ASSEMBLIES_MIM_LF { 1 0 10303 403 2 1 2}'));
ENDSEC;

DATA;
#10=SHAPE_REPRESENTATION_RELATIONSHIP('None',
'relationship between SET-06X30-ABHF-D06X30-WA25-None and SET-06X30-AB
HF-D06X30-WA25-None',#76,#11);
#11=ADVANCED_BREP_SHAPE_REPRESENTATION(
'SET-06X30-ABHF-D06X30-WA25-None',(#86),#484);
#12=APPLIED_APPROVAL_ASSIGNMENT(#24,(#66));
#13=APPLIED_APPROVAL_ASSIGNMENT(#25,(#68));
#14=APPLIED_APPROVAL_ASSIGNMENT(#26,(#38));
#15=APPROVAL_PERSON_ORGANIZATION(#30,#24,#18);
#16=APPROVAL_PERSON_ORGANIZATION(#31,#25,#19);
#17=APPROVAL_PERSON_ORGANIZATION(#32,#26,#20);
#18=APPROVAL_ROLE('approver');
#19=APPROVAL_ROLE('approver');
#20=APPROVAL_ROLE('approver');
#21=APPROVAL_DATE_TIME(#46,#24);
#22=APPROVAL_DATE_TIME(#47,#25);
#23=APPROVAL_DATE_TIME(#48,#26);
#24=APPROVAL(#27,' ');
#25=APPROVAL(#28,' ');
#26=APPROVAL(#29,' ');
#27=APPROVAL_STATUS('not_yet_approved');
#28=APPROVAL_STATUS('not_yet_approved');
#29=APPROVAL_STATUS('not_yet_approved');
#30=PERSON_AND_ORGANIZATION(#36,#33);
#31=PERSON_AND_ORGANIZATION(#36,#34);
#32=PERSON_AND_ORGANIZATION(#36,#35);
#33=ORGANIZATION(' ',' ',' ');
#34=ORGANIZATION(' ',' ',' ');
#35=ORGANIZATION(' ',' ',' ');
#36=PERSON(' ',' ',' ',(' '),$,$);
#37=APPLIED_SECURITY_CLASSIFICATION_ASSIGNMENT(#38,(#68));
#38=SECURITY_CLASSIFICATION(' ',' ',#39);
#39=SECURITY_CLASSIFICATION_LEVEL('confidential');
#40=APPLIED_DATE_AND_TIME_ASSIGNMENT(#44,#42,(#66));
#41=APPLIED_DATE_AND_TIME_ASSIGNMENT(#45,#43,(#38));
#42=DATE_TIME_ROLE('creation_date');
#43=DATE_TIME_ROLE('classification_date');
#44=DATE_AND_TIME(#59,#49);
#45=DATE_AND_TIME(#60,#50);
#46=DATE_AND_TIME(#61,#51);
#47=DATE_AND_TIME(#62,#52);
#48=DATE_AND_TIME(#63,#53);
#49=LOCAL_TIME(0,0,0.,#54);
#50=LOCAL_TIME(0,0,0.,#55);
#51=LOCAL_TIME(0,0,0.,#56);
#52=LOCAL_TIME(0,0,0.,#57);
#53=LOCAL_TIME(0,0,0.,#58);
#54=COORDINATED_UNIVERSAL_TIME_OFFSET(0,0,.BEHIND.);
#55=COORDINATED_UNIVERSAL_TIME_OFFSET(0,0,.BEHIND.);
#56=COORDINATED_UNIVERSAL_TIME_OFFSET(0,0,.BEHIND.);
#57=COORDINATED_UNIVERSAL_TIME_OFFSET(0,0,.BEHIND.);
#58=COORDINATED_UNIVERSAL_TIME_OFFSET(0,0,.BEHIND.);
#59=CALENDAR_DATE(0,1,1);
#60=CALENDAR_DATE(0,1,1);
#61=CALENDAR_DATE(0,1,1);
#62=CALENDAR_DATE(0,1,1);
#63=CALENDAR_DATE(0,1,1);
#64=SHAPE_DEFINITION_REPRESENTATION(#65,#76);
#65=PRODUCT_DEFINITION_SHAPE('','',#66);
#66=PRODUCT_DEFINITION(' ','',#68,#67);
#67=PRODUCT_DEFINITION_CONTEXT('part definition',#75,'design');
#68=PRODUCT_DEFINITION_FORMATION_WITH_SPECIFIED_SOURCE(' ',' ',#70,
 .NOT_KNOWN.);
#69=PRODUCT_RELATED_PRODUCT_CATEGORY('detail','',(#70));
#70=PRODUCT('SET-06X30-ABHF-D06X30-WA25','SET-06X30-ABHF-D06X30-WA25',
' ',(#73));
#71=PRODUCT_CATEGORY('part',' ');
#72=PRODUCT_CATEGORY(' ','');
#73=PRODUCT_CONTEXT(' ',#75,'mechanical');
#74=APPLICATION_PROTOCOL_DEFINITION('international standard',
'config_control_design',2010,#75);
#75=APPLICATION_CONTEXT(
'configuration controlled 3D designs of mechanical parts and assemblie
s');
#76=SHAPE_REPRESENTATION('SET-06X30-ABHF-D06X30-WA25-None',(#308),#484);
#77=PRESENTATION_LAYER_ASSIGNMENT('1','Layer 1',(#86));
#78=STYLED_ITEM('',(#79),#86);
#79=PRESENTATION_STYLE_ASSIGNMENT((#80));
#80=SURFACE_STYLE_USAGE(.BOTH.,#81);
#81=SURFACE_SIDE_STYLE('',(#82));
#82=SURFACE_STYLE_FILL_AREA(#83);
#83=FILL_AREA_STYLE('',(#84));
#84=FILL_AREA_STYLE_COLOUR('',#85);
#85=COLOUR_RGB('medium steel',0.611764705882353,0.658823529411765,0.670588235294118);
#86=MANIFOLD_SOLID_BREP('',#87);
#87=CLOSED_SHELL('',(#122,#123,#124,#125,#126,#127,#128,#129,#130,#131,
#132,#133,#134,#135,#136,#137,#138,#139));
#88=FACE_OUTER_BOUND('',#186,.T.);
#89=FACE_OUTER_BOUND('',#187,.T.);
#90=FACE_OUTER_BOUND('',#188,.T.);
#91=FACE_OUTER_BOUND('',#189,.T.);
#92=FACE_OUTER_BOUND('',#190,.T.);
#93=FACE_OUTER_BOUND('',#199,.T.);
#94=LINE('',#448,#102);
#95=LINE('',#452,#103);
#96=LINE('',#454,#104);
#97=LINE('',#456,#105);
#98=LINE('',#458,#106);
#99=LINE('',#460,#107);
#100=LINE('',#464,#108);
#101=LINE('',#466,#109);
#102=VECTOR('',#377,1.);
#103=VECTOR('',#380,1.);
#104=VECTOR('',#383,1.);
#105=VECTOR('',#384,1.);
#106=VECTOR('',#385,1.);
#107=VECTOR('',#388,1.);
#108=VECTOR('',#393,1.);
#109=VECTOR('',#394,1.);
#110=CYLINDRICAL_SURFACE('',#317,27.5);
#111=CYLINDRICAL_SURFACE('',#329,6.25);
#112=CYLINDRICAL_SURFACE('',#332,6.25);
#113=CYLINDRICAL_SURFACE('',#338,12.25);
#114=CYLINDRICAL_SURFACE('',#341,12.4999999999998);
#115=CONICAL_SURFACE('',#315,27.5,4.9999999999987);
#116=CONICAL_SURFACE('',#321,3.5527136788005E-15,30.);
#117=CONICAL_SURFACE('',#340,12.4999999999997,20.);
#118=TOROIDAL_SURFACE('',#313,26.4950564355557,1.);
#119=TOROIDAL_SURFACE('',#319,26.,1.5);
#120=TOROIDAL_SURFACE('',#323,23.1339745962154,1.5);
#121=TOROIDAL_SURFACE('',#336,11.25,1.);
#122=ADVANCED_FACE('',(#146,#147),#140,.T.);
#123=ADVANCED_FACE('',(#148,#149),#118,.T.);
#124=ADVANCED_FACE('',(#150,#151),#115,.T.);
#125=ADVANCED_FACE('',(#152,#153),#110,.T.);
#126=ADVANCED_FACE('',(#154,#155),#119,.T.);
#127=ADVANCED_FACE('',(#156,#157),#116,.T.);
#128=ADVANCED_FACE('',(#158,#159),#120,.T.);
#129=ADVANCED_FACE('',(#160,#161),#141,.T.);
#130=ADVANCED_FACE('',(#88),#142,.T.);
#131=ADVANCED_FACE('',(#89),#111,.F.);
#132=ADVANCED_FACE('',(#90),#143,.T.);
#133=ADVANCED_FACE('',(#91),#112,.F.);
#134=ADVANCED_FACE('',(#92),#144,.T.);
#135=ADVANCED_FACE('',(#162,#163),#121,.T.);
#136=ADVANCED_FACE('',(#164,#165),#113,.T.);
#137=ADVANCED_FACE('',(#166,#167),#117,.T.);
#138=ADVANCED_FACE('',(#168,#169),#114,.T.);
#139=ADVANCED_FACE('',(#93),#145,.F.);
#140=PLANE('',#311);
#141=PLANE('',#326);
#142=PLANE('',#327);
#143=PLANE('',#330);
#144=PLANE('',#334);
#145=PLANE('',#342);
#146=FACE_BOUND('',#170,.T.);
#147=FACE_BOUND('',#171,.T.);
#148=FACE_BOUND('',#172,.T.);
#149=FACE_BOUND('',#173,.T.);
#150=FACE_BOUND('',#174,.T.);
#151=FACE_BOUND('',#175,.T.);
#152=FACE_BOUND('',#176,.T.);
#153=FACE_BOUND('',#177,.T.);
#154=FACE_BOUND('',#178,.T.);
#155=FACE_BOUND('',#179,.T.);
#156=FACE_BOUND('',#180,.T.);
#157=FACE_BOUND('',#181,.T.);
#158=FACE_BOUND('',#182,.T.);
#159=FACE_BOUND('',#183,.T.);
#160=FACE_BOUND('',#184,.T.);
#161=FACE_BOUND('',#185,.T.);
#162=FACE_BOUND('',#191,.T.);
#163=FACE_BOUND('',#192,.T.);
#164=FACE_BOUND('',#193,.T.);
#165=FACE_BOUND('',#194,.T.);
#166=FACE_BOUND('',#195,.T.);
#167=FACE_BOUND('',#196,.T.);
#168=FACE_BOUND('',#197,.T.);
#169=FACE_BOUND('',#198,.T.);
#170=EDGE_LOOP('',(#200));
#171=EDGE_LOOP('',(#201));
#172=EDGE_LOOP('',(#202));
#173=EDGE_LOOP('',(#203));
#174=EDGE_LOOP('',(#204));
#175=EDGE_LOOP('',(#205));
#176=EDGE_LOOP('',(#206));
#177=EDGE_LOOP('',(#207));
#178=EDGE_LOOP('',(#208));
#179=EDGE_LOOP('',(#209));
#180=EDGE_LOOP('',(#210));
#181=EDGE_LOOP('',(#211));
#182=EDGE_LOOP('',(#212));
#183=EDGE_LOOP('',(#213));
#184=EDGE_LOOP('',(#214,#215,#216,#217));
#185=EDGE_LOOP('',(#218));
#186=EDGE_LOOP('',(#219,#220,#221,#222));
#187=EDGE_LOOP('',(#223,#224,#225,#226));
#188=EDGE_LOOP('',(#227,#228,#229,#230));
#189=EDGE_LOOP('',(#231,#232,#233,#234));
#190=EDGE_LOOP('',(#235));
#191=EDGE_LOOP('',(#236));
#192=EDGE_LOOP('',(#237));
#193=EDGE_LOOP('',(#238));
#194=EDGE_LOOP('',(#239));
#195=EDGE_LOOP('',(#240));
#196=EDGE_LOOP('',(#241));
#197=EDGE_LOOP('',(#242));
#198=EDGE_LOOP('',(#243));
#199=EDGE_LOOP('',(#244,#245,#246,#247));
#200=ORIENTED_EDGE('',*,*,#268,.F.);
#201=ORIENTED_EDGE('',*,*,#269,.F.);
#202=ORIENTED_EDGE('',*,*,#269,.T.);
#203=ORIENTED_EDGE('',*,*,#270,.F.);
#204=ORIENTED_EDGE('',*,*,#270,.T.);
#205=ORIENTED_EDGE('',*,*,#271,.F.);
#206=ORIENTED_EDGE('',*,*,#272,.T.);
#207=ORIENTED_EDGE('',*,*,#271,.T.);
#208=ORIENTED_EDGE('',*,*,#272,.F.);
#209=ORIENTED_EDGE('',*,*,#273,.T.);
#210=ORIENTED_EDGE('',*,*,#273,.F.);
#211=ORIENTED_EDGE('',*,*,#274,.T.);
#212=ORIENTED_EDGE('',*,*,#274,.F.);
#213=ORIENTED_EDGE('',*,*,#275,.F.);
#214=ORIENTED_EDGE('',*,*,#276,.F.);
#215=ORIENTED_EDGE('',*,*,#277,.F.);
#216=ORIENTED_EDGE('',*,*,#278,.F.);
#217=ORIENTED_EDGE('',*,*,#279,.F.);
#218=ORIENTED_EDGE('',*,*,#275,.T.);
#219=ORIENTED_EDGE('',*,*,#280,.F.);
#220=ORIENTED_EDGE('',*,*,#281,.T.);
#221=ORIENTED_EDGE('',*,*,#282,.T.);
#222=ORIENTED_EDGE('',*,*,#277,.T.);
#223=ORIENTED_EDGE('',*,*,#283,.F.);
#224=ORIENTED_EDGE('',*,*,#284,.T.);
#225=ORIENTED_EDGE('',*,*,#280,.T.);
#226=ORIENTED_EDGE('',*,*,#276,.T.);
#227=ORIENTED_EDGE('',*,*,#285,.F.);
#228=ORIENTED_EDGE('',*,*,#286,.T.);
#229=ORIENTED_EDGE('',*,*,#283,.T.);
#230=ORIENTED_EDGE('',*,*,#279,.T.);
#231=ORIENTED_EDGE('',*,*,#282,.F.);
#232=ORIENTED_EDGE('',*,*,#287,.T.);
#233=ORIENTED_EDGE('',*,*,#285,.T.);
#234=ORIENTED_EDGE('',*,*,#278,.T.);
#235=ORIENTED_EDGE('',*,*,#288,.F.);
#236=ORIENTED_EDGE('',*,*,#288,.T.);
#237=ORIENTED_EDGE('',*,*,#289,.F.);
#238=ORIENTED_EDGE('',*,*,#289,.T.);
#239=ORIENTED_EDGE('',*,*,#290,.F.);
#240=ORIENTED_EDGE('',*,*,#290,.T.);
#241=ORIENTED_EDGE('',*,*,#291,.F.);
#242=ORIENTED_EDGE('',*,*,#291,.T.);
#243=ORIENTED_EDGE('',*,*,#268,.T.);
#244=ORIENTED_EDGE('',*,*,#284,.F.);
#245=ORIENTED_EDGE('',*,*,#286,.F.);
#246=ORIENTED_EDGE('',*,*,#287,.F.);
#247=ORIENTED_EDGE('',*,*,#281,.F.);
#248=VERTEX_POINT('',#423);
#249=VERTEX_POINT('',#425);
#250=VERTEX_POINT('',#428);
#251=VERTEX_POINT('',#431);
#252=VERTEX_POINT('',#434);
#253=VERTEX_POINT('',#437);
#254=VERTEX_POINT('',#440);
#255=VERTEX_POINT('',#443);
#256=VERTEX_POINT('',#446);
#257=VERTEX_POINT('',#447);
#258=VERTEX_POINT('',#449);
#259=VERTEX_POINT('',#451);
#260=VERTEX_POINT('',#455);
#261=VERTEX_POINT('',#457);
#262=VERTEX_POINT('',#461);
#263=VERTEX_POINT('',#465);
#264=VERTEX_POINT('',#471);
#265=VERTEX_POINT('',#474);
#266=VERTEX_POINT('',#477);
#267=VERTEX_POINT('',#480);
#268=EDGE_CURVE('',#248,#248,#292,.T.);
#269=EDGE_CURVE('',#249,#249,#293,.T.);
#270=EDGE_CURVE('',#250,#250,#294,.T.);
#271=EDGE_CURVE('',#251,#251,#295,.T.);
#272=EDGE_CURVE('',#252,#252,#296,.T.);
#273=EDGE_CURVE('',#253,#253,#297,.T.);
#274=EDGE_CURVE('',#254,#254,#298,.T.);
#275=EDGE_CURVE('',#255,#255,#299,.T.);
#276=EDGE_CURVE('',#256,#257,#300,.T.);
#277=EDGE_CURVE('',#258,#256,#94,.T.);
#278=EDGE_CURVE('',#259,#258,#301,.T.);
#279=EDGE_CURVE('',#257,#259,#95,.T.);
#280=EDGE_CURVE('',#260,#256,#96,.T.);
#281=EDGE_CURVE('',#260,#261,#97,.T.);
#282=EDGE_CURVE('',#261,#258,#98,.T.);
#283=EDGE_CURVE('',#262,#257,#99,.T.);
#284=EDGE_CURVE('',#262,#260,#302,.T.);
#285=EDGE_CURVE('',#263,#259,#100,.T.);
#286=EDGE_CURVE('',#263,#262,#101,.T.);
#287=EDGE_CURVE('',#261,#263,#303,.T.);
#288=EDGE_CURVE('',#264,#264,#304,.T.);
#289=EDGE_CURVE('',#265,#265,#305,.T.);
#290=EDGE_CURVE('',#266,#266,#306,.T.);
#291=EDGE_CURVE('',#267,#267,#307,.T.);
#292=CIRCLE('',#309,12.4999999999998);
#293=CIRCLE('',#310,26.4950564355557);
#294=CIRCLE('',#312,27.4912511336474);
#295=CIRCLE('',#314,27.5);
#296=CIRCLE('',#316,27.5);
#297=CIRCLE('',#318,27.2990381056767);
#298=CIRCLE('',#320,24.433012701892);
#299=CIRCLE('',#322,23.1339745962154);
#300=CIRCLE('',#324,6.25);
#301=CIRCLE('',#325,6.25);
#302=CIRCLE('',#328,6.25);
#303=CIRCLE('',#331,6.25);
#304=CIRCLE('',#333,11.25);
#305=CIRCLE('',#335,12.25);
#306=CIRCLE('',#337,12.25);
#307=CIRCLE('',#339,12.4999999999997);
#308=AXIS2_PLACEMENT_3D('',#421,#343,#344);
#309=AXIS2_PLACEMENT_3D('',#422,#345,#346);
#310=AXIS2_PLACEMENT_3D('',#424,#347,#348);
#311=AXIS2_PLACEMENT_3D('',#426,#349,#350);
#312=AXIS2_PLACEMENT_3D('',#427,#351,#352);
#313=AXIS2_PLACEMENT_3D('',#429,#353,#354);
#314=AXIS2_PLACEMENT_3D('',#430,#355,#356);
#315=AXIS2_PLACEMENT_3D('',#432,#357,#358);
#316=AXIS2_PLACEMENT_3D('',#433,#359,#360);
#317=AXIS2_PLACEMENT_3D('',#435,#361,#362);
#318=AXIS2_PLACEMENT_3D('',#436,#363,#364);
#319=AXIS2_PLACEMENT_3D('',#438,#365,#366);
#320=AXIS2_PLACEMENT_3D('',#439,#367,#368);
#321=AXIS2_PLACEMENT_3D('',#441,#369,#370);
#322=AXIS2_PLACEMENT_3D('',#442,#371,#372);
#323=AXIS2_PLACEMENT_3D('',#444,#373,#374);
#324=AXIS2_PLACEMENT_3D('',#445,#375,#376);
#325=AXIS2_PLACEMENT_3D('',#450,#378,#379);
#326=AXIS2_PLACEMENT_3D('',#453,#381,#382);
#327=AXIS2_PLACEMENT_3D('',#459,#386,#387);
#328=AXIS2_PLACEMENT_3D('',#462,#389,#390);
#329=AXIS2_PLACEMENT_3D('',#463,#391,#392);
#330=AXIS2_PLACEMENT_3D('',#467,#395,#396);
#331=AXIS2_PLACEMENT_3D('',#468,#397,#398);
#332=AXIS2_PLACEMENT_3D('',#469,#399,#400);
#333=AXIS2_PLACEMENT_3D('',#470,#401,#402);
#334=AXIS2_PLACEMENT_3D('',#472,#403,#404);
#335=AXIS2_PLACEMENT_3D('',#473,#405,#406);
#336=AXIS2_PLACEMENT_3D('',#475,#407,#408);
#337=AXIS2_PLACEMENT_3D('',#476,#409,#410);
#338=AXIS2_PLACEMENT_3D('',#478,#411,#412);
#339=AXIS2_PLACEMENT_3D('',#479,#413,#414);
#340=AXIS2_PLACEMENT_3D('',#481,#415,#416);
#341=AXIS2_PLACEMENT_3D('',#482,#417,#418);
#342=AXIS2_PLACEMENT_3D('',#483,#419,#420);
#343=DIRECTION('',(0.,0.,1.));
#344=DIRECTION('',(1.,0.,0.));
#345=DIRECTION('',(1.,2.24853229419239E-16,1.35537631811746E-15));
#346=DIRECTION('',(-2.77555756156293E-16,1.,0.));
#347=DIRECTION('',(-1.,-2.24853229419239E-16,-1.35537631811746E-15));
#348=DIRECTION('',(2.6189390918207E-16,-1.,0.));
#349=DIRECTION('',(1.,2.24853229419239E-16,1.35537631811746E-15));
#350=DIRECTION('',(-2.25514051876985E-16,1.,0.));
#351=DIRECTION('',(-1.,-2.24853229419239E-16,-1.35537631811746E-15));
#352=DIRECTION('',(2.52403714555374E-16,-1.,0.));
#353=DIRECTION('',(-1.,-2.24853229419239E-16,-1.35537631811746E-15));
#354=DIRECTION('',(2.52368782008903E-16,-1.,0.));
#355=DIRECTION('',(-1.,-2.24853229419239E-16,-1.35537631811746E-15));
#356=DIRECTION('',(2.52323414687536E-16,-1.,0.));
#357=DIRECTION('',(-1.,-2.24853229419239E-16,-1.35537631811746E-15));
#358=DIRECTION('',(-4.8275325174776E-16,-1.,0.));
#359=DIRECTION('',(1.,2.24853229419239E-16,1.35537631811746E-15));
#360=DIRECTION('',(-2.52323414687536E-16,1.,0.));
#361=DIRECTION('',(-1.,-2.24853229419239E-16,-1.35537631811746E-15));
#362=DIRECTION('',(2.52323414687536E-16,-1.,0.));
#363=DIRECTION('',(1.,2.24853229419239E-16,1.35537631811746E-15));
#364=DIRECTION('',(-2.54180893738682E-16,1.,0.));
#365=DIRECTION('',(1.,2.24853229419239E-16,1.35537631811746E-15));
#366=DIRECTION('',(-2.52323414687536E-16,1.,0.));
#367=DIRECTION('',(1.,2.24853229419239E-16,1.35537631811746E-15));
#368=DIRECTION('',(2.83996656023098E-16,-1.,0.));
#369=DIRECTION('',(1.,2.24853229419239E-16,1.35537631811746E-15));
#370=DIRECTION('',(-2.16333302218151E-16,1.,0.));
#371=DIRECTION('',(-1.,-2.24853229419239E-16,-1.35537631811746E-15));
#372=DIRECTION('',(1.49971935757256E-16,-1.,0.));
#373=DIRECTION('',(-1.,-2.24853229419239E-16,-1.35537631811746E-15));
#374=DIRECTION('',(2.8167983517257E-16,-1.,0.));
#375=DIRECTION('',(-1.,-2.24853229419239E-16,-1.35537631811746E-15));
#376=DIRECTION('',(0.,-1.,0.));
#377=DIRECTION('',(2.24853229419238E-16,-1.,2.4781763942526E-16));
#378=DIRECTION('',(-1.,-2.24853229419239E-16,-1.35537631811746E-15));
#379=DIRECTION('',(0.,-1.,0.));
#380=DIRECTION('',(-2.24853229419238E-16,1.,-2.47817639425259E-16));
#381=DIRECTION('',(-1.,-2.24853229419239E-16,-1.35537631811746E-15));
#382=DIRECTION('',(2.25514051876985E-16,-1.,0.));
#383=DIRECTION('',(-1.,-2.24853229419239E-16,-1.35537631811746E-15));
#384=DIRECTION('',(0.,1.,0.));
#385=DIRECTION('',(-1.,-2.24853229419239E-16,-1.35537631811746E-15));
#386=DIRECTION('',(-1.35537631811746E-15,2.4781763942526E-16,1.));
#387=DIRECTION('',(2.25514051876985E-16,-1.,2.46330733588707E-16));
#388=DIRECTION('',(-1.,-2.24853229419239E-16,-1.35537631811746E-15));
#389=DIRECTION('',(1.,0.,0.));
#390=DIRECTION('',(0.,-1.,0.));
#391=DIRECTION('',(1.,2.24853229419239E-16,1.35537631811746E-15));
#392=DIRECTION('',(0.,1.,0.));
#393=DIRECTION('',(-1.,-2.24853229419239E-16,-1.35537631811746E-15));
#394=DIRECTION('',(0.,-1.,0.));
#395=DIRECTION('',(1.35537631811746E-15,-2.47817639425259E-16,-1.));
#396=DIRECTION('',(-2.25514051876985E-16,1.,-2.4980018054066E-16));
#397=DIRECTION('',(1.,0.,0.));
#398=DIRECTION('',(0.,-1.,0.));
#399=DIRECTION('',(1.,2.24853229419239E-16,1.35537631811746E-15));
#400=DIRECTION('',(0.,1.,0.));
#401=DIRECTION('',(-1.,-2.24853229419239E-16,-1.35537631811746E-15));
#402=DIRECTION('',(0.,-1.,0.));
#403=DIRECTION('',(1.,2.24853229419239E-16,1.35537631811746E-15));
#404=DIRECTION('',(-2.22044604925031E-16,1.,0.));
#405=DIRECTION('',(-1.,-2.24853229419239E-16,-1.35537631811746E-15));
#406=DIRECTION('',(0.,-1.,0.));
#407=DIRECTION('',(-1.,-2.24853229419239E-16,-1.35537631811746E-15));
#408=DIRECTION('',(0.,-1.,0.));
#409=DIRECTION('',(-1.,-2.24853229419239E-16,-1.35537631811746E-15));
#410=DIRECTION('',(0.,-1.,0.));
#411=DIRECTION('',(-1.,-2.24853229419239E-16,-1.35537631811746E-15));
#412=DIRECTION('',(2.83220159343152E-16,-1.,0.));
#413=DIRECTION('',(-1.,-2.24853229419239E-16,-1.35537631811746E-15));
#414=DIRECTION('',(0.,-1.,0.));
#415=DIRECTION('',(-1.,-2.24853229419239E-16,-1.35537631811746E-15));
#416=DIRECTION('',(3.68629085241344E-16,-1.,0.));
#417=DIRECTION('',(-1.,-2.24853229419239E-16,-1.35537631811746E-15));
#418=DIRECTION('',(2.77555756156293E-16,-1.,0.));
#419=DIRECTION('',(1.,0.,0.));
#420=DIRECTION('',(0.,0.,-1.));
#421=CARTESIAN_POINT('',(0.,0.,0.));
#422=CARTESIAN_POINT('',(23.3138893242862,68.6293298031701,31.4233892994043));
#423=CARTESIAN_POINT('',(23.3138893242861,81.12932980317,31.4233892994043));
#424=CARTESIAN_POINT('',(23.3138893242862,68.6293298031701,31.4233892994043));
#425=CARTESIAN_POINT('',(23.3138893242862,42.1342733676145,31.4233892994043));
#426=CARTESIAN_POINT('',(23.3138893242861,68.6293298031701,57.91844573496));
#427=CARTESIAN_POINT('',(22.4010450670345,68.6293298031701,31.4233892994043));
#428=CARTESIAN_POINT('',(22.4010450670345,41.1380786695227,31.4233892994043));
#429=CARTESIAN_POINT('',(22.3138893242862,68.6293298031701,31.4233892994043));
#430=CARTESIAN_POINT('',(22.3010450670345,68.6293298031701,31.4233892994043));
#431=CARTESIAN_POINT('',(22.3010450670345,41.1293298031701,31.4233892994043));
#432=CARTESIAN_POINT('',(22.3010450670345,68.6293298031701,31.4233892994043));
#433=CARTESIAN_POINT('',(-15.2220090605758,68.6293298031701,31.4233892994043));
#434=CARTESIAN_POINT('',(-15.2220090605758,96.1293298031701,31.4233892994043));
#435=CARTESIAN_POINT('',(-21.6861106757138,68.6293298031701,31.4233892994042));
#436=CARTESIAN_POINT('',(-15.9720090605758,68.6293298031701,31.4233892994043));
#437=CARTESIAN_POINT('',(-15.9720090605758,95.9283679088468,31.4233892994043));
#438=CARTESIAN_POINT('',(-15.2220090605758,68.6293298031701,31.4233892994043));
#439=CARTESIAN_POINT('',(-20.9361106757138,68.6293298031701,31.4233892994042));
#440=CARTESIAN_POINT('',(-20.9361106757138,44.1963171012781,31.4233892994042));
#441=CARTESIAN_POINT('',(-63.2553300573666,68.6293298031701,31.4233892994042));
#442=CARTESIAN_POINT('',(-21.6861106757138,68.6293298031701,31.4233892994042));
#443=CARTESIAN_POINT('',(-21.6861106757138,45.4953552069547,31.4233892994042));
#444=CARTESIAN_POINT('',(-20.1861106757138,68.6293298031701,31.4233892994042));
#445=CARTESIAN_POINT('',(-21.6861106757138,65.5043298031701,31.4233892994042));
#446=CARTESIAN_POINT('',(-21.6861106757138,65.5043298031701,25.1733892994042));
#447=CARTESIAN_POINT('',(-21.6861106757139,65.5043298031701,37.6733892994042));
#448=CARTESIAN_POINT('',(-21.6861106757138,69.0043298031701,25.1733892994042));
#449=CARTESIAN_POINT('',(-21.6861106757138,69.0043298031701,25.1733892994042));
#450=CARTESIAN_POINT('',(-21.6861106757138,69.0043298031701,31.4233892994042));
#451=CARTESIAN_POINT('',(-21.6861106757139,69.0043298031701,37.6733892994042));
#452=CARTESIAN_POINT('',(-21.6861106757139,65.5043298031701,37.6733892994042));
#453=CARTESIAN_POINT('',(-21.6861106757139,68.6293298031701,31.4233892994042));
#454=CARTESIAN_POINT('',(-21.6861106757138,65.5043298031701,25.1733892994042));
#455=CARTESIAN_POINT('',(-14.6861106757138,65.5043298031701,25.1733892994043));
#456=CARTESIAN_POINT('',(-14.6861106757138,65.5043298031701,25.1733892994043));
#457=CARTESIAN_POINT('',(-14.6861106757138,69.0043298031701,25.1733892994043));
#458=CARTESIAN_POINT('',(-21.6861106757138,69.0043298031701,25.1733892994042));
#459=CARTESIAN_POINT('',(-21.6861106757138,69.0043298031701,25.1733892994042));
#460=CARTESIAN_POINT('',(-21.6861106757139,65.5043298031701,37.6733892994042));
#461=CARTESIAN_POINT('',(-14.6861106757138,65.5043298031701,37.6733892994043));
#462=CARTESIAN_POINT('',(-14.6861106757138,65.5043298031701,31.4233892994043));
#463=CARTESIAN_POINT('',(-21.6861106757138,65.5043298031701,31.4233892994042));
#464=CARTESIAN_POINT('',(-21.6861106757139,69.0043298031701,37.6733892994042));
#465=CARTESIAN_POINT('',(-14.6861106757138,69.0043298031701,37.6733892994043));
#466=CARTESIAN_POINT('',(-14.6861106757139,69.0043298031701,37.6733892994043));
#467=CARTESIAN_POINT('',(-21.6861106757139,65.5043298031701,37.6733892994042));
#468=CARTESIAN_POINT('',(-14.6861106757138,69.0043298031701,31.4233892994043));
#469=CARTESIAN_POINT('',(-21.6861106757138,69.0043298031701,31.4233892994042));
#470=CARTESIAN_POINT('',(79.3138893242862,68.6293298031701,31.4233892994044));
#471=CARTESIAN_POINT('',(79.3138893242862,57.3793298031701,31.4233892994044));
#472=CARTESIAN_POINT('',(79.3138893242862,68.6293298031701,42.6733892994044));
#473=CARTESIAN_POINT('',(78.3138893242862,68.6293298031701,31.4233892994044));
#474=CARTESIAN_POINT('',(78.3138893242862,56.3793298031701,31.4233892994044));
#475=CARTESIAN_POINT('',(78.3138893242862,68.6293298031701,31.4233892994044));
#476=CARTESIAN_POINT('',(77.0007586791489,68.6293298031701,31.4233892994044));
#477=CARTESIAN_POINT('',(77.0007586791489,56.3793298031701,31.4233892994044));
#478=CARTESIAN_POINT('',(-21.6861106757138,68.6293298031701,31.4233892994042));
#479=CARTESIAN_POINT('',(76.3138893242862,68.6293298031701,31.4233892994044));
#480=CARTESIAN_POINT('',(76.3138893242862,56.1293298031704,31.4233892994044));
#481=CARTESIAN_POINT('',(76.3138893242862,68.6293298031701,31.4233892994044));
#482=CARTESIAN_POINT('',(-21.6861106757138,68.6293298031701,31.4233892994042));
#483=CARTESIAN_POINT('',(-14.6861106757138,65.5043298031701,31.4233892994043));
#484=(
GEOMETRIC_REPRESENTATION_CONTEXT(3)
GLOBAL_UNCERTAINTY_ASSIGNED_CONTEXT((#485))
GLOBAL_UNIT_ASSIGNED_CONTEXT((#491,#487,#486))
REPRESENTATION_CONTEXT('ABHF-D06X30-WA25','TOP_LEVEL_ASSEMBLY_PART')
);
#485=UNCERTAINTY_MEASURE_WITH_UNIT(LENGTH_MEASURE(2.E-5),#491,
'DISTANCE_ACCURACY_VALUE','Maximum Tolerance applied to model');
#486=(
NAMED_UNIT(*)
SI_UNIT($,.STERADIAN.)
SOLID_ANGLE_UNIT()
);
#487=(
CONVERSION_BASED_UNIT('DEGREE',#489)
NAMED_UNIT(#488)
PLANE_ANGLE_UNIT()
);
#488=DIMENSIONAL_EXPONENTS(0.,0.,0.,0.,0.,0.,0.);
#489=PLANE_ANGLE_MEASURE_WITH_UNIT(PLANE_ANGLE_MEASURE(0.0174532925),#490);
#490=(
NAMED_UNIT(*)
PLANE_ANGLE_UNIT()
SI_UNIT($,.RADIAN.)
);
#491=(
LENGTH_UNIT()
NAMED_UNIT(*)
SI_UNIT(.MILLI.,.METRE.)
);
ENDSEC;
END-ISO-10303-21;
