ISO-10303-21;
HEADER;
/* Generated by software containing ST-Developer
 * from STEP Tools, Inc. (www.steptools.com) 
 */
/* OPTION: using custom schema-name function */

FILE_DESCRIPTION(
/* description */ (''),
/* implementation_level */ '2;1');

FILE_NAME(
/* name */ 'ABHF-D52X80-WA25.stp',
/* time_stamp */ '2023-10-18T16:04:14+03:00',
/* author */ (''),
/* organization */ (''),
/* preprocessor_version */ 'ST-DEVELOPER v19.4',
/* originating_system */ 'SIEMENS PLM Software NX2306.3001',
/* authorisation */ '');

FILE_SCHEMA (('AP203_CONFIGURATION_CONTROLLED_3D_DESIGN_OF_MECHANICAL_PARTS_AND_ASSEMBLIES_MIM_LF { 1 0 10303 403 2 1 2}'));
ENDSEC;

DATA;
#10=SHAPE_REPRESENTATION_RELATIONSHIP('None',
'relationship between model1-None and model1-None',#76,#11);
#11=ADVANCED_BREP_SHAPE_REPRESENTATION('model1-None',(#86),#521);
#12=APPLIED_APPROVAL_ASSIGNMENT(#24,(#66));
#13=APPLIED_APPROVAL_ASSIGNMENT(#25,(#68));
#14=APPLIED_APPROVAL_ASSIGNMENT(#26,(#38));
#15=APPROVAL_PERSON_ORGANIZATION(#30,#24,#18);
#16=APPROVAL_PERSON_ORGANIZATION(#31,#25,#19);
#17=APPROVAL_PERSON_ORGANIZATION(#32,#26,#20);
#18=APPROVAL_ROLE('approver');
#19=APPROVAL_ROLE('approver');
#20=APPROVAL_ROLE('approver');
#21=APPROVAL_DATE_TIME(#46,#24);
#22=APPROVAL_DATE_TIME(#47,#25);
#23=APPROVAL_DATE_TIME(#48,#26);
#24=APPROVAL(#27,' ');
#25=APPROVAL(#28,' ');
#26=APPROVAL(#29,' ');
#27=APPROVAL_STATUS('not_yet_approved');
#28=APPROVAL_STATUS('not_yet_approved');
#29=APPROVAL_STATUS('not_yet_approved');
#30=PERSON_AND_ORGANIZATION(#36,#33);
#31=PERSON_AND_ORGANIZATION(#36,#34);
#32=PERSON_AND_ORGANIZATION(#36,#35);
#33=ORGANIZATION(' ',' ',' ');
#34=ORGANIZATION(' ',' ',' ');
#35=ORGANIZATION(' ',' ',' ');
#36=PERSON(' ',' ',' ',(' '),$,$);
#37=APPLIED_SECURITY_CLASSIFICATION_ASSIGNMENT(#38,(#68));
#38=SECURITY_CLASSIFICATION(' ',' ',#39);
#39=SECURITY_CLASSIFICATION_LEVEL('confidential');
#40=APPLIED_DATE_AND_TIME_ASSIGNMENT(#44,#42,(#66));
#41=APPLIED_DATE_AND_TIME_ASSIGNMENT(#45,#43,(#38));
#42=DATE_TIME_ROLE('creation_date');
#43=DATE_TIME_ROLE('classification_date');
#44=DATE_AND_TIME(#59,#49);
#45=DATE_AND_TIME(#60,#50);
#46=DATE_AND_TIME(#61,#51);
#47=DATE_AND_TIME(#62,#52);
#48=DATE_AND_TIME(#63,#53);
#49=LOCAL_TIME(0,0,0.,#54);
#50=LOCAL_TIME(0,0,0.,#55);
#51=LOCAL_TIME(0,0,0.,#56);
#52=LOCAL_TIME(0,0,0.,#57);
#53=LOCAL_TIME(0,0,0.,#58);
#54=COORDINATED_UNIVERSAL_TIME_OFFSET(0,0,.BEHIND.);
#55=COORDINATED_UNIVERSAL_TIME_OFFSET(0,0,.BEHIND.);
#56=COORDINATED_UNIVERSAL_TIME_OFFSET(0,0,.BEHIND.);
#57=COORDINATED_UNIVERSAL_TIME_OFFSET(0,0,.BEHIND.);
#58=COORDINATED_UNIVERSAL_TIME_OFFSET(0,0,.BEHIND.);
#59=CALENDAR_DATE(0,1,1);
#60=CALENDAR_DATE(0,1,1);
#61=CALENDAR_DATE(0,1,1);
#62=CALENDAR_DATE(0,1,1);
#63=CALENDAR_DATE(0,1,1);
#64=SHAPE_DEFINITION_REPRESENTATION(#65,#76);
#65=PRODUCT_DEFINITION_SHAPE('','',#66);
#66=PRODUCT_DEFINITION(' ','',#68,#67);
#67=PRODUCT_DEFINITION_CONTEXT('part definition',#75,'design');
#68=PRODUCT_DEFINITION_FORMATION_WITH_SPECIFIED_SOURCE(' ',' ',#70,
 .NOT_KNOWN.);
#69=PRODUCT_RELATED_PRODUCT_CATEGORY('detail','',(#70));
#70=PRODUCT('model1','model1',' ',(#73));
#71=PRODUCT_CATEGORY('part',' ');
#72=PRODUCT_CATEGORY(' ','');
#73=PRODUCT_CONTEXT(' ',#75,'mechanical');
#74=APPLICATION_PROTOCOL_DEFINITION('international standard',
'config_control_design',2010,#75);
#75=APPLICATION_CONTEXT(
'configuration controlled 3D designs of mechanical parts and assemblie
s');
#76=SHAPE_REPRESENTATION('model1-None',(#297),#521);
#77=PRESENTATION_LAYER_ASSIGNMENT('1','Layer 1',(#86));
#78=STYLED_ITEM('',(#79),#86);
#79=PRESENTATION_STYLE_ASSIGNMENT((#80));
#80=SURFACE_STYLE_USAGE(.BOTH.,#81);
#81=SURFACE_SIDE_STYLE('',(#82));
#82=SURFACE_STYLE_FILL_AREA(#83);
#83=FILL_AREA_STYLE('',(#84));
#84=FILL_AREA_STYLE_COLOUR('',#85);
#85=COLOUR_RGB('medium steel',0.611764705882353,0.658823529411765,0.670588235294118);
#86=MANIFOLD_SOLID_BREP('',#87);
#87=CLOSED_SHELL('',(#110,#111,#112,#113,#114,#115,#116,#117,#118,#119,
#120,#121,#122,#123,#124,#125,#126));
#88=PLANE('',#309);
#89=PLANE('',#312);
#90=PLANE('',#318);
#91=PLANE('',#322);
#92=PLANE('',#324);
#93=LINE('',#488,#94);
#94=VECTOR('',#356,1.);
#95=CONICAL_SURFACE('',#306,0.,30.0000000000009);
#96=CONICAL_SURFACE('',#315,24.,4.99999999999727);
#97=CONICAL_SURFACE('',#319,35.1336943140171,44.9999999999997);
#98=CONICAL_SURFACE('',#330,12.4999999999997,20.0000000000003);
#99=TOROIDAL_SURFACE('',#304,22.4999999999992,1.5);
#100=TOROIDAL_SURFACE('',#308,19.6339745962155,1.5);
#101=TOROIDAL_SURFACE('',#314,22.9950564355557,1.);
#102=TOROIDAL_SURFACE('',#326,11.25,1.);
#103=FACE_OUTER_BOUND('',#163,.T.);
#104=FACE_OUTER_BOUND('',#164,.T.);
#105=FACE_OUTER_BOUND('',#165,.T.);
#106=FACE_OUTER_BOUND('',#166,.T.);
#107=FACE_OUTER_BOUND('',#175,.T.);
#108=FACE_OUTER_BOUND('',#178,.T.);
#109=FACE_OUTER_BOUND('',#179,.T.);
#110=ADVANCED_FACE('',(#141,#142),#127,.T.);
#111=ADVANCED_FACE('',(#103),#99,.T.);
#112=ADVANCED_FACE('',(#104),#95,.T.);
#113=ADVANCED_FACE('',(#105),#100,.T.);
#114=ADVANCED_FACE('',(#106),#88,.T.);
#115=ADVANCED_FACE('',(#143,#144),#89,.T.);
#116=ADVANCED_FACE('',(#145,#146),#101,.T.);
#117=ADVANCED_FACE('',(#147,#148),#96,.T.);
#118=ADVANCED_FACE('',(#149,#150),#90,.T.);
#119=ADVANCED_FACE('',(#107),#97,.F.);
#120=ADVANCED_FACE('',(#151,#152),#128,.F.);
#121=ADVANCED_FACE('',(#108),#91,.F.);
#122=ADVANCED_FACE('',(#109),#92,.T.);
#123=ADVANCED_FACE('',(#153,#154),#102,.T.);
#124=ADVANCED_FACE('',(#155,#156),#129,.T.);
#125=ADVANCED_FACE('',(#157,#158),#98,.T.);
#126=ADVANCED_FACE('',(#159,#160),#130,.T.);
#127=CYLINDRICAL_SURFACE('',#302,24.);
#128=CYLINDRICAL_SURFACE('',#321,12.5);
#129=CYLINDRICAL_SURFACE('',#328,12.25);
#130=CYLINDRICAL_SURFACE('',#331,12.4999999999998);
#131=B_SPLINE_CURVE_WITH_KNOTS('',3,(#411,#412,#413,#414,#415,#416,#417,
#418,#419,#420,#421,#422,#423,#424),.UNSPECIFIED.,.F.,.F.,(4,2,2,2,2,2,
4),(0.,0.25,0.375,0.5,0.625,0.75,1.),.UNSPECIFIED.);
#132=B_SPLINE_CURVE_WITH_KNOTS('',3,(#428,#429,#430,#431,#432,#433,#434),
 .UNSPECIFIED.,.F.,.F.,(4,3,4),(0.,0.548777182487262,1.),.UNSPECIFIED.);
#133=B_SPLINE_CURVE_WITH_KNOTS('',3,(#436,#437,#438,#439,#440,#441,#442),
 .UNSPECIFIED.,.F.,.F.,(4,3,4),(0.,0.548961905234227,1.),.UNSPECIFIED.);
#134=B_SPLINE_CURVE_WITH_KNOTS('',3,(#446,#447,#448,#449),.UNSPECIFIED.,
 .F.,.F.,(4,4),(0.,1.),.UNSPECIFIED.);
#135=B_SPLINE_CURVE_WITH_KNOTS('',3,(#451,#452,#453,#454),.UNSPECIFIED.,
 .F.,.F.,(4,4),(0.,1.),.UNSPECIFIED.);
#136=B_SPLINE_CURVE_WITH_KNOTS('',3,(#461,#462,#463,#464,#465,#466,#467,
#468,#469,#470,#471,#472,#473),.UNSPECIFIED.,.F.,.F.,(4,3,3,3,4),(0.,0.262330736736852,
0.614493017471831,0.894625134727354,1.),.UNSPECIFIED.);
#137=B_SPLINE_CURVE_WITH_KNOTS('',3,(#474,#475,#476,#477,#478,#479,#480,
#481,#482,#483,#484,#485,#486),.UNSPECIFIED.,.F.,.F.,(4,3,3,3,4),(0.,0.284745449865329,
0.566880528621718,0.897286220320675,1.),.UNSPECIFIED.);
#138=ELLIPSE('',#300,275.369117896085,24.);
#139=ELLIPSE('',#301,275.369117896085,24.);
#140=ELLIPSE('',#317,12.5477479692919,12.5);
#141=FACE_BOUND('',#161,.T.);
#142=FACE_BOUND('',#162,.T.);
#143=FACE_BOUND('',#167,.T.);
#144=FACE_BOUND('',#168,.T.);
#145=FACE_BOUND('',#169,.T.);
#146=FACE_BOUND('',#170,.T.);
#147=FACE_BOUND('',#171,.T.);
#148=FACE_BOUND('',#172,.T.);
#149=FACE_BOUND('',#173,.T.);
#150=FACE_BOUND('',#174,.T.);
#151=FACE_BOUND('',#176,.T.);
#152=FACE_BOUND('',#177,.T.);
#153=FACE_BOUND('',#180,.T.);
#154=FACE_BOUND('',#181,.T.);
#155=FACE_BOUND('',#182,.T.);
#156=FACE_BOUND('',#183,.T.);
#157=FACE_BOUND('',#184,.T.);
#158=FACE_BOUND('',#185,.T.);
#159=FACE_BOUND('',#186,.T.);
#160=FACE_BOUND('',#187,.T.);
#161=EDGE_LOOP('',(#188));
#162=EDGE_LOOP('',(#189,#190,#191,#192));
#163=EDGE_LOOP('',(#193,#194,#195,#196));
#164=EDGE_LOOP('',(#197,#198,#199,#200));
#165=EDGE_LOOP('',(#201,#202,#203,#204));
#166=EDGE_LOOP('',(#205,#206));
#167=EDGE_LOOP('',(#207));
#168=EDGE_LOOP('',(#208));
#169=EDGE_LOOP('',(#209));
#170=EDGE_LOOP('',(#210));
#171=EDGE_LOOP('',(#211));
#172=EDGE_LOOP('',(#212));
#173=EDGE_LOOP('',(#213,#214,#215,#216,#217,#218,#219,#220,#221,#222));
#174=EDGE_LOOP('',(#223));
#175=EDGE_LOOP('',(#224,#225));
#176=EDGE_LOOP('',(#226));
#177=EDGE_LOOP('',(#227));
#178=EDGE_LOOP('',(#228));
#179=EDGE_LOOP('',(#229));
#180=EDGE_LOOP('',(#230));
#181=EDGE_LOOP('',(#231));
#182=EDGE_LOOP('',(#232));
#183=EDGE_LOOP('',(#233));
#184=EDGE_LOOP('',(#234));
#185=EDGE_LOOP('',(#235));
#186=EDGE_LOOP('',(#236));
#187=EDGE_LOOP('',(#237));
#188=ORIENTED_EDGE('',*,*,#258,.T.);
#189=ORIENTED_EDGE('',*,*,#259,.T.);
#190=ORIENTED_EDGE('',*,*,#260,.T.);
#191=ORIENTED_EDGE('',*,*,#261,.T.);
#192=ORIENTED_EDGE('',*,*,#262,.T.);
#193=ORIENTED_EDGE('',*,*,#263,.F.);
#194=ORIENTED_EDGE('',*,*,#259,.F.);
#195=ORIENTED_EDGE('',*,*,#264,.F.);
#196=ORIENTED_EDGE('',*,*,#265,.T.);
#197=ORIENTED_EDGE('',*,*,#266,.F.);
#198=ORIENTED_EDGE('',*,*,#265,.F.);
#199=ORIENTED_EDGE('',*,*,#267,.F.);
#200=ORIENTED_EDGE('',*,*,#268,.T.);
#201=ORIENTED_EDGE('',*,*,#269,.F.);
#202=ORIENTED_EDGE('',*,*,#270,.T.);
#203=ORIENTED_EDGE('',*,*,#268,.F.);
#204=ORIENTED_EDGE('',*,*,#271,.T.);
#205=ORIENTED_EDGE('',*,*,#269,.T.);
#206=ORIENTED_EDGE('',*,*,#272,.T.);
#207=ORIENTED_EDGE('',*,*,#273,.F.);
#208=ORIENTED_EDGE('',*,*,#274,.F.);
#209=ORIENTED_EDGE('',*,*,#274,.T.);
#210=ORIENTED_EDGE('',*,*,#275,.F.);
#211=ORIENTED_EDGE('',*,*,#275,.T.);
#212=ORIENTED_EDGE('',*,*,#258,.F.);
#213=ORIENTED_EDGE('',*,*,#263,.T.);
#214=ORIENTED_EDGE('',*,*,#266,.T.);
#215=ORIENTED_EDGE('',*,*,#270,.F.);
#216=ORIENTED_EDGE('',*,*,#272,.F.);
#217=ORIENTED_EDGE('',*,*,#271,.F.);
#218=ORIENTED_EDGE('',*,*,#267,.T.);
#219=ORIENTED_EDGE('',*,*,#264,.T.);
#220=ORIENTED_EDGE('',*,*,#262,.F.);
#221=ORIENTED_EDGE('',*,*,#276,.F.);
#222=ORIENTED_EDGE('',*,*,#260,.F.);
#223=ORIENTED_EDGE('',*,*,#277,.T.);
#224=ORIENTED_EDGE('',*,*,#276,.T.);
#225=ORIENTED_EDGE('',*,*,#261,.F.);
#226=ORIENTED_EDGE('',*,*,#278,.T.);
#227=ORIENTED_EDGE('',*,*,#277,.F.);
#228=ORIENTED_EDGE('',*,*,#278,.F.);
#229=ORIENTED_EDGE('',*,*,#279,.F.);
#230=ORIENTED_EDGE('',*,*,#279,.T.);
#231=ORIENTED_EDGE('',*,*,#280,.F.);
#232=ORIENTED_EDGE('',*,*,#280,.T.);
#233=ORIENTED_EDGE('',*,*,#281,.F.);
#234=ORIENTED_EDGE('',*,*,#281,.T.);
#235=ORIENTED_EDGE('',*,*,#282,.F.);
#236=ORIENTED_EDGE('',*,*,#282,.T.);
#237=ORIENTED_EDGE('',*,*,#273,.T.);
#238=VERTEX_POINT('',#405);
#239=VERTEX_POINT('',#407);
#240=VERTEX_POINT('',#408);
#241=VERTEX_POINT('',#410);
#242=VERTEX_POINT('',#425);
#243=VERTEX_POINT('',#435);
#244=VERTEX_POINT('',#443);
#245=VERTEX_POINT('',#450);
#246=VERTEX_POINT('',#455);
#247=VERTEX_POINT('',#459);
#248=VERTEX_POINT('',#460);
#249=VERTEX_POINT('',#491);
#250=VERTEX_POINT('',#493);
#251=VERTEX_POINT('',#496);
#252=VERTEX_POINT('',#501);
#253=VERTEX_POINT('',#505);
#254=VERTEX_POINT('',#509);
#255=VERTEX_POINT('',#512);
#256=VERTEX_POINT('',#515);
#257=VERTEX_POINT('',#518);
#258=EDGE_CURVE('',#238,#238,#283,.T.);
#259=EDGE_CURVE('',#239,#240,#284,.T.);
#260=EDGE_CURVE('',#240,#241,#138,.T.);
#261=EDGE_CURVE('',#241,#242,#131,.T.);
#262=EDGE_CURVE('',#242,#239,#139,.T.);
#263=EDGE_CURVE('',#240,#243,#132,.T.);
#264=EDGE_CURVE('',#244,#239,#133,.T.);
#265=EDGE_CURVE('',#244,#243,#285,.T.);
#266=EDGE_CURVE('',#243,#245,#134,.T.);
#267=EDGE_CURVE('',#246,#244,#135,.T.);
#268=EDGE_CURVE('',#246,#245,#286,.T.);
#269=EDGE_CURVE('',#247,#248,#287,.T.);
#270=EDGE_CURVE('',#247,#245,#136,.T.);
#271=EDGE_CURVE('',#246,#248,#137,.T.);
#272=EDGE_CURVE('',#248,#247,#93,.T.);
#273=EDGE_CURVE('',#249,#249,#288,.T.);
#274=EDGE_CURVE('',#250,#250,#289,.T.);
#275=EDGE_CURVE('',#251,#251,#290,.T.);
#276=EDGE_CURVE('',#241,#242,#291,.T.);
#277=EDGE_CURVE('',#252,#252,#140,.T.);
#278=EDGE_CURVE('',#253,#253,#292,.T.);
#279=EDGE_CURVE('',#254,#254,#293,.T.);
#280=EDGE_CURVE('',#255,#255,#294,.T.);
#281=EDGE_CURVE('',#256,#256,#295,.T.);
#282=EDGE_CURVE('',#257,#257,#296,.T.);
#283=CIRCLE('',#298,24.);
#284=CIRCLE('',#299,23.9999999999992);
#285=CIRCLE('',#303,23.7990381056758);
#286=CIRCLE('',#305,20.9330127018921);
#287=CIRCLE('',#307,19.6339745962155);
#288=CIRCLE('',#310,12.4999999999998);
#289=CIRCLE('',#311,22.9950564355557);
#290=CIRCLE('',#313,23.9912511336474);
#291=CIRCLE('',#316,35.1336943140171);
#292=CIRCLE('',#320,12.5);
#293=CIRCLE('',#323,11.25);
#294=CIRCLE('',#325,12.25);
#295=CIRCLE('',#327,12.25);
#296=CIRCLE('',#329,12.4999999999997);
#297=AXIS2_PLACEMENT_3D('',#403,#332,#333);
#298=AXIS2_PLACEMENT_3D('',#404,#334,#335);
#299=AXIS2_PLACEMENT_3D('',#406,#336,#337);
#300=AXIS2_PLACEMENT_3D('',#409,#338,#339);
#301=AXIS2_PLACEMENT_3D('',#426,#340,#341);
#302=AXIS2_PLACEMENT_3D('',#427,#342,#343);
#303=AXIS2_PLACEMENT_3D('',#444,#344,#345);
#304=AXIS2_PLACEMENT_3D('',#445,#346,#347);
#305=AXIS2_PLACEMENT_3D('',#456,#348,#349);
#306=AXIS2_PLACEMENT_3D('',#457,#350,#351);
#307=AXIS2_PLACEMENT_3D('',#458,#352,#353);
#308=AXIS2_PLACEMENT_3D('',#487,#354,#355);
#309=AXIS2_PLACEMENT_3D('',#489,#357,#358);
#310=AXIS2_PLACEMENT_3D('',#490,#359,#360);
#311=AXIS2_PLACEMENT_3D('',#492,#361,#362);
#312=AXIS2_PLACEMENT_3D('',#494,#363,#364);
#313=AXIS2_PLACEMENT_3D('',#495,#365,#366);
#314=AXIS2_PLACEMENT_3D('',#497,#367,#368);
#315=AXIS2_PLACEMENT_3D('',#498,#369,#370);
#316=AXIS2_PLACEMENT_3D('',#499,#371,#372);
#317=AXIS2_PLACEMENT_3D('',#500,#373,#374);
#318=AXIS2_PLACEMENT_3D('',#502,#375,#376);
#319=AXIS2_PLACEMENT_3D('',#503,#377,#378);
#320=AXIS2_PLACEMENT_3D('',#504,#379,#380);
#321=AXIS2_PLACEMENT_3D('',#506,#381,#382);
#322=AXIS2_PLACEMENT_3D('',#507,#383,#384);
#323=AXIS2_PLACEMENT_3D('',#508,#385,#386);
#324=AXIS2_PLACEMENT_3D('',#510,#387,#388);
#325=AXIS2_PLACEMENT_3D('',#511,#389,#390);
#326=AXIS2_PLACEMENT_3D('',#513,#391,#392);
#327=AXIS2_PLACEMENT_3D('',#514,#393,#394);
#328=AXIS2_PLACEMENT_3D('',#516,#395,#396);
#329=AXIS2_PLACEMENT_3D('',#517,#397,#398);
#330=AXIS2_PLACEMENT_3D('',#519,#399,#400);
#331=AXIS2_PLACEMENT_3D('',#520,#401,#402);
#332=DIRECTION('',(0.,0.,1.));
#333=DIRECTION('',(1.,0.,0.));
#334=DIRECTION('',(-1.,0.,0.));
#335=DIRECTION('',(0.,0.,1.));
#336=DIRECTION('',(1.,0.,0.));
#337=DIRECTION('',(0.,0.,-1.));
#338=DIRECTION('',(0.0871557427476556,0.,-0.996194698091747));
#339=DIRECTION('',(-0.996194698091746,0.,-0.0871557427476555));
#340=DIRECTION('',(0.0871557427476556,0.,-0.996194698091747));
#341=DIRECTION('',(-0.996194698091746,0.,-0.0871557427476555));
#342=DIRECTION('',(-1.,0.,0.));
#343=DIRECTION('',(0.,0.,1.));
#344=DIRECTION('',(1.,0.,0.));
#345=DIRECTION('',(0.,0.,-1.));
#346=DIRECTION('',(1.,0.,0.));
#347=DIRECTION('',(0.,0.,-1.));
#348=DIRECTION('',(1.,0.,0.));
#349=DIRECTION('',(0.,0.,1.));
#350=DIRECTION('',(1.,0.,0.));
#351=DIRECTION('',(2.40370335797937E-17,0.,-1.));
#352=DIRECTION('',(-1.,0.,0.));
#353=DIRECTION('',(0.,0.,1.));
#354=DIRECTION('',(-1.,0.,0.));
#355=DIRECTION('',(0.,0.,1.));
#356=DIRECTION('',(0.,1.,0.));
#357=DIRECTION('',(-1.,0.,0.));
#358=DIRECTION('',(0.,0.,1.));
#359=DIRECTION('',(1.,0.,0.));
#360=DIRECTION('',(0.,0.,-1.));
#361=DIRECTION('',(-1.,0.,0.));
#362=DIRECTION('',(0.,0.,1.));
#363=DIRECTION('',(1.,0.,0.));
#364=DIRECTION('',(0.,0.,-1.));
#365=DIRECTION('',(-1.,0.,0.));
#366=DIRECTION('',(0.,0.,1.));
#367=DIRECTION('',(-1.,0.,0.));
#368=DIRECTION('',(0.,0.,1.));
#369=DIRECTION('',(-1.,0.,0.));
#370=DIRECTION('',(-3.73431361600101E-16,0.,1.));
#371=DIRECTION('',(0.0871557427476555,0.,-0.996194698091746));
#372=DIRECTION('',(0.996194698091746,0.,0.0871557427476555));
#373=DIRECTION('',(0.0871557427476556,0.,-0.996194698091747));
#374=DIRECTION('',(0.996194698091746,0.,0.0871557427476555));
#375=DIRECTION('',(-0.0871557427476555,0.,0.996194698091746));
#376=DIRECTION('',(0.996194698091746,0.,0.0871557427476555));
#377=DIRECTION('',(-0.0871557427476555,0.,0.996194698091746));
#378=DIRECTION('',(0.996194698091746,0.,0.0871557427476556));
#379=DIRECTION('',(0.,0.,-1.));
#380=DIRECTION('',(-1.,0.,0.));
#381=DIRECTION('',(0.,0.,1.));
#382=DIRECTION('',(1.,0.,0.));
#383=DIRECTION('',(0.,0.,-1.));
#384=DIRECTION('',(-1.,0.,0.));
#385=DIRECTION('',(-1.,0.,0.));
#386=DIRECTION('',(0.,0.,1.));
#387=DIRECTION('',(1.,0.,0.));
#388=DIRECTION('',(0.,0.,-1.));
#389=DIRECTION('',(-1.,0.,0.));
#390=DIRECTION('',(0.,0.,1.));
#391=DIRECTION('',(-1.,0.,0.));
#392=DIRECTION('',(0.,0.,1.));
#393=DIRECTION('',(-1.,0.,0.));
#394=DIRECTION('',(0.,0.,1.));
#395=DIRECTION('',(-1.,0.,0.));
#396=DIRECTION('',(0.,0.,1.));
#397=DIRECTION('',(-1.,0.,0.));
#398=DIRECTION('',(0.,0.,1.));
#399=DIRECTION('',(-1.,0.,0.));
#400=DIRECTION('',(-1.47451634096535E-16,0.,1.));
#401=DIRECTION('',(-1.,0.,0.));
#402=DIRECTION('',(0.,0.,1.));
#403=CARTESIAN_POINT('',(0.,0.,0.));
#404=CARTESIAN_POINT('',(63.9871557427463,0.,0.));
#405=CARTESIAN_POINT('',(63.9871557427463,0.,24.));
#406=CARTESIAN_POINT('',(6.46410161513627,0.,0.));
#407=CARTESIAN_POINT('',(6.46410161513627,-20.2602564997781,12.865535611204));
#408=CARTESIAN_POINT('',(6.46410161513627,20.2602564997781,12.865535611204));
#409=CARTESIAN_POINT('',(-140.589643323969,0.,0.));
#410=CARTESIAN_POINT('',(29.5510906331984,18.8261865693053,14.8853854252319));
#411=CARTESIAN_POINT('',(29.5510906331984,18.8261865693054,14.8853854252319));
#412=CARTESIAN_POINT('',(32.7347700933331,17.09054815862,17.0805219032587));
#413=CARTESIAN_POINT('',(35.7703825500522,14.7612629253481,19.2628168672452));
#414=CARTESIAN_POINT('',(39.3604156256395,10.037010143264,21.8745554603308));
#415=CARTESIAN_POINT('',(40.3772492900914,8.26841056070207,22.6211291516808));
#416=CARTESIAN_POINT('',(41.822608900018,4.3701593750585,23.685096671408));
#417=CARTESIAN_POINT('',(42.2428750069321,2.219093369243,23.9961707895976));
#418=CARTESIAN_POINT('',(42.2531384542095,-2.13547827887617,24.0037563823957));
#419=CARTESIAN_POINT('',(41.8463166457004,-4.28422314973779,23.7025949825991));
#420=CARTESIAN_POINT('',(40.4008525899781,-8.22604034063163,22.6384592501385));
#421=CARTESIAN_POINT('',(39.3692377696778,-10.0214433786915,21.8810370102635));
#422=CARTESIAN_POINT('',(35.802044028626,-14.7274318249844,19.2857248758713));
#423=CARTESIAN_POINT('',(32.7680908237138,-17.0723827810294,17.1034964368602));
#424=CARTESIAN_POINT('',(29.5510906331984,-18.8261865693054,14.8853854252319));
#425=CARTESIAN_POINT('',(29.5510906331984,-18.8261865693053,14.8853854252319));
#426=CARTESIAN_POINT('',(-140.589643323969,0.,0.));
#427=CARTESIAN_POINT('',(0.,0.,0.));
#428=CARTESIAN_POINT('',(6.46410161513627,20.2602564997781,12.865535611204));
#429=CARTESIAN_POINT('',(6.32117098985384,20.26819722207,12.8530308018211));
#430=CARTESIAN_POINT('',(6.17482495726135,20.2512042901037,12.8402271830173));
#431=CARTESIAN_POINT('',(6.03751382523976,20.2105850113909,12.8282140155895));
#432=CARTESIAN_POINT('',(5.92402865656892,20.1770139117419,12.8182853498525));
#433=CARTESIAN_POINT('',(5.81435525325294,20.1268668933745,12.808690170372));
#434=CARTESIAN_POINT('',(5.71410161513626,20.063805357951,12.7999191135596));
#435=CARTESIAN_POINT('',(5.71410161513626,20.063805357951,12.7999191135596));
#436=CARTESIAN_POINT('',(5.71410161513626,-20.063805357951,12.7999191135596));
#437=CARTESIAN_POINT('',(5.83549915167504,-20.1401668266675,12.8105400217867));
#438=CARTESIAN_POINT('',(5.97117116381506,-20.1975628547962,12.8224097848067));
#439=CARTESIAN_POINT('',(6.11076843875047,-20.2298843424281,12.8346229638227));
#440=CARTESIAN_POINT('',(6.22595295090038,-20.2565534503068,12.8447003028495));
#441=CARTESIAN_POINT('',(6.34607348349735,-20.2668137272031,12.8552094877085));
#442=CARTESIAN_POINT('',(6.46410161513627,-20.2602564997781,12.865535611204));
#443=CARTESIAN_POINT('',(5.71410161513626,-20.063805357951,12.7999191135596));
#444=CARTESIAN_POINT('',(5.71410161513626,0.,0.));
#445=CARTESIAN_POINT('',(6.46410161513627,0.,0.));
#446=CARTESIAN_POINT('',(5.71410161513626,20.063805357951,12.7999191135596));
#447=CARTESIAN_POINT('',(4.05174001465705,19.0181467970787,12.6544813188369));
#448=CARTESIAN_POINT('',(2.39557874938112,17.9623836954279,12.5095859831545));
#449=CARTESIAN_POINT('',(0.749999999999975,16.8903093343717,12.3656164976444));
#450=CARTESIAN_POINT('',(0.749999999999975,16.8903093343717,12.3656164976444));
#451=CARTESIAN_POINT('',(0.749999999999976,-16.8903093343717,12.3656164976444));
#452=CARTESIAN_POINT('',(2.39557874938112,-17.9623836954279,12.5095859831545));
#453=CARTESIAN_POINT('',(4.05174001465705,-19.0181467970787,12.6544813188369));
#454=CARTESIAN_POINT('',(5.71410161513626,-20.063805357951,12.7999191135596));
#455=CARTESIAN_POINT('',(0.749999999999976,-16.8903093343717,12.3656164976444));
#456=CARTESIAN_POINT('',(0.750000000000032,0.,0.));
#457=CARTESIAN_POINT('',(-35.5070415551605,0.,0.));
#458=CARTESIAN_POINT('',(-8.61955639015456E-16,0.,0.));
#459=CARTESIAN_POINT('',(-8.61955639015456E-16,15.3036910072321,12.3));
#460=CARTESIAN_POINT('',(-8.61955639015456E-16,-15.3036910072321,12.3));
#461=CARTESIAN_POINT('',(-8.61955639015456E-16,15.3036910072321,12.3));
#462=CARTESIAN_POINT('',(6.08929360477295E-16,15.462673658487,12.3));
#463=CARTESIAN_POINT('',(0.0154302785586321,15.6225648962069,12.3013499744489));
#464=CARTESIAN_POINT('',(0.0475428855333027,15.7782452438571,12.3041594635155));
#465=CARTESIAN_POINT('',(0.0906964233852183,15.9874514842731,12.3079349088686));
#466=CARTESIAN_POINT('',(0.165372036884494,16.1935600390773,12.3144681784916));
#467=CARTESIAN_POINT('',(0.272919951068268,16.3779201364893,12.3238774017685));
#468=CARTESIAN_POINT('',(0.358644640885881,16.5248705658429,12.3313773403118));
#469=CARTESIAN_POINT('',(0.467524326396832,16.6612605381509,12.3409030784823));
#470=CARTESIAN_POINT('',(0.595443347785302,16.7731125622957,12.3520945427031));
#471=CARTESIAN_POINT('',(0.644128656002514,16.8156828556821,12.3563539552524));
#472=CARTESIAN_POINT('',(0.69584082160652,16.8550252942774,12.3608781835091));
#473=CARTESIAN_POINT('',(0.749999999999975,16.8903093343717,12.3656164976444));
#474=CARTESIAN_POINT('',(0.749999999999976,-16.8903093343717,12.3656164976444));
#475=CARTESIAN_POINT('',(0.605839867266401,-16.7963907769959,12.3530041202979));
#476=CARTESIAN_POINT('',(0.478600260959059,-16.6724970299412,12.3418720971945));
#477=CARTESIAN_POINT('',(0.375894052046698,-16.5341763717777,12.3328864682409));
#478=CARTESIAN_POINT('',(0.27374487706131,-16.3966059048656,12.3239495734412));
#479=CARTESIAN_POINT('',(0.192716861563163,-16.2415367768836,12.3168605406571));
#480=CARTESIAN_POINT('',(0.133453735247778,-16.0805990417894,12.3116756889394));
#481=CARTESIAN_POINT('',(0.0640885290449672,-15.8922276230894,12.3056070197535));
#482=CARTESIAN_POINT('',(0.0227853090277677,-15.691806517347,12.3019934562349));
#483=CARTESIAN_POINT('',(0.00723988868426312,-15.4915850346436,12.3006334081851));
#484=CARTESIAN_POINT('',(0.0023881978789873,-15.429096359189,12.3002089402407));
#485=CARTESIAN_POINT('',(-2.82066029321479E-16,-15.3663691823554,12.3));
#486=CARTESIAN_POINT('',(-8.61955639015456E-16,-15.3036910072321,12.3));
#487=CARTESIAN_POINT('',(1.5,0.,0.));
#488=CARTESIAN_POINT('',(1.4210854715202E-14,0.,12.3));
#489=CARTESIAN_POINT('',(1.4210854715202E-14,0.,0.));
#490=CARTESIAN_POINT('',(64.9999999999987,0.,0.));
#491=CARTESIAN_POINT('',(64.9999999999987,0.,-12.4999999999998));
#492=CARTESIAN_POINT('',(64.9999999999987,0.,0.));
#493=CARTESIAN_POINT('',(64.9999999999987,0.,22.9950564355557));
#494=CARTESIAN_POINT('',(64.9999999999987,22.9950564355557,0.));
#495=CARTESIAN_POINT('',(64.0871557427465,0.,0.));
#496=CARTESIAN_POINT('',(64.0871557427465,0.,23.9912511336474));
#497=CARTESIAN_POINT('',(63.9999999999987,0.,0.));
#498=CARTESIAN_POINT('',(63.9871557427463,0.,0.));
#499=CARTESIAN_POINT('',(-5.92518801794612E-15,0.,12.3));
#500=CARTESIAN_POINT('',(17.5,0.,13.8310516117036));
#501=CARTESIAN_POINT('',(30.,0.,14.9246599057776));
#502=CARTESIAN_POINT('',(-3.59078893400065E-16,0.,12.3));
#503=CARTESIAN_POINT('',(-5.92518801794612E-15,0.,12.3));
#504=CARTESIAN_POINT('',(17.5,0.,8.));
#505=CARTESIAN_POINT('',(5.,0.,8.));
#506=CARTESIAN_POINT('',(17.5,0.,17.));
#507=CARTESIAN_POINT('',(30.,0.,8.));
#508=CARTESIAN_POINT('',(120.999999999999,0.,0.));
#509=CARTESIAN_POINT('',(120.999999999999,0.,11.25));
#510=CARTESIAN_POINT('',(120.999999999999,11.25,0.));
#511=CARTESIAN_POINT('',(119.999999999999,0.,0.));
#512=CARTESIAN_POINT('',(119.999999999999,0.,12.25));
#513=CARTESIAN_POINT('',(119.999999999999,0.,0.));
#514=CARTESIAN_POINT('',(118.686869354861,0.,0.));
#515=CARTESIAN_POINT('',(118.686869354861,0.,12.25));
#516=CARTESIAN_POINT('',(0.,0.,0.));
#517=CARTESIAN_POINT('',(117.999999999999,0.,0.));
#518=CARTESIAN_POINT('',(117.999999999999,0.,12.4999999999997));
#519=CARTESIAN_POINT('',(117.999999999999,0.,0.));
#520=CARTESIAN_POINT('',(0.,0.,0.));
#521=(
GEOMETRIC_REPRESENTATION_CONTEXT(3)
GLOBAL_UNCERTAINTY_ASSIGNED_CONTEXT((#522))
GLOBAL_UNIT_ASSIGNED_CONTEXT((#528,#524,#523))
REPRESENTATION_CONTEXT('ABHF-D52X80-WA25','TOP_LEVEL_ASSEMBLY_PART')
);
#522=UNCERTAINTY_MEASURE_WITH_UNIT(LENGTH_MEASURE(0.0508),#528,
'DISTANCE_ACCURACY_VALUE','Maximum Tolerance applied to model');
#523=(
NAMED_UNIT(*)
SI_UNIT($,.STERADIAN.)
SOLID_ANGLE_UNIT()
);
#524=(
CONVERSION_BASED_UNIT('DEGREE',#526)
NAMED_UNIT(#525)
PLANE_ANGLE_UNIT()
);
#525=DIMENSIONAL_EXPONENTS(0.,0.,0.,0.,0.,0.,0.);
#526=PLANE_ANGLE_MEASURE_WITH_UNIT(PLANE_ANGLE_MEASURE(0.0174532925),#527);
#527=(
NAMED_UNIT(*)
PLANE_ANGLE_UNIT()
SI_UNIT($,.RADIAN.)
);
#528=(
LENGTH_UNIT()
NAMED_UNIT(*)
SI_UNIT(.MILLI.,.METRE.)
);
ENDSEC;
END-ISO-10303-21;
