ISO-10303-21;
HEADER;
/* Generated by software containing ST-Developer
 * from STEP Tools, Inc. (www.steptools.com) 
 */
/* OPTION: using custom schema-name function */

FILE_DESCRIPTION(
/* description */ (''),
/* implementation_level */ '2;1');

FILE_NAME(
/* name */ 'ACM15-TC16-D30X37-W20-L100-Z02.stp',
/* time_stamp */ '2023-10-09T05:24:57+03:00',
/* author */ (''),
/* organization */ (''),
/* preprocessor_version */ 'ST-DEVELOPER v19.4',
/* originating_system */ 'SIEMENS PLM Software NX2306.3001',
/* authorisation */ '');

FILE_SCHEMA (('AUTOMOTIVE_DESIGN { 1 0 10303 214 3 1 1 1 }'));
ENDSEC;

DATA;
#10=SHAPE_REPRESENTATION_RELATIONSHIP('None',
'relationship between ACM15-TC16-D30X37-W20-L100-Z02-None and ACM15-TC
16-D30X37-W20-L100-Z02-None',#22,#11);
#11=ADVANCED_BREP_SHAPE_REPRESENTATION(
'ACM15-TC16-D30X37-W20-L100-Z02-None',(#150,#151),#586);
#12=SHAPE_DEFINITION_REPRESENTATION(#13,#22);
#13=PRODUCT_DEFINITION_SHAPE('','',#14);
#14=PRODUCT_DEFINITION(' ','',#16,#15);
#15=PRODUCT_DEFINITION_CONTEXT('part definition',#21,'design');
#16=PRODUCT_DEFINITION_FORMATION_WITH_SPECIFIED_SOURCE(' ',' ',#18,
 .NOT_KNOWN.);
#17=PRODUCT_RELATED_PRODUCT_CATEGORY('part','',(#18));
#18=PRODUCT('ACM15-TC16-D30X37-W20-L100-Z02',
'ACM15-TC16-D30X37-W20-L100-Z02',' ',(#19));
#19=PRODUCT_CONTEXT(' ',#21,'mechanical');
#20=APPLICATION_PROTOCOL_DEFINITION('international standard',
'automotive_design',2010,#21);
#21=APPLICATION_CONTEXT(
'core data for automotive mechanical design processes');
#22=SHAPE_REPRESENTATION('ACM15-TC16-D30X37-W20-L100-Z02-None',(#386),#586);
#23=LINE('',#578,#25);
#24=LINE('',#584,#26);
#25=VECTOR('',#502,15.1121432960385);
#26=VECTOR('',#509,15.1121432960385);
#27=OVER_RIDING_STYLED_ITEM('',(#48),#218,#45);
#28=OVER_RIDING_STYLED_ITEM('',(#49),#219,#45);
#29=OVER_RIDING_STYLED_ITEM('',(#50),#220,#45);
#30=OVER_RIDING_STYLED_ITEM('',(#51),#221,#45);
#31=OVER_RIDING_STYLED_ITEM('',(#52),#222,#45);
#32=OVER_RIDING_STYLED_ITEM('',(#53),#223,#45);
#33=OVER_RIDING_STYLED_ITEM('',(#54),#224,#45);
#34=OVER_RIDING_STYLED_ITEM('',(#55),#225,#45);
#35=OVER_RIDING_STYLED_ITEM('',(#56),#226,#45);
#36=OVER_RIDING_STYLED_ITEM('',(#57),#227,#45);
#37=OVER_RIDING_STYLED_ITEM('',(#58),#228,#45);
#38=OVER_RIDING_STYLED_ITEM('',(#59),#229,#45);
#39=OVER_RIDING_STYLED_ITEM('',(#60),#230,#45);
#40=OVER_RIDING_STYLED_ITEM('',(#61),#231,#45);
#41=OVER_RIDING_STYLED_ITEM('',(#62),#232,#45);
#42=DRAUGHTING_PRE_DEFINED_COLOUR('white');
#43=DRAUGHTING_PRE_DEFINED_COLOUR('yellow');
#44=PRESENTATION_LAYER_ASSIGNMENT('1','Layer 1',(#150,#151));
#45=STYLED_ITEM('',(#47),#150);
#46=STYLED_ITEM('',(#63),#151);
#47=PRESENTATION_STYLE_ASSIGNMENT((#64));
#48=PRESENTATION_STYLE_ASSIGNMENT((#65));
#49=PRESENTATION_STYLE_ASSIGNMENT((#66));
#50=PRESENTATION_STYLE_ASSIGNMENT((#67));
#51=PRESENTATION_STYLE_ASSIGNMENT((#68));
#52=PRESENTATION_STYLE_ASSIGNMENT((#69));
#53=PRESENTATION_STYLE_ASSIGNMENT((#70));
#54=PRESENTATION_STYLE_ASSIGNMENT((#71));
#55=PRESENTATION_STYLE_ASSIGNMENT((#72));
#56=PRESENTATION_STYLE_ASSIGNMENT((#73));
#57=PRESENTATION_STYLE_ASSIGNMENT((#74));
#58=PRESENTATION_STYLE_ASSIGNMENT((#75));
#59=PRESENTATION_STYLE_ASSIGNMENT((#76));
#60=PRESENTATION_STYLE_ASSIGNMENT((#77));
#61=PRESENTATION_STYLE_ASSIGNMENT((#78));
#62=PRESENTATION_STYLE_ASSIGNMENT((#79));
#63=PRESENTATION_STYLE_ASSIGNMENT((#80));
#64=SURFACE_STYLE_USAGE(.BOTH.,#81);
#65=SURFACE_STYLE_USAGE(.BOTH.,#82);
#66=SURFACE_STYLE_USAGE(.BOTH.,#83);
#67=SURFACE_STYLE_USAGE(.BOTH.,#84);
#68=SURFACE_STYLE_USAGE(.BOTH.,#85);
#69=SURFACE_STYLE_USAGE(.BOTH.,#86);
#70=SURFACE_STYLE_USAGE(.BOTH.,#87);
#71=SURFACE_STYLE_USAGE(.BOTH.,#88);
#72=SURFACE_STYLE_USAGE(.BOTH.,#89);
#73=SURFACE_STYLE_USAGE(.BOTH.,#90);
#74=SURFACE_STYLE_USAGE(.BOTH.,#91);
#75=SURFACE_STYLE_USAGE(.BOTH.,#92);
#76=SURFACE_STYLE_USAGE(.BOTH.,#93);
#77=SURFACE_STYLE_USAGE(.BOTH.,#94);
#78=SURFACE_STYLE_USAGE(.BOTH.,#95);
#79=SURFACE_STYLE_USAGE(.BOTH.,#96);
#80=SURFACE_STYLE_USAGE(.BOTH.,#97);
#81=SURFACE_SIDE_STYLE('',(#98));
#82=SURFACE_SIDE_STYLE('',(#99));
#83=SURFACE_SIDE_STYLE('',(#100));
#84=SURFACE_SIDE_STYLE('',(#101));
#85=SURFACE_SIDE_STYLE('',(#102));
#86=SURFACE_SIDE_STYLE('',(#103));
#87=SURFACE_SIDE_STYLE('',(#104));
#88=SURFACE_SIDE_STYLE('',(#105));
#89=SURFACE_SIDE_STYLE('',(#106));
#90=SURFACE_SIDE_STYLE('',(#107));
#91=SURFACE_SIDE_STYLE('',(#108));
#92=SURFACE_SIDE_STYLE('',(#109));
#93=SURFACE_SIDE_STYLE('',(#110));
#94=SURFACE_SIDE_STYLE('',(#111));
#95=SURFACE_SIDE_STYLE('',(#112));
#96=SURFACE_SIDE_STYLE('',(#113));
#97=SURFACE_SIDE_STYLE('',(#114));
#98=SURFACE_STYLE_FILL_AREA(#115);
#99=SURFACE_STYLE_FILL_AREA(#116);
#100=SURFACE_STYLE_FILL_AREA(#117);
#101=SURFACE_STYLE_FILL_AREA(#118);
#102=SURFACE_STYLE_FILL_AREA(#119);
#103=SURFACE_STYLE_FILL_AREA(#120);
#104=SURFACE_STYLE_FILL_AREA(#121);
#105=SURFACE_STYLE_FILL_AREA(#122);
#106=SURFACE_STYLE_FILL_AREA(#123);
#107=SURFACE_STYLE_FILL_AREA(#124);
#108=SURFACE_STYLE_FILL_AREA(#125);
#109=SURFACE_STYLE_FILL_AREA(#126);
#110=SURFACE_STYLE_FILL_AREA(#127);
#111=SURFACE_STYLE_FILL_AREA(#128);
#112=SURFACE_STYLE_FILL_AREA(#129);
#113=SURFACE_STYLE_FILL_AREA(#130);
#114=SURFACE_STYLE_FILL_AREA(#131);
#115=FILL_AREA_STYLE('',(#132));
#116=FILL_AREA_STYLE('',(#133));
#117=FILL_AREA_STYLE('',(#134));
#118=FILL_AREA_STYLE('',(#135));
#119=FILL_AREA_STYLE('',(#136));
#120=FILL_AREA_STYLE('',(#137));
#121=FILL_AREA_STYLE('',(#138));
#122=FILL_AREA_STYLE('',(#139));
#123=FILL_AREA_STYLE('',(#140));
#124=FILL_AREA_STYLE('',(#141));
#125=FILL_AREA_STYLE('',(#142));
#126=FILL_AREA_STYLE('',(#143));
#127=FILL_AREA_STYLE('',(#144));
#128=FILL_AREA_STYLE('',(#145));
#129=FILL_AREA_STYLE('',(#146));
#130=FILL_AREA_STYLE('',(#147));
#131=FILL_AREA_STYLE('',(#148));
#132=FILL_AREA_STYLE_COLOUR('',#149);
#133=FILL_AREA_STYLE_COLOUR('',#42);
#134=FILL_AREA_STYLE_COLOUR('',#42);
#135=FILL_AREA_STYLE_COLOUR('',#42);
#136=FILL_AREA_STYLE_COLOUR('',#42);
#137=FILL_AREA_STYLE_COLOUR('',#42);
#138=FILL_AREA_STYLE_COLOUR('',#42);
#139=FILL_AREA_STYLE_COLOUR('',#42);
#140=FILL_AREA_STYLE_COLOUR('',#42);
#141=FILL_AREA_STYLE_COLOUR('',#42);
#142=FILL_AREA_STYLE_COLOUR('',#42);
#143=FILL_AREA_STYLE_COLOUR('',#42);
#144=FILL_AREA_STYLE_COLOUR('',#42);
#145=FILL_AREA_STYLE_COLOUR('',#42);
#146=FILL_AREA_STYLE_COLOUR('',#42);
#147=FILL_AREA_STYLE_COLOUR('',#42);
#148=FILL_AREA_STYLE_COLOUR('',#43);
#149=COLOUR_RGB('Medium Steel',0.611764705882353,0.658823529411765,0.670588235294118);
#150=MANIFOLD_SOLID_BREP('',#152);
#151=MANIFOLD_SOLID_BREP('',#153);
#152=CLOSED_SHELL('',(#218,#219,#220,#221,#222,#223,#224,#225,#226,#227,
#228,#229,#230,#231,#232));
#153=CLOSED_SHELL('',(#233,#234,#235,#236,#237,#238));
#154=CONICAL_SURFACE('',#399,10.1519237886467,30.);
#155=CONICAL_SURFACE('',#405,10.,30.);
#156=CONICAL_SURFACE('',#409,9.75,14.9999999999999);
#157=CONICAL_SURFACE('',#419,14.9999999944336,15.);
#158=CYLINDRICAL_SURFACE('',#395,17.75);
#159=CYLINDRICAL_SURFACE('',#403,9.75);
#160=CYLINDRICAL_SURFACE('',#407,10.);
#161=CYLINDRICAL_SURFACE('',#411,9.75);
#162=SURFACE_OF_REVOLUTION('',#174,#168);
#163=SURFACE_OF_REVOLUTION('',#379,#169);
#164=SURFACE_OF_REVOLUTION('',#382,#170);
#165=SURFACE_OF_REVOLUTION('',#23,#171);
#166=SURFACE_OF_REVOLUTION('',#385,#172);
#167=SURFACE_OF_REVOLUTION('',#24,#173);
#168=AXIS1_PLACEMENT('',#528,#437);
#169=AXIS1_PLACEMENT('',#568,#490);
#170=AXIS1_PLACEMENT('',#575,#499);
#171=AXIS1_PLACEMENT('',#579,#503);
#172=AXIS1_PLACEMENT('',#583,#508);
#173=AXIS1_PLACEMENT('',#585,#510);
#174=B_SPLINE_CURVE_WITH_KNOTS('',3,(#520,#521,#522,#523,#524,#525,#526,
#527),.UNSPECIFIED.,.F.,.F.,(4,2,2,4),(0.,0.250617276920143,0.501234561213,
1.),.UNSPECIFIED.);
#175=TOROIDAL_SURFACE('',#390,13.7429028376353,0.799999999999809);
#176=TOROIDAL_SURFACE('',#393,13.7500000000002,3.9999999999999);
#177=TOROIDAL_SURFACE('',#397,15.75,2.);
#178=TOROIDAL_SURFACE('',#401,12.75,3.);
#179=TOROIDAL_SURFACE('',#413,8.75,1.);
#180=FACE_BOUND('',#244,.T.);
#181=FACE_BOUND('',#245,.T.);
#182=FACE_BOUND('',#246,.T.);
#183=FACE_BOUND('',#247,.T.);
#184=FACE_BOUND('',#248,.T.);
#185=FACE_BOUND('',#249,.T.);
#186=FACE_BOUND('',#250,.T.);
#187=FACE_BOUND('',#251,.T.);
#188=FACE_BOUND('',#252,.T.);
#189=FACE_BOUND('',#253,.T.);
#190=FACE_BOUND('',#254,.T.);
#191=FACE_BOUND('',#255,.T.);
#192=FACE_BOUND('',#256,.T.);
#193=FACE_BOUND('',#257,.T.);
#194=FACE_BOUND('',#258,.T.);
#195=FACE_BOUND('',#259,.T.);
#196=FACE_BOUND('',#260,.T.);
#197=FACE_BOUND('',#261,.T.);
#198=FACE_BOUND('',#262,.T.);
#199=FACE_BOUND('',#263,.T.);
#200=FACE_BOUND('',#264,.T.);
#201=FACE_BOUND('',#265,.T.);
#202=FACE_BOUND('',#266,.T.);
#203=FACE_BOUND('',#267,.T.);
#204=FACE_BOUND('',#268,.T.);
#205=FACE_BOUND('',#269,.T.);
#206=FACE_BOUND('',#271,.T.);
#207=FACE_BOUND('',#272,.T.);
#208=FACE_BOUND('',#273,.T.);
#209=FACE_BOUND('',#274,.T.);
#210=FACE_BOUND('',#275,.T.);
#211=FACE_BOUND('',#276,.T.);
#212=FACE_BOUND('',#277,.T.);
#213=FACE_BOUND('',#278,.T.);
#214=FACE_BOUND('',#279,.T.);
#215=FACE_BOUND('',#280,.T.);
#216=FACE_BOUND('',#281,.T.);
#217=FACE_BOUND('',#282,.T.);
#218=ADVANCED_FACE('',(#241),#239,.F.);
#219=ADVANCED_FACE('',(#180,#181),#175,.T.);
#220=ADVANCED_FACE('',(#182,#183),#162,.T.);
#221=ADVANCED_FACE('',(#184,#185),#176,.T.);
#222=ADVANCED_FACE('',(#186,#187),#158,.T.);
#223=ADVANCED_FACE('',(#188,#189),#177,.T.);
#224=ADVANCED_FACE('',(#190,#191),#154,.T.);
#225=ADVANCED_FACE('',(#192,#193),#178,.F.);
#226=ADVANCED_FACE('',(#194,#195),#159,.T.);
#227=ADVANCED_FACE('',(#196,#197),#155,.T.);
#228=ADVANCED_FACE('',(#198,#199),#160,.T.);
#229=ADVANCED_FACE('',(#200,#201),#156,.T.);
#230=ADVANCED_FACE('',(#202,#203),#161,.T.);
#231=ADVANCED_FACE('',(#204,#205),#179,.T.);
#232=ADVANCED_FACE('',(#242),#240,.F.);
#233=ADVANCED_FACE('',(#206,#207),#163,.T.);
#234=ADVANCED_FACE('',(#208,#209),#157,.T.);
#235=ADVANCED_FACE('',(#210,#211),#164,.T.);
#236=ADVANCED_FACE('',(#212,#213),#165,.T.);
#237=ADVANCED_FACE('',(#214,#215),#166,.T.);
#238=ADVANCED_FACE('',(#216,#217),#167,.T.);
#239=PLANE('',#388);
#240=PLANE('',#414);
#241=FACE_OUTER_BOUND('',#243,.T.);
#242=FACE_OUTER_BOUND('',#270,.T.);
#243=EDGE_LOOP('',(#283));
#244=EDGE_LOOP('',(#284));
#245=EDGE_LOOP('',(#285));
#246=EDGE_LOOP('',(#286));
#247=EDGE_LOOP('',(#287));
#248=EDGE_LOOP('',(#288));
#249=EDGE_LOOP('',(#289));
#250=EDGE_LOOP('',(#290));
#251=EDGE_LOOP('',(#291));
#252=EDGE_LOOP('',(#292));
#253=EDGE_LOOP('',(#293));
#254=EDGE_LOOP('',(#294));
#255=EDGE_LOOP('',(#295));
#256=EDGE_LOOP('',(#296));
#257=EDGE_LOOP('',(#297));
#258=EDGE_LOOP('',(#298));
#259=EDGE_LOOP('',(#299));
#260=EDGE_LOOP('',(#300));
#261=EDGE_LOOP('',(#301));
#262=EDGE_LOOP('',(#302));
#263=EDGE_LOOP('',(#303));
#264=EDGE_LOOP('',(#304));
#265=EDGE_LOOP('',(#305));
#266=EDGE_LOOP('',(#306));
#267=EDGE_LOOP('',(#307));
#268=EDGE_LOOP('',(#308));
#269=EDGE_LOOP('',(#309));
#270=EDGE_LOOP('',(#310));
#271=EDGE_LOOP('',(#311));
#272=EDGE_LOOP('',(#312));
#273=EDGE_LOOP('',(#313));
#274=EDGE_LOOP('',(#314));
#275=EDGE_LOOP('',(#315));
#276=EDGE_LOOP('',(#316));
#277=EDGE_LOOP('',(#317));
#278=EDGE_LOOP('',(#318));
#279=EDGE_LOOP('',(#319));
#280=EDGE_LOOP('',(#320));
#281=EDGE_LOOP('',(#321));
#282=EDGE_LOOP('',(#322));
#283=ORIENTED_EDGE('',*,*,#343,.T.);
#284=ORIENTED_EDGE('',*,*,#343,.F.);
#285=ORIENTED_EDGE('',*,*,#344,.T.);
#286=ORIENTED_EDGE('',*,*,#344,.F.);
#287=ORIENTED_EDGE('',*,*,#345,.T.);
#288=ORIENTED_EDGE('',*,*,#345,.F.);
#289=ORIENTED_EDGE('',*,*,#346,.T.);
#290=ORIENTED_EDGE('',*,*,#346,.F.);
#291=ORIENTED_EDGE('',*,*,#347,.T.);
#292=ORIENTED_EDGE('',*,*,#347,.F.);
#293=ORIENTED_EDGE('',*,*,#348,.T.);
#294=ORIENTED_EDGE('',*,*,#348,.F.);
#295=ORIENTED_EDGE('',*,*,#349,.T.);
#296=ORIENTED_EDGE('',*,*,#349,.F.);
#297=ORIENTED_EDGE('',*,*,#350,.T.);
#298=ORIENTED_EDGE('',*,*,#350,.F.);
#299=ORIENTED_EDGE('',*,*,#351,.T.);
#300=ORIENTED_EDGE('',*,*,#351,.F.);
#301=ORIENTED_EDGE('',*,*,#352,.T.);
#302=ORIENTED_EDGE('',*,*,#352,.F.);
#303=ORIENTED_EDGE('',*,*,#353,.T.);
#304=ORIENTED_EDGE('',*,*,#353,.F.);
#305=ORIENTED_EDGE('',*,*,#354,.T.);
#306=ORIENTED_EDGE('',*,*,#354,.F.);
#307=ORIENTED_EDGE('',*,*,#355,.T.);
#308=ORIENTED_EDGE('',*,*,#355,.F.);
#309=ORIENTED_EDGE('',*,*,#356,.T.);
#310=ORIENTED_EDGE('',*,*,#356,.F.);
#311=ORIENTED_EDGE('',*,*,#357,.F.);
#312=ORIENTED_EDGE('',*,*,#358,.T.);
#313=ORIENTED_EDGE('',*,*,#359,.F.);
#314=ORIENTED_EDGE('',*,*,#357,.T.);
#315=ORIENTED_EDGE('',*,*,#360,.F.);
#316=ORIENTED_EDGE('',*,*,#359,.T.);
#317=ORIENTED_EDGE('',*,*,#361,.F.);
#318=ORIENTED_EDGE('',*,*,#360,.T.);
#319=ORIENTED_EDGE('',*,*,#362,.F.);
#320=ORIENTED_EDGE('',*,*,#361,.T.);
#321=ORIENTED_EDGE('',*,*,#358,.F.);
#322=ORIENTED_EDGE('',*,*,#362,.T.);
#323=VERTEX_POINT('',#513);
#324=VERTEX_POINT('',#516);
#325=VERTEX_POINT('',#519);
#326=VERTEX_POINT('',#530);
#327=VERTEX_POINT('',#533);
#328=VERTEX_POINT('',#536);
#329=VERTEX_POINT('',#539);
#330=VERTEX_POINT('',#542);
#331=VERTEX_POINT('',#545);
#332=VERTEX_POINT('',#548);
#333=VERTEX_POINT('',#551);
#334=VERTEX_POINT('',#554);
#335=VERTEX_POINT('',#557);
#336=VERTEX_POINT('',#560);
#337=VERTEX_POINT('',#564);
#338=VERTEX_POINT('',#566);
#339=VERTEX_POINT('',#570);
#340=VERTEX_POINT('',#573);
#341=VERTEX_POINT('',#577);
#342=VERTEX_POINT('',#581);
#343=EDGE_CURVE('',#323,#323,#363,.T.);
#344=EDGE_CURVE('',#324,#324,#364,.T.);
#345=EDGE_CURVE('',#325,#325,#365,.T.);
#346=EDGE_CURVE('',#326,#326,#366,.T.);
#347=EDGE_CURVE('',#327,#327,#367,.T.);
#348=EDGE_CURVE('',#328,#328,#368,.T.);
#349=EDGE_CURVE('',#329,#329,#369,.T.);
#350=EDGE_CURVE('',#330,#330,#370,.T.);
#351=EDGE_CURVE('',#331,#331,#371,.T.);
#352=EDGE_CURVE('',#332,#332,#372,.T.);
#353=EDGE_CURVE('',#333,#333,#373,.T.);
#354=EDGE_CURVE('',#334,#334,#374,.T.);
#355=EDGE_CURVE('',#335,#335,#375,.T.);
#356=EDGE_CURVE('',#336,#336,#376,.T.);
#357=EDGE_CURVE('',#337,#337,#377,.T.);
#358=EDGE_CURVE('',#338,#338,#378,.T.);
#359=EDGE_CURVE('',#339,#339,#380,.T.);
#360=EDGE_CURVE('',#340,#340,#381,.T.);
#361=EDGE_CURVE('',#341,#341,#383,.T.);
#362=EDGE_CURVE('',#342,#342,#384,.T.);
#363=CIRCLE('',#387,13.7429028376353);
#364=CIRCLE('',#389,14.5174214445148);
#365=CIRCLE('',#391,17.6197269953524);
#366=CIRCLE('',#392,17.75);
#367=CIRCLE('',#394,17.75);
#368=CIRCLE('',#396,17.4820508075689);
#369=CIRCLE('',#398,10.1519237886467);
#370=CIRCLE('',#400,9.75);
#371=CIRCLE('',#402,9.75);
#372=CIRCLE('',#404,10.);
#373=CIRCLE('',#406,10.);
#374=CIRCLE('',#408,9.75);
#375=CIRCLE('',#410,9.75);
#376=CIRCLE('',#412,8.75);
#377=CIRCLE('',#415,14.9999999944336);
#378=CIRCLE('',#416,14.3399702056559);
#379=CIRCLE('',#417,0.4);
#380=CIRCLE('',#418,18.9113104917667);
#381=CIRCLE('',#420,18.4305117892006);
#382=CIRCLE('',#421,0.4);
#383=CIRCLE('',#422,4.67443498308439);
#384=CIRCLE('',#423,4.52094987600197);
#385=CIRCLE('',#424,0.4);
#386=AXIS2_PLACEMENT_3D('',#511,#425,#426);
#387=AXIS2_PLACEMENT_3D('',#512,#427,#428);
#388=AXIS2_PLACEMENT_3D('',#514,#429,#430);
#389=AXIS2_PLACEMENT_3D('',#515,#431,#432);
#390=AXIS2_PLACEMENT_3D('',#517,#433,#434);
#391=AXIS2_PLACEMENT_3D('',#518,#435,#436);
#392=AXIS2_PLACEMENT_3D('',#529,#438,#439);
#393=AXIS2_PLACEMENT_3D('',#531,#440,#441);
#394=AXIS2_PLACEMENT_3D('',#532,#442,#443);
#395=AXIS2_PLACEMENT_3D('',#534,#444,#445);
#396=AXIS2_PLACEMENT_3D('',#535,#446,#447);
#397=AXIS2_PLACEMENT_3D('',#537,#448,#449);
#398=AXIS2_PLACEMENT_3D('',#538,#450,#451);
#399=AXIS2_PLACEMENT_3D('',#540,#452,#453);
#400=AXIS2_PLACEMENT_3D('',#541,#454,#455);
#401=AXIS2_PLACEMENT_3D('',#543,#456,#457);
#402=AXIS2_PLACEMENT_3D('',#544,#458,#459);
#403=AXIS2_PLACEMENT_3D('',#546,#460,#461);
#404=AXIS2_PLACEMENT_3D('',#547,#462,#463);
#405=AXIS2_PLACEMENT_3D('',#549,#464,#465);
#406=AXIS2_PLACEMENT_3D('',#550,#466,#467);
#407=AXIS2_PLACEMENT_3D('',#552,#468,#469);
#408=AXIS2_PLACEMENT_3D('',#553,#470,#471);
#409=AXIS2_PLACEMENT_3D('',#555,#472,#473);
#410=AXIS2_PLACEMENT_3D('',#556,#474,#475);
#411=AXIS2_PLACEMENT_3D('',#558,#476,#477);
#412=AXIS2_PLACEMENT_3D('',#559,#478,#479);
#413=AXIS2_PLACEMENT_3D('',#561,#480,#481);
#414=AXIS2_PLACEMENT_3D('',#562,#482,#483);
#415=AXIS2_PLACEMENT_3D('',#563,#484,#485);
#416=AXIS2_PLACEMENT_3D('',#565,#486,#487);
#417=AXIS2_PLACEMENT_3D('',#567,#488,#489);
#418=AXIS2_PLACEMENT_3D('',#569,#491,#492);
#419=AXIS2_PLACEMENT_3D('',#571,#493,#494);
#420=AXIS2_PLACEMENT_3D('',#572,#495,#496);
#421=AXIS2_PLACEMENT_3D('',#574,#497,#498);
#422=AXIS2_PLACEMENT_3D('',#576,#500,#501);
#423=AXIS2_PLACEMENT_3D('',#580,#504,#505);
#424=AXIS2_PLACEMENT_3D('',#582,#506,#507);
#425=DIRECTION('',(0.,0.,1.));
#426=DIRECTION('',(1.,0.,0.));
#427=DIRECTION('',(-1.,0.,0.));
#428=DIRECTION('',(0.,0.,1.));
#429=DIRECTION('',(1.,0.,0.));
#430=DIRECTION('',(0.,0.,-1.));
#431=DIRECTION('',(-1.,0.,0.));
#432=DIRECTION('',(0.,0.,1.));
#433=DIRECTION('',(-1.,0.,0.));
#434=DIRECTION('',(0.,0.,1.));
#435=DIRECTION('',(-1.,0.,0.));
#436=DIRECTION('',(0.,0.,1.));
#437=DIRECTION('',(-1.,0.,0.));
#438=DIRECTION('',(-1.,0.,0.));
#439=DIRECTION('',(0.,0.,1.));
#440=DIRECTION('',(-1.,0.,0.));
#441=DIRECTION('',(0.,0.,1.));
#442=DIRECTION('',(-1.,0.,0.));
#443=DIRECTION('',(0.,0.,1.));
#444=DIRECTION('',(-1.,0.,0.));
#445=DIRECTION('',(0.,0.,1.));
#446=DIRECTION('',(-1.,0.,0.));
#447=DIRECTION('',(0.,0.,1.));
#448=DIRECTION('',(-1.,0.,0.));
#449=DIRECTION('',(0.,0.,1.));
#450=DIRECTION('',(-1.,0.,0.));
#451=DIRECTION('',(0.,0.,1.));
#452=DIRECTION('',(-1.,0.,0.));
#453=DIRECTION('',(-8.26758740782214E-17,0.,1.));
#454=DIRECTION('',(-1.,0.,0.));
#455=DIRECTION('',(0.,0.,1.));
#456=DIRECTION('',(-1.,0.,0.));
#457=DIRECTION('',(0.,0.,1.));
#458=DIRECTION('',(-1.,0.,0.));
#459=DIRECTION('',(0.,0.,1.));
#460=DIRECTION('',(-1.,0.,0.));
#461=DIRECTION('',(0.,0.,1.));
#462=DIRECTION('',(-1.,0.,0.));
#463=DIRECTION('',(0.,0.,1.));
#464=DIRECTION('',(1.,0.,0.));
#465=DIRECTION('',(-1.41766729692269E-16,0.,-1.));
#466=DIRECTION('',(-1.,0.,0.));
#467=DIRECTION('',(0.,0.,1.));
#468=DIRECTION('',(-1.,0.,0.));
#469=DIRECTION('',(0.,0.,1.));
#470=DIRECTION('',(-1.,0.,0.));
#471=DIRECTION('',(0.,0.,1.));
#472=DIRECTION('',(-1.,0.,0.));
#473=DIRECTION('',(-9.99483483284286E-17,0.,1.));
#474=DIRECTION('',(-1.,0.,0.));
#475=DIRECTION('',(0.,0.,1.));
#476=DIRECTION('',(-1.,0.,0.));
#477=DIRECTION('',(0.,0.,1.));
#478=DIRECTION('',(-1.,0.,0.));
#479=DIRECTION('',(0.,0.,1.));
#480=DIRECTION('',(-1.,0.,0.));
#481=DIRECTION('',(0.,0.,1.));
#482=DIRECTION('',(-1.,0.,0.));
#483=DIRECTION('',(0.,0.,1.));
#484=DIRECTION('',(1.,0.,0.));
#485=DIRECTION('',(0.,0.,-1.));
#486=DIRECTION('',(1.,0.,0.));
#487=DIRECTION('',(0.,0.,-1.));
#488=DIRECTION('',(-0.0449434555275478,-0.167731259496521,0.984807753012208));
#489=DIRECTION('',(-0.965925826289068,0.25881904510252,-2.77555756156289E-17));
#490=DIRECTION('',(1.,0.,0.));
#491=DIRECTION('',(1.,0.,0.));
#492=DIRECTION('',(0.,0.,-1.));
#493=DIRECTION('',(1.,0.,0.));
#494=DIRECTION('',(3.13632094360145E-16,0.,-1.));
#495=DIRECTION('',(1.,0.,0.));
#496=DIRECTION('',(0.,0.,-1.));
#497=DIRECTION('',(-0.0449434555275485,-0.167731259496521,0.984807753012208));
#498=DIRECTION('',(0.965925826289067,-0.258819045102524,-2.77555756156289E-17));
#499=DIRECTION('',(1.,0.,0.));
#500=DIRECTION('',(1.,0.,0.));
#501=DIRECTION('',(0.,0.,-1.));
#502=DIRECTION('',(-0.262224294106613,0.953217263993369,0.150383733180435));
#503=DIRECTION('',(1.,0.,0.));
#504=DIRECTION('',(1.,0.,0.));
#505=DIRECTION('',(0.,0.,-1.));
#506=DIRECTION('',(-0.0449434555275478,-0.167731259496521,0.984807753012208));
#507=DIRECTION('',(-0.965925826289068,0.25881904510252,-2.77555756156289E-17));
#508=DIRECTION('',(1.,0.,0.));
#509=DIRECTION('',(-0.703701532182454,-0.694398218890848,-0.150383733180435));
#510=DIRECTION('',(1.,0.,0.));
#511=CARTESIAN_POINT('',(0.,0.,0.));
#512=CARTESIAN_POINT('',(1.3,0.,0.));
#513=CARTESIAN_POINT('',(1.3,0.,13.7429028376353));
#514=CARTESIAN_POINT('',(1.3,0.,0.));
#515=CARTESIAN_POINT('',(1.89969790915401,0.,0.));
#516=CARTESIAN_POINT('',(1.89969790915401,0.,14.5174214445148));
#517=CARTESIAN_POINT('',(2.09999999999962,0.,0.));
#518=CARTESIAN_POINT('',(13.8187433521861,0.,0.));
#519=CARTESIAN_POINT('',(13.8187433521861,0.,17.6197269953524));
#520=CARTESIAN_POINT('',(14.7678235934275,17.8681414796689,0.));
#521=CARTESIAN_POINT('',(13.6291676047619,17.5700074652148,0.));
#522=CARTESIAN_POINT('',(12.4904251055469,17.2722035942055,0.));
#523=CARTESIAN_POINT('',(10.2127389145513,16.6773665448388,0.));
#524=CARTESIAN_POINT('',(9.07379514222469,16.3803331152373,0.));
#525=CARTESIAN_POINT('',(5.66783314409341,15.4935141234784,0.));
#526=CARTESIAN_POINT('',(3.40046997311417,14.90504753843,0.));
#527=CARTESIAN_POINT('',(1.13245628844844,14.3191015814275,0.));
#528=CARTESIAN_POINT('',(0.,0.,0.));
#529=CARTESIAN_POINT('',(14.8312713673257,0.,0.));
#530=CARTESIAN_POINT('',(14.8312713673257,0.,17.75));
#531=CARTESIAN_POINT('',(14.8312713673257,0.,0.));
#532=CARTESIAN_POINT('',(18.3708348754012,0.,0.));
#533=CARTESIAN_POINT('',(18.3708348754012,0.,17.75));
#534=CARTESIAN_POINT('',(0.,0.,0.));
#535=CARTESIAN_POINT('',(19.3708348754012,0.,0.));
#536=CARTESIAN_POINT('',(19.3708348754012,0.,17.4820508075689));
#537=CARTESIAN_POINT('',(18.3708348754012,0.,0.));
#538=CARTESIAN_POINT('',(32.0669872981078,0.,0.));
#539=CARTESIAN_POINT('',(32.0669872981078,0.,10.1519237886467));
#540=CARTESIAN_POINT('',(32.0669872981078,0.,0.));
#541=CARTESIAN_POINT('',(33.5669872981078,0.,0.));
#542=CARTESIAN_POINT('',(33.5669872981078,0.,9.75));
#543=CARTESIAN_POINT('',(33.5669872981078,0.,0.));
#544=CARTESIAN_POINT('',(34.5669872981078,0.,0.));
#545=CARTESIAN_POINT('',(34.5669872981078,0.,9.75));
#546=CARTESIAN_POINT('',(0.,0.,0.));
#547=CARTESIAN_POINT('',(35.,0.,0.));
#548=CARTESIAN_POINT('',(35.,0.,10.));
#549=CARTESIAN_POINT('',(35.,0.,0.));
#550=CARTESIAN_POINT('',(95.0669872981078,0.,0.));
#551=CARTESIAN_POINT('',(95.0669872981078,0.,10.));
#552=CARTESIAN_POINT('',(0.,0.,0.));
#553=CARTESIAN_POINT('',(96.,0.,0.));
#554=CARTESIAN_POINT('',(96.,0.,9.75));
#555=CARTESIAN_POINT('',(96.,0.,0.));
#556=CARTESIAN_POINT('',(99.,0.,0.));
#557=CARTESIAN_POINT('',(99.,0.,9.75));
#558=CARTESIAN_POINT('',(0.,0.,0.));
#559=CARTESIAN_POINT('',(100.,0.,0.));
#560=CARTESIAN_POINT('',(100.,0.,8.75));
#561=CARTESIAN_POINT('',(99.,0.,0.));
#562=CARTESIAN_POINT('',(100.,8.75,0.));
#563=CARTESIAN_POINT('',(0.297886402990244,0.,0.));
#564=CARTESIAN_POINT('',(0.297886402990244,0.,-14.9999999944336));
#565=CARTESIAN_POINT('',(0.116212082841617,0.,0.));
#566=CARTESIAN_POINT('',(0.116212082841617,0.,-14.3399702056559));
#567=CARTESIAN_POINT('',(0.399841203887915,-14.6194994974079,0.0694592710667728));
#568=CARTESIAN_POINT('',(0.,0.,0.));
#569=CARTESIAN_POINT('',(14.895095903215,0.,0.));
#570=CARTESIAN_POINT('',(14.895095903215,0.,-18.9113104917667));
#571=CARTESIAN_POINT('',(0.297886402990244,0.,0.));
#572=CARTESIAN_POINT('',(15.3826346260566,0.,0.));
#573=CARTESIAN_POINT('',(15.3826346260566,0.,-18.4305117892006));
#574=CARTESIAN_POINT('',(14.9970507041127,-18.5308099947411,0.0694592710667689));
#575=CARTESIAN_POINT('',(0.,0.,0.));
#576=CARTESIAN_POINT('',(11.4198635178149,0.,0.));
#577=CARTESIAN_POINT('',(11.4198635178149,0.,-4.67443498308439));
#578=CARTESIAN_POINT('',(15.3826346260566,-18.4302172934451,0.104188906600153));
#579=CARTESIAN_POINT('',(0.,0.,0.));
#580=CARTESIAN_POINT('',(10.7506504748247,0.,0.));
#581=CARTESIAN_POINT('',(10.7506504748247,0.,-4.52094987600197));
#582=CARTESIAN_POINT('',(11.034279595871,-4.12565410901555,2.34207979628273));
#583=CARTESIAN_POINT('',(0.,0.,0.));
#584=CARTESIAN_POINT('',(10.7506504748247,-3.84574631328591,2.37680943181612));
#585=CARTESIAN_POINT('',(0.,0.,0.));
#586=(
GEOMETRIC_REPRESENTATION_CONTEXT(3)
GLOBAL_UNCERTAINTY_ASSIGNED_CONTEXT((#587))
GLOBAL_UNIT_ASSIGNED_CONTEXT((#593,#589,#588))
REPRESENTATION_CONTEXT('ACM15-TC16-D30X37-W20-L100-Z02',
'TOP_LEVEL_ASSEMBLY_PART')
);
#587=UNCERTAINTY_MEASURE_WITH_UNIT(LENGTH_MEASURE(2.E-5),#593,
'DISTANCE_ACCURACY_VALUE','Maximum Tolerance applied to model');
#588=(
NAMED_UNIT(*)
SI_UNIT($,.STERADIAN.)
SOLID_ANGLE_UNIT()
);
#589=(
CONVERSION_BASED_UNIT('DEGREE',#591)
NAMED_UNIT(#590)
PLANE_ANGLE_UNIT()
);
#590=DIMENSIONAL_EXPONENTS(0.,0.,0.,0.,0.,0.,0.);
#591=PLANE_ANGLE_MEASURE_WITH_UNIT(PLANE_ANGLE_MEASURE(0.0174532925),#592);
#592=(
NAMED_UNIT(*)
PLANE_ANGLE_UNIT()
SI_UNIT($,.RADIAN.)
);
#593=(
LENGTH_UNIT()
NAMED_UNIT(*)
SI_UNIT(.MILLI.,.METRE.)
);
ENDSEC;
END-ISO-10303-21;
