ISO-10303-21;
HEADER;
/* Generated by software containing ST-Developer
 * from STEP Tools, Inc. (www.steptools.com) 
 */
/* OPTION: using custom schema-name function */

FILE_DESCRIPTION(
/* description */ (''),
/* implementation_level */ '2;1');

FILE_NAME(
/* name */ 'ACM30-TC16-D6X20-W16-L100-Z01.stp',
/* time_stamp */ '2023-10-09T04:35:33+03:00',
/* author */ (''),
/* organization */ (''),
/* preprocessor_version */ 'ST-DEVELOPER v19.4',
/* originating_system */ 'SIEMENS PLM Software NX2306.3001',
/* authorisation */ '');

FILE_SCHEMA (('AUTOMOTIVE_DESIGN { 1 0 10303 214 3 1 1 1 }'));
ENDSEC;

DATA;
#10=SHAPE_REPRESENTATION_RELATIONSHIP('None',
'relationship between ACM30-TC16-D6X20-W16-L100-Z01-None and ACM30-TC1
6-D6X20-W16-L100-Z01-None',#22,#11);
#11=ADVANCED_BREP_SHAPE_REPRESENTATION(
'ACM30-TC16-D6X20-W16-L100-Z01-None',(#150,#151),#614);
#12=SHAPE_DEFINITION_REPRESENTATION(#13,#22);
#13=PRODUCT_DEFINITION_SHAPE('','',#14);
#14=PRODUCT_DEFINITION(' ','',#16,#15);
#15=PRODUCT_DEFINITION_CONTEXT('part definition',#21,'design');
#16=PRODUCT_DEFINITION_FORMATION_WITH_SPECIFIED_SOURCE(' ',' ',#18,
 .NOT_KNOWN.);
#17=PRODUCT_RELATED_PRODUCT_CATEGORY('part','',(#18));
#18=PRODUCT('ACM30-TC16-D6X20-W16-L100-Z01',
'ACM30-TC16-D6X20-W16-L100-Z01',' ',(#19));
#19=PRODUCT_CONTEXT(' ',#21,'mechanical');
#20=APPLICATION_PROTOCOL_DEFINITION('international standard',
'automotive_design',2010,#21);
#21=APPLICATION_CONTEXT(
'core data for automotive mechanical design processes');
#22=SHAPE_REPRESENTATION('ACM30-TC16-D6X20-W16-L100-Z01-None',(#386),#614);
#23=DRAUGHTING_PRE_DEFINED_COLOUR('yellow');
#24=LINE('',#606,#26);
#25=LINE('',#612,#27);
#26=VECTOR('',#499,15.1121432960385);
#27=VECTOR('',#506,15.1121432960385);
#28=OVER_RIDING_STYLED_ITEM('',(#47),#218,#44);
#29=OVER_RIDING_STYLED_ITEM('',(#48),#219,#44);
#30=OVER_RIDING_STYLED_ITEM('',(#49),#220,#44);
#31=OVER_RIDING_STYLED_ITEM('',(#50),#221,#44);
#32=OVER_RIDING_STYLED_ITEM('',(#51),#222,#44);
#33=OVER_RIDING_STYLED_ITEM('',(#52),#223,#44);
#34=OVER_RIDING_STYLED_ITEM('',(#53),#224,#44);
#35=OVER_RIDING_STYLED_ITEM('',(#54),#225,#44);
#36=OVER_RIDING_STYLED_ITEM('',(#55),#226,#44);
#37=OVER_RIDING_STYLED_ITEM('',(#56),#227,#44);
#38=OVER_RIDING_STYLED_ITEM('',(#57),#228,#44);
#39=OVER_RIDING_STYLED_ITEM('',(#58),#229,#44);
#40=OVER_RIDING_STYLED_ITEM('',(#59),#230,#44);
#41=OVER_RIDING_STYLED_ITEM('',(#60),#231,#44);
#42=OVER_RIDING_STYLED_ITEM('',(#61),#232,#44);
#43=PRESENTATION_LAYER_ASSIGNMENT('1','Layer 1',(#150,#151));
#44=STYLED_ITEM('',(#46),#150);
#45=STYLED_ITEM('',(#62),#151);
#46=PRESENTATION_STYLE_ASSIGNMENT((#63));
#47=PRESENTATION_STYLE_ASSIGNMENT((#64));
#48=PRESENTATION_STYLE_ASSIGNMENT((#65));
#49=PRESENTATION_STYLE_ASSIGNMENT((#66));
#50=PRESENTATION_STYLE_ASSIGNMENT((#67));
#51=PRESENTATION_STYLE_ASSIGNMENT((#68));
#52=PRESENTATION_STYLE_ASSIGNMENT((#69));
#53=PRESENTATION_STYLE_ASSIGNMENT((#70));
#54=PRESENTATION_STYLE_ASSIGNMENT((#71));
#55=PRESENTATION_STYLE_ASSIGNMENT((#72));
#56=PRESENTATION_STYLE_ASSIGNMENT((#73));
#57=PRESENTATION_STYLE_ASSIGNMENT((#74));
#58=PRESENTATION_STYLE_ASSIGNMENT((#75));
#59=PRESENTATION_STYLE_ASSIGNMENT((#76));
#60=PRESENTATION_STYLE_ASSIGNMENT((#77));
#61=PRESENTATION_STYLE_ASSIGNMENT((#78));
#62=PRESENTATION_STYLE_ASSIGNMENT((#79));
#63=SURFACE_STYLE_USAGE(.BOTH.,#80);
#64=SURFACE_STYLE_USAGE(.BOTH.,#81);
#65=SURFACE_STYLE_USAGE(.BOTH.,#82);
#66=SURFACE_STYLE_USAGE(.BOTH.,#83);
#67=SURFACE_STYLE_USAGE(.BOTH.,#84);
#68=SURFACE_STYLE_USAGE(.BOTH.,#85);
#69=SURFACE_STYLE_USAGE(.BOTH.,#86);
#70=SURFACE_STYLE_USAGE(.BOTH.,#87);
#71=SURFACE_STYLE_USAGE(.BOTH.,#88);
#72=SURFACE_STYLE_USAGE(.BOTH.,#89);
#73=SURFACE_STYLE_USAGE(.BOTH.,#90);
#74=SURFACE_STYLE_USAGE(.BOTH.,#91);
#75=SURFACE_STYLE_USAGE(.BOTH.,#92);
#76=SURFACE_STYLE_USAGE(.BOTH.,#93);
#77=SURFACE_STYLE_USAGE(.BOTH.,#94);
#78=SURFACE_STYLE_USAGE(.BOTH.,#95);
#79=SURFACE_STYLE_USAGE(.BOTH.,#96);
#80=SURFACE_SIDE_STYLE('',(#97));
#81=SURFACE_SIDE_STYLE('',(#98));
#82=SURFACE_SIDE_STYLE('',(#99));
#83=SURFACE_SIDE_STYLE('',(#100));
#84=SURFACE_SIDE_STYLE('',(#101));
#85=SURFACE_SIDE_STYLE('',(#102));
#86=SURFACE_SIDE_STYLE('',(#103));
#87=SURFACE_SIDE_STYLE('',(#104));
#88=SURFACE_SIDE_STYLE('',(#105));
#89=SURFACE_SIDE_STYLE('',(#106));
#90=SURFACE_SIDE_STYLE('',(#107));
#91=SURFACE_SIDE_STYLE('',(#108));
#92=SURFACE_SIDE_STYLE('',(#109));
#93=SURFACE_SIDE_STYLE('',(#110));
#94=SURFACE_SIDE_STYLE('',(#111));
#95=SURFACE_SIDE_STYLE('',(#112));
#96=SURFACE_SIDE_STYLE('',(#113));
#97=SURFACE_STYLE_FILL_AREA(#114);
#98=SURFACE_STYLE_FILL_AREA(#115);
#99=SURFACE_STYLE_FILL_AREA(#116);
#100=SURFACE_STYLE_FILL_AREA(#117);
#101=SURFACE_STYLE_FILL_AREA(#118);
#102=SURFACE_STYLE_FILL_AREA(#119);
#103=SURFACE_STYLE_FILL_AREA(#120);
#104=SURFACE_STYLE_FILL_AREA(#121);
#105=SURFACE_STYLE_FILL_AREA(#122);
#106=SURFACE_STYLE_FILL_AREA(#123);
#107=SURFACE_STYLE_FILL_AREA(#124);
#108=SURFACE_STYLE_FILL_AREA(#125);
#109=SURFACE_STYLE_FILL_AREA(#126);
#110=SURFACE_STYLE_FILL_AREA(#127);
#111=SURFACE_STYLE_FILL_AREA(#128);
#112=SURFACE_STYLE_FILL_AREA(#129);
#113=SURFACE_STYLE_FILL_AREA(#130);
#114=FILL_AREA_STYLE('',(#131));
#115=FILL_AREA_STYLE('',(#132));
#116=FILL_AREA_STYLE('',(#133));
#117=FILL_AREA_STYLE('',(#134));
#118=FILL_AREA_STYLE('',(#135));
#119=FILL_AREA_STYLE('',(#136));
#120=FILL_AREA_STYLE('',(#137));
#121=FILL_AREA_STYLE('',(#138));
#122=FILL_AREA_STYLE('',(#139));
#123=FILL_AREA_STYLE('',(#140));
#124=FILL_AREA_STYLE('',(#141));
#125=FILL_AREA_STYLE('',(#142));
#126=FILL_AREA_STYLE('',(#143));
#127=FILL_AREA_STYLE('',(#144));
#128=FILL_AREA_STYLE('',(#145));
#129=FILL_AREA_STYLE('',(#146));
#130=FILL_AREA_STYLE('',(#147));
#131=FILL_AREA_STYLE_COLOUR('',#148);
#132=FILL_AREA_STYLE_COLOUR('',#149);
#133=FILL_AREA_STYLE_COLOUR('',#149);
#134=FILL_AREA_STYLE_COLOUR('',#149);
#135=FILL_AREA_STYLE_COLOUR('',#149);
#136=FILL_AREA_STYLE_COLOUR('',#149);
#137=FILL_AREA_STYLE_COLOUR('',#149);
#138=FILL_AREA_STYLE_COLOUR('',#149);
#139=FILL_AREA_STYLE_COLOUR('',#149);
#140=FILL_AREA_STYLE_COLOUR('',#149);
#141=FILL_AREA_STYLE_COLOUR('',#149);
#142=FILL_AREA_STYLE_COLOUR('',#149);
#143=FILL_AREA_STYLE_COLOUR('',#149);
#144=FILL_AREA_STYLE_COLOUR('',#149);
#145=FILL_AREA_STYLE_COLOUR('',#149);
#146=FILL_AREA_STYLE_COLOUR('',#149);
#147=FILL_AREA_STYLE_COLOUR('',#23);
#148=COLOUR_RGB('Medium Steel',0.611764705882353,0.658823529411765,0.670588235294118);
#149=COLOUR_RGB('silver gray',0.6,0.6,0.6);
#150=MANIFOLD_SOLID_BREP('',#152);
#151=MANIFOLD_SOLID_BREP('',#153);
#152=CLOSED_SHELL('',(#218,#219,#220,#221,#222,#223,#224,#225,#226,#227,
#228,#229,#230,#231,#232));
#153=CLOSED_SHELL('',(#233,#234,#235,#236,#237,#238));
#154=CONICAL_SURFACE('',#398,7.81555719779858,12.0000000000001);
#155=CONICAL_SURFACE('',#404,8.,30.);
#156=CONICAL_SURFACE('',#408,7.75,10.0000000000001);
#157=CONICAL_SURFACE('',#418,3.00000000151378,30.);
#158=(
BOUNDED_SURFACE()
B_SPLINE_SURFACE(3,3,((#538,#539,#540,#541,#542,#543,#544),(#545,#546,#547,
#548,#549,#550,#551),(#552,#553,#554,#555,#556,#557,#558),(#559,#560,#561,
#562,#563,#564,#565)),.UNSPECIFIED.,.F.,.T.,.F.)
B_SPLINE_SURFACE_WITH_KNOTS((4,4),(1,3,3,3,1),(0.,1.),(-0.5,0.,0.5,1.,1.5),
 .UNSPECIFIED.)
GEOMETRIC_REPRESENTATION_ITEM()
RATIONAL_B_SPLINE_SURFACE(((1.,0.333333333333333,0.333333333333333,1.,0.333333333333333,
0.333333333333333,1.),(0.996347930245515,0.332115976748505,0.332115976748505,
0.996347930245515,0.332115976748505,0.332115976748505,0.996347930245515),
(0.996347930245515,0.332115976748505,0.332115976748505,0.996347930245515,
0.332115976748505,0.332115976748505,0.996347930245515),(1.,0.333333333333333,
0.333333333333333,1.,0.333333333333333,0.333333333333333,1.)))
REPRESENTATION_ITEM('')
SURFACE()
);
#159=CYLINDRICAL_SURFACE('',#395,9.45000000000082);
#160=CYLINDRICAL_SURFACE('',#402,7.75);
#161=CYLINDRICAL_SURFACE('',#406,8.);
#162=CYLINDRICAL_SURFACE('',#410,7.75);
#163=SURFACE_OF_REVOLUTION('',#175,#169);
#164=SURFACE_OF_REVOLUTION('',#379,#170);
#165=SURFACE_OF_REVOLUTION('',#382,#171);
#166=SURFACE_OF_REVOLUTION('',#24,#172);
#167=SURFACE_OF_REVOLUTION('',#385,#173);
#168=SURFACE_OF_REVOLUTION('',#25,#174);
#169=AXIS1_PLACEMENT('',#529,#436);
#170=AXIS1_PLACEMENT('',#596,#487);
#171=AXIS1_PLACEMENT('',#603,#496);
#172=AXIS1_PLACEMENT('',#607,#500);
#173=AXIS1_PLACEMENT('',#611,#505);
#174=AXIS1_PLACEMENT('',#613,#507);
#175=B_SPLINE_CURVE_WITH_KNOTS('',3,(#517,#518,#519,#520,#521,#522,#523,
#524,#525,#526,#527,#528),.UNSPECIFIED.,.F.,.F.,(4,2,2,2,2,4),(0.,0.293682933829714,
0.536594160229118,0.779505386628522,0.900960999828224,1.),.UNSPECIFIED.);
#176=TOROIDAL_SURFACE('',#390,2.7631406510346,0.799999999999967);
#177=TOROIDAL_SURFACE('',#393,7.45000000000331,1.99999999999835);
#178=TOROIDAL_SURFACE('',#400,10.75,3.);
#179=TOROIDAL_SURFACE('',#412,6.75,1.);
#180=FACE_BOUND('',#244,.T.);
#181=FACE_BOUND('',#245,.T.);
#182=FACE_BOUND('',#246,.T.);
#183=FACE_BOUND('',#247,.T.);
#184=FACE_BOUND('',#248,.T.);
#185=FACE_BOUND('',#249,.T.);
#186=FACE_BOUND('',#250,.T.);
#187=FACE_BOUND('',#251,.T.);
#188=FACE_BOUND('',#252,.T.);
#189=FACE_BOUND('',#253,.T.);
#190=FACE_BOUND('',#254,.T.);
#191=FACE_BOUND('',#255,.T.);
#192=FACE_BOUND('',#256,.T.);
#193=FACE_BOUND('',#257,.T.);
#194=FACE_BOUND('',#258,.T.);
#195=FACE_BOUND('',#259,.T.);
#196=FACE_BOUND('',#260,.T.);
#197=FACE_BOUND('',#261,.T.);
#198=FACE_BOUND('',#262,.T.);
#199=FACE_BOUND('',#263,.T.);
#200=FACE_BOUND('',#264,.T.);
#201=FACE_BOUND('',#265,.T.);
#202=FACE_BOUND('',#266,.T.);
#203=FACE_BOUND('',#267,.T.);
#204=FACE_BOUND('',#268,.T.);
#205=FACE_BOUND('',#269,.T.);
#206=FACE_BOUND('',#271,.T.);
#207=FACE_BOUND('',#272,.T.);
#208=FACE_BOUND('',#273,.T.);
#209=FACE_BOUND('',#274,.T.);
#210=FACE_BOUND('',#275,.T.);
#211=FACE_BOUND('',#276,.T.);
#212=FACE_BOUND('',#277,.T.);
#213=FACE_BOUND('',#278,.T.);
#214=FACE_BOUND('',#279,.T.);
#215=FACE_BOUND('',#280,.T.);
#216=FACE_BOUND('',#281,.T.);
#217=FACE_BOUND('',#282,.T.);
#218=ADVANCED_FACE('',(#241),#239,.F.);
#219=ADVANCED_FACE('',(#180,#181),#176,.T.);
#220=ADVANCED_FACE('',(#182,#183),#163,.T.);
#221=ADVANCED_FACE('',(#184,#185),#177,.T.);
#222=ADVANCED_FACE('',(#186,#187),#159,.T.);
#223=ADVANCED_FACE('',(#188,#189),#158,.T.);
#224=ADVANCED_FACE('',(#190,#191),#154,.T.);
#225=ADVANCED_FACE('',(#192,#193),#178,.F.);
#226=ADVANCED_FACE('',(#194,#195),#160,.T.);
#227=ADVANCED_FACE('',(#196,#197),#155,.T.);
#228=ADVANCED_FACE('',(#198,#199),#161,.T.);
#229=ADVANCED_FACE('',(#200,#201),#156,.T.);
#230=ADVANCED_FACE('',(#202,#203),#162,.T.);
#231=ADVANCED_FACE('',(#204,#205),#179,.T.);
#232=ADVANCED_FACE('',(#242),#240,.F.);
#233=ADVANCED_FACE('',(#206,#207),#164,.T.);
#234=ADVANCED_FACE('',(#208,#209),#157,.T.);
#235=ADVANCED_FACE('',(#210,#211),#165,.T.);
#236=ADVANCED_FACE('',(#212,#213),#166,.T.);
#237=ADVANCED_FACE('',(#214,#215),#167,.T.);
#238=ADVANCED_FACE('',(#216,#217),#168,.T.);
#239=PLANE('',#388);
#240=PLANE('',#413);
#241=FACE_OUTER_BOUND('',#243,.T.);
#242=FACE_OUTER_BOUND('',#270,.T.);
#243=EDGE_LOOP('',(#283));
#244=EDGE_LOOP('',(#284));
#245=EDGE_LOOP('',(#285));
#246=EDGE_LOOP('',(#286));
#247=EDGE_LOOP('',(#287));
#248=EDGE_LOOP('',(#288));
#249=EDGE_LOOP('',(#289));
#250=EDGE_LOOP('',(#290));
#251=EDGE_LOOP('',(#291));
#252=EDGE_LOOP('',(#292));
#253=EDGE_LOOP('',(#293));
#254=EDGE_LOOP('',(#294));
#255=EDGE_LOOP('',(#295));
#256=EDGE_LOOP('',(#296));
#257=EDGE_LOOP('',(#297));
#258=EDGE_LOOP('',(#298));
#259=EDGE_LOOP('',(#299));
#260=EDGE_LOOP('',(#300));
#261=EDGE_LOOP('',(#301));
#262=EDGE_LOOP('',(#302));
#263=EDGE_LOOP('',(#303));
#264=EDGE_LOOP('',(#304));
#265=EDGE_LOOP('',(#305));
#266=EDGE_LOOP('',(#306));
#267=EDGE_LOOP('',(#307));
#268=EDGE_LOOP('',(#308));
#269=EDGE_LOOP('',(#309));
#270=EDGE_LOOP('',(#310));
#271=EDGE_LOOP('',(#311));
#272=EDGE_LOOP('',(#312));
#273=EDGE_LOOP('',(#313));
#274=EDGE_LOOP('',(#314));
#275=EDGE_LOOP('',(#315));
#276=EDGE_LOOP('',(#316));
#277=EDGE_LOOP('',(#317));
#278=EDGE_LOOP('',(#318));
#279=EDGE_LOOP('',(#319));
#280=EDGE_LOOP('',(#320));
#281=EDGE_LOOP('',(#321));
#282=EDGE_LOOP('',(#322));
#283=ORIENTED_EDGE('',*,*,#343,.T.);
#284=ORIENTED_EDGE('',*,*,#343,.F.);
#285=ORIENTED_EDGE('',*,*,#344,.T.);
#286=ORIENTED_EDGE('',*,*,#344,.F.);
#287=ORIENTED_EDGE('',*,*,#345,.T.);
#288=ORIENTED_EDGE('',*,*,#345,.F.);
#289=ORIENTED_EDGE('',*,*,#346,.T.);
#290=ORIENTED_EDGE('',*,*,#346,.F.);
#291=ORIENTED_EDGE('',*,*,#347,.T.);
#292=ORIENTED_EDGE('',*,*,#347,.F.);
#293=ORIENTED_EDGE('',*,*,#348,.T.);
#294=ORIENTED_EDGE('',*,*,#348,.F.);
#295=ORIENTED_EDGE('',*,*,#349,.T.);
#296=ORIENTED_EDGE('',*,*,#349,.F.);
#297=ORIENTED_EDGE('',*,*,#350,.T.);
#298=ORIENTED_EDGE('',*,*,#350,.F.);
#299=ORIENTED_EDGE('',*,*,#351,.T.);
#300=ORIENTED_EDGE('',*,*,#351,.F.);
#301=ORIENTED_EDGE('',*,*,#352,.T.);
#302=ORIENTED_EDGE('',*,*,#352,.F.);
#303=ORIENTED_EDGE('',*,*,#353,.T.);
#304=ORIENTED_EDGE('',*,*,#353,.F.);
#305=ORIENTED_EDGE('',*,*,#354,.T.);
#306=ORIENTED_EDGE('',*,*,#354,.F.);
#307=ORIENTED_EDGE('',*,*,#355,.T.);
#308=ORIENTED_EDGE('',*,*,#355,.F.);
#309=ORIENTED_EDGE('',*,*,#356,.T.);
#310=ORIENTED_EDGE('',*,*,#356,.F.);
#311=ORIENTED_EDGE('',*,*,#357,.F.);
#312=ORIENTED_EDGE('',*,*,#358,.T.);
#313=ORIENTED_EDGE('',*,*,#359,.F.);
#314=ORIENTED_EDGE('',*,*,#357,.T.);
#315=ORIENTED_EDGE('',*,*,#360,.F.);
#316=ORIENTED_EDGE('',*,*,#359,.T.);
#317=ORIENTED_EDGE('',*,*,#361,.F.);
#318=ORIENTED_EDGE('',*,*,#360,.T.);
#319=ORIENTED_EDGE('',*,*,#362,.F.);
#320=ORIENTED_EDGE('',*,*,#361,.T.);
#321=ORIENTED_EDGE('',*,*,#358,.F.);
#322=ORIENTED_EDGE('',*,*,#362,.T.);
#323=VERTEX_POINT('',#510);
#324=VERTEX_POINT('',#513);
#325=VERTEX_POINT('',#516);
#326=VERTEX_POINT('',#531);
#327=VERTEX_POINT('',#534);
#328=VERTEX_POINT('',#537);
#329=VERTEX_POINT('',#567);
#330=VERTEX_POINT('',#570);
#331=VERTEX_POINT('',#573);
#332=VERTEX_POINT('',#576);
#333=VERTEX_POINT('',#579);
#334=VERTEX_POINT('',#582);
#335=VERTEX_POINT('',#585);
#336=VERTEX_POINT('',#588);
#337=VERTEX_POINT('',#592);
#338=VERTEX_POINT('',#594);
#339=VERTEX_POINT('',#598);
#340=VERTEX_POINT('',#601);
#341=VERTEX_POINT('',#605);
#342=VERTEX_POINT('',#609);
#343=EDGE_CURVE('',#323,#323,#363,.T.);
#344=EDGE_CURVE('',#324,#324,#364,.T.);
#345=EDGE_CURVE('',#325,#325,#365,.T.);
#346=EDGE_CURVE('',#326,#326,#366,.T.);
#347=EDGE_CURVE('',#327,#327,#367,.T.);
#348=EDGE_CURVE('',#328,#328,#368,.T.);
#349=EDGE_CURVE('',#329,#329,#369,.T.);
#350=EDGE_CURVE('',#330,#330,#370,.T.);
#351=EDGE_CURVE('',#331,#331,#371,.T.);
#352=EDGE_CURVE('',#332,#332,#372,.T.);
#353=EDGE_CURVE('',#333,#333,#373,.T.);
#354=EDGE_CURVE('',#334,#334,#374,.T.);
#355=EDGE_CURVE('',#335,#335,#375,.T.);
#356=EDGE_CURVE('',#336,#336,#376,.T.);
#357=EDGE_CURVE('',#337,#337,#377,.T.);
#358=EDGE_CURVE('',#338,#338,#378,.T.);
#359=EDGE_CURVE('',#339,#339,#380,.T.);
#360=EDGE_CURVE('',#340,#340,#381,.T.);
#361=EDGE_CURVE('',#341,#341,#383,.T.);
#362=EDGE_CURVE('',#342,#342,#384,.T.);
#363=CIRCLE('',#387,2.7631406510346);
#364=CIRCLE('',#389,3.54367421136874);
#365=CIRCLE('',#391,9.21034522899594);
#366=CIRCLE('',#392,9.45000000000165);
#367=CIRCLE('',#394,9.45);
#368=CIRCLE('',#396,9.34073800366903);
#369=CIRCLE('',#397,7.81555719779858);
#370=CIRCLE('',#399,7.75);
#371=CIRCLE('',#401,7.75);
#372=CIRCLE('',#403,8.);
#373=CIRCLE('',#405,8.);
#374=CIRCLE('',#407,7.75);
#375=CIRCLE('',#409,7.75);
#376=CIRCLE('',#411,6.75);
#377=CIRCLE('',#414,3.00000000151378);
#378=CIRCLE('',#415,2.3743810073011);
#379=CIRCLE('',#416,0.4);
#380=CIRCLE('',#417,10.556071649533);
#381=CIRCLE('',#419,10.2656197423109);
#382=CIRCLE('',#420,0.4);
#383=CIRCLE('',#421,7.05076563874914);
#384=CIRCLE('',#422,7.23869333703717);
#385=CIRCLE('',#423,0.4);
#386=AXIS2_PLACEMENT_3D('',#508,#424,#425);
#387=AXIS2_PLACEMENT_3D('',#509,#426,#427);
#388=AXIS2_PLACEMENT_3D('',#511,#428,#429);
#389=AXIS2_PLACEMENT_3D('',#512,#430,#431);
#390=AXIS2_PLACEMENT_3D('',#514,#432,#433);
#391=AXIS2_PLACEMENT_3D('',#515,#434,#435);
#392=AXIS2_PLACEMENT_3D('',#530,#437,#438);
#393=AXIS2_PLACEMENT_3D('',#532,#439,#440);
#394=AXIS2_PLACEMENT_3D('',#533,#441,#442);
#395=AXIS2_PLACEMENT_3D('',#535,#443,#444);
#396=AXIS2_PLACEMENT_3D('',#536,#445,#446);
#397=AXIS2_PLACEMENT_3D('',#566,#447,#448);
#398=AXIS2_PLACEMENT_3D('',#568,#449,#450);
#399=AXIS2_PLACEMENT_3D('',#569,#451,#452);
#400=AXIS2_PLACEMENT_3D('',#571,#453,#454);
#401=AXIS2_PLACEMENT_3D('',#572,#455,#456);
#402=AXIS2_PLACEMENT_3D('',#574,#457,#458);
#403=AXIS2_PLACEMENT_3D('',#575,#459,#460);
#404=AXIS2_PLACEMENT_3D('',#577,#461,#462);
#405=AXIS2_PLACEMENT_3D('',#578,#463,#464);
#406=AXIS2_PLACEMENT_3D('',#580,#465,#466);
#407=AXIS2_PLACEMENT_3D('',#581,#467,#468);
#408=AXIS2_PLACEMENT_3D('',#583,#469,#470);
#409=AXIS2_PLACEMENT_3D('',#584,#471,#472);
#410=AXIS2_PLACEMENT_3D('',#586,#473,#474);
#411=AXIS2_PLACEMENT_3D('',#587,#475,#476);
#412=AXIS2_PLACEMENT_3D('',#589,#477,#478);
#413=AXIS2_PLACEMENT_3D('',#590,#479,#480);
#414=AXIS2_PLACEMENT_3D('',#591,#481,#482);
#415=AXIS2_PLACEMENT_3D('',#593,#483,#484);
#416=AXIS2_PLACEMENT_3D('',#595,#485,#486);
#417=AXIS2_PLACEMENT_3D('',#597,#488,#489);
#418=AXIS2_PLACEMENT_3D('',#599,#490,#491);
#419=AXIS2_PLACEMENT_3D('',#600,#492,#493);
#420=AXIS2_PLACEMENT_3D('',#602,#494,#495);
#421=AXIS2_PLACEMENT_3D('',#604,#497,#498);
#422=AXIS2_PLACEMENT_3D('',#608,#501,#502);
#423=AXIS2_PLACEMENT_3D('',#610,#503,#504);
#424=DIRECTION('',(0.,0.,1.));
#425=DIRECTION('',(1.,0.,0.));
#426=DIRECTION('',(-1.,0.,0.));
#427=DIRECTION('',(0.,0.,1.));
#428=DIRECTION('',(1.,0.,0.));
#429=DIRECTION('',(0.,0.,-1.));
#430=DIRECTION('',(-1.,0.,0.));
#431=DIRECTION('',(0.,0.,1.));
#432=DIRECTION('',(-1.,0.,0.));
#433=DIRECTION('',(0.,0.,1.));
#434=DIRECTION('',(-1.,0.,0.));
#435=DIRECTION('',(0.,0.,1.));
#436=DIRECTION('',(-1.,0.,0.));
#437=DIRECTION('',(-1.,0.,0.));
#438=DIRECTION('',(0.,0.,1.));
#439=DIRECTION('',(-1.,0.,0.));
#440=DIRECTION('',(0.,0.,1.));
#441=DIRECTION('',(-1.,0.,0.));
#442=DIRECTION('',(0.,0.,1.));
#443=DIRECTION('',(-1.,0.,0.));
#444=DIRECTION('',(0.,0.,1.));
#445=DIRECTION('',(-1.,0.,0.));
#446=DIRECTION('',(0.,0.,1.));
#447=DIRECTION('',(-1.,0.,0.));
#448=DIRECTION('',(0.,0.,1.));
#449=DIRECTION('',(-1.,0.,0.));
#450=DIRECTION('',(1.10205087596594E-16,0.,1.));
#451=DIRECTION('',(-1.,0.,0.));
#452=DIRECTION('',(0.,0.,1.));
#453=DIRECTION('',(-1.,0.,0.));
#454=DIRECTION('',(0.,0.,1.));
#455=DIRECTION('',(-1.,0.,0.));
#456=DIRECTION('',(0.,0.,1.));
#457=DIRECTION('',(-1.,0.,0.));
#458=DIRECTION('',(0.,0.,1.));
#459=DIRECTION('',(-1.,0.,0.));
#460=DIRECTION('',(0.,0.,1.));
#461=DIRECTION('',(1.,0.,0.));
#462=DIRECTION('',(4.74170374159979E-17,0.,-1.));
#463=DIRECTION('',(-1.,0.,0.));
#464=DIRECTION('',(0.,0.,1.));
#465=DIRECTION('',(-1.,0.,0.));
#466=DIRECTION('',(0.,0.,1.));
#467=DIRECTION('',(-1.,0.,0.));
#468=DIRECTION('',(0.,0.,1.));
#469=DIRECTION('',(-1.,0.,0.));
#470=DIRECTION('',(-1.50782436287279E-16,0.,1.));
#471=DIRECTION('',(-1.,0.,0.));
#472=DIRECTION('',(0.,0.,1.));
#473=DIRECTION('',(-1.,0.,0.));
#474=DIRECTION('',(0.,0.,1.));
#475=DIRECTION('',(-1.,0.,0.));
#476=DIRECTION('',(0.,0.,1.));
#477=DIRECTION('',(-1.,0.,0.));
#478=DIRECTION('',(0.,0.,1.));
#479=DIRECTION('',(-1.,0.,0.));
#480=DIRECTION('',(0.,0.,1.));
#481=DIRECTION('',(1.,0.,0.));
#482=DIRECTION('',(0.,0.,-1.));
#483=DIRECTION('',(1.,0.,0.));
#484=DIRECTION('',(0.,0.,-1.));
#485=DIRECTION('',(-0.219185573394539,-0.379640549405459,0.898794046299167));
#486=DIRECTION('',(-0.866025403784438,0.500000000000001,-1.11022302462516E-16));
#487=DIRECTION('',(1.,0.,0.));
#488=DIRECTION('',(1.,0.,0.));
#489=DIRECTION('',(0.,0.,-1.));
#490=DIRECTION('',(1.,0.,0.));
#491=DIRECTION('',(-3.15723412010175E-17,0.,-1.));
#492=DIRECTION('',(1.,0.,0.));
#493=DIRECTION('',(0.,0.,-1.));
#494=DIRECTION('',(-0.21918557339454,-0.379640549405458,0.898794046299167));
#495=DIRECTION('',(0.866025403784437,-0.500000000000002,1.66533453693773E-16));
#496=DIRECTION('',(1.,0.,0.));
#497=DIRECTION('',(1.,0.,0.));
#498=DIRECTION('',(0.,0.,-1.));
#499=DIRECTION('',(-0.0438234634595756,0.924095534724375,0.379640549405459));
#500=DIRECTION('',(1.,0.,0.));
#501=DIRECTION('',(1.,0.,0.));
#502=DIRECTION('',(0.,0.,-1.));
#503=DIRECTION('',(-0.219185573394539,-0.379640549405459,0.898794046299167));
#504=DIRECTION('',(-0.866025403784438,0.500000000000001,-1.11022302462516E-16));
#505=DIRECTION('',(1.,0.,0.));
#506=DIRECTION('',(-0.822201940324862,-0.424095534724374,-0.379640549405459));
#507=DIRECTION('',(1.,0.,0.));
#508=CARTESIAN_POINT('',(0.,0.,0.));
#509=CARTESIAN_POINT('',(1.5,0.,0.));
#510=CARTESIAN_POINT('',(1.5,0.,2.7631406510346));
#511=CARTESIAN_POINT('',(1.5,0.,0.));
#512=CARTESIAN_POINT('',(2.12459372533431,0.,0.));
#513=CARTESIAN_POINT('',(2.12459372533431,0.,3.54367421136874));
#514=CARTESIAN_POINT('',(2.29999999999993,0.,0.));
#515=CARTESIAN_POINT('',(14.6630362039646,0.,0.));
#516=CARTESIAN_POINT('',(14.6630362039646,0.,9.21034522899594));
#517=CARTESIAN_POINT('',(14.6630362039646,9.21034522899594,0.));
#518=CARTESIAN_POINT('',(13.473848656603,8.56904793985945,0.));
#519=CARTESIAN_POINT('',(12.2811367260521,7.93447780565202,0.));
#520=CARTESIAN_POINT('',(10.0872843337455,6.80295465753756,0.));
#521=CARTESIAN_POINT('',(9.08888009946305,6.30078489335015,0.));
#522=CARTESIAN_POINT('',(7.07181043518742,5.33973213142291,0.));
#523=CARTESIAN_POINT('',(6.0516692566841,4.87887868521141,0.));
#524=CARTESIAN_POINT('',(4.49528781829077,4.26468292167328,0.));
#525=CARTESIAN_POINT('',(3.97200655048142,4.07322745023851,0.));
#526=CARTESIAN_POINT('',(3.00820244330443,3.7665450793346,0.));
#527=CARTESIAN_POINT('',(2.57021502637244,3.64381695512637,0.));
#528=CARTESIAN_POINT('',(2.1245937253343,3.54367421136877,0.));
#529=CARTESIAN_POINT('',(0.,0.,0.));
#530=CARTESIAN_POINT('',(15.6123436751049,0.,0.));
#531=CARTESIAN_POINT('',(15.6123436751049,0.,9.45000000000165));
#532=CARTESIAN_POINT('',(15.6123436751049,0.,0.));
#533=CARTESIAN_POINT('',(19.728282229869,0.,0.));
#534=CARTESIAN_POINT('',(19.728282229869,0.,9.45));
#535=CARTESIAN_POINT('',(0.,0.,0.));
#536=CARTESIAN_POINT('',(20.7678406839578,0.,0.));
#537=CARTESIAN_POINT('',(20.7678406839578,0.,9.34073800366903));
#538=CARTESIAN_POINT('',(19.728282229869,0.,9.45));
#539=CARTESIAN_POINT('',(19.728282229869,18.9,9.45));
#540=CARTESIAN_POINT('',(19.728282229869,18.9,-9.45));
#541=CARTESIAN_POINT('',(19.728282229869,0.,-9.45));
#542=CARTESIAN_POINT('',(19.728282229869,-18.9,-9.45));
#543=CARTESIAN_POINT('',(19.728282229869,-18.9,9.45));
#544=CARTESIAN_POINT('',(19.728282229869,0.,9.45));
#545=CARTESIAN_POINT('',(20.0779875891267,0.,9.45));
#546=CARTESIAN_POINT('',(20.0779875891267,18.9,9.45));
#547=CARTESIAN_POINT('',(20.0779875891267,18.9,-9.45));
#548=CARTESIAN_POINT('',(20.0779875891267,0.,-9.45));
#549=CARTESIAN_POINT('',(20.0779875891267,-18.9,-9.45));
#550=CARTESIAN_POINT('',(20.0779875891267,-18.9,9.45));
#551=CARTESIAN_POINT('',(20.0779875891267,0.,9.45));
#552=CARTESIAN_POINT('',(20.4257772258361,0.,9.41344583620033));
#553=CARTESIAN_POINT('',(20.4257772258361,18.8268916724007,9.41344583620033));
#554=CARTESIAN_POINT('',(20.4257772258361,18.8268916724007,-9.41344583620033));
#555=CARTESIAN_POINT('',(20.4257772258361,0.,-9.41344583620033));
#556=CARTESIAN_POINT('',(20.4257772258361,-18.8268916724007,-9.41344583620033));
#557=CARTESIAN_POINT('',(20.4257772258361,-18.8268916724007,9.41344583620033));
#558=CARTESIAN_POINT('',(20.4257772258361,0.,9.41344583620033));
#559=CARTESIAN_POINT('',(20.7678406839578,0.,9.34073800366903));
#560=CARTESIAN_POINT('',(20.7678406839578,18.6814760073381,9.34073800366903));
#561=CARTESIAN_POINT('',(20.7678406839578,18.6814760073381,-9.34073800366903));
#562=CARTESIAN_POINT('',(20.7678406839578,0.,-9.34073800366903));
#563=CARTESIAN_POINT('',(20.7678406839578,-18.6814760073381,-9.34073800366903));
#564=CARTESIAN_POINT('',(20.7678406839578,-18.6814760073381,9.34073800366903));
#565=CARTESIAN_POINT('',(20.7678406839578,0.,9.34073800366903));
#566=CARTESIAN_POINT('',(27.9432522256545,0.,0.));
#567=CARTESIAN_POINT('',(27.9432522256545,0.,7.81555719779858));
#568=CARTESIAN_POINT('',(27.9432522256545,0.,0.));
#569=CARTESIAN_POINT('',(28.5669872981078,0.,0.));
#570=CARTESIAN_POINT('',(28.5669872981078,0.,7.75));
#571=CARTESIAN_POINT('',(28.5669872981078,0.,0.));
#572=CARTESIAN_POINT('',(29.5669872981078,0.,0.));
#573=CARTESIAN_POINT('',(29.5669872981078,0.,7.75));
#574=CARTESIAN_POINT('',(0.,0.,0.));
#575=CARTESIAN_POINT('',(30.,0.,0.));
#576=CARTESIAN_POINT('',(30.,0.,8.));
#577=CARTESIAN_POINT('',(30.,0.,0.));
#578=CARTESIAN_POINT('',(94.5821795450956,0.,0.));
#579=CARTESIAN_POINT('',(94.5821795450956,0.,8.));
#580=CARTESIAN_POINT('',(0.,0.,0.));
#581=CARTESIAN_POINT('',(96.,0.,0.));
#582=CARTESIAN_POINT('',(96.,0.,7.75));
#583=CARTESIAN_POINT('',(96.,0.,0.));
#584=CARTESIAN_POINT('',(99.,0.,0.));
#585=CARTESIAN_POINT('',(99.,0.,7.75));
#586=CARTESIAN_POINT('',(0.,0.,0.));
#587=CARTESIAN_POINT('',(100.,0.,0.));
#588=CARTESIAN_POINT('',(100.,0.,6.75));
#589=CARTESIAN_POINT('',(99.,0.,0.));
#590=CARTESIAN_POINT('',(100.,6.75,0.));
#591=CARTESIAN_POINT('',(0.210514469999997,0.,0.));
#592=CARTESIAN_POINT('',(0.210514469999997,0.,-3.00000000151378));
#593=CARTESIAN_POINT('',(0.180152683889749,0.,0.));
#594=CARTESIAN_POINT('',(0.180152683889749,0.,-2.3743810073011));
#595=CARTESIAN_POINT('',(0.390273279259832,-2.68864861076767,0.175348458715633));
#596=CARTESIAN_POINT('',(0.,0.,0.));
#597=CARTESIAN_POINT('',(13.29801447,0.,0.));
#598=CARTESIAN_POINT('',(13.29801447,0.,-10.556071649533));
#599=CARTESIAN_POINT('',(0.210514469999997,0.,0.));
#600=CARTESIAN_POINT('',(13.8676526838898,0.,0.));
#601=CARTESIAN_POINT('',(13.8676526838898,0.,-10.2656197423109));
#602=CARTESIAN_POINT('',(13.4777732792598,-10.2447202587869,0.175348458715633));
#603=CARTESIAN_POINT('',(0.,0.,0.));
#604=CARTESIAN_POINT('',(13.2053862243599,0.,0.));
#605=CARTESIAN_POINT('',(13.2053862243599,0.,-7.05076563874914));
#606=CARTESIAN_POINT('',(13.8676526838897,-10.2622496441707,0.263022688073445));
#607=CARTESIAN_POINT('',(0.,0.,0.));
#608=CARTESIAN_POINT('',(12.6053862243599,0.,0.));
#609=CARTESIAN_POINT('',(12.6053862243599,0.,-7.23869333703717));
#610=CARTESIAN_POINT('',(12.81550681973,3.72034388119715,5.9125308423177));
#611=CARTESIAN_POINT('',(0.,0.,0.));
#612=CARTESIAN_POINT('',(12.6053862243599,4.04922465732708,6.00020507167551));
#613=CARTESIAN_POINT('',(0.,0.,0.));
#614=(
GEOMETRIC_REPRESENTATION_CONTEXT(3)
GLOBAL_UNCERTAINTY_ASSIGNED_CONTEXT((#615))
GLOBAL_UNIT_ASSIGNED_CONTEXT((#621,#617,#616))
REPRESENTATION_CONTEXT('ACM30-TC16-D6X20-W16-L100-Z01',
'TOP_LEVEL_ASSEMBLY_PART')
);
#615=UNCERTAINTY_MEASURE_WITH_UNIT(LENGTH_MEASURE(0.0508),#621,
'DISTANCE_ACCURACY_VALUE','Maximum Tolerance applied to model');
#616=(
NAMED_UNIT(*)
SI_UNIT($,.STERADIAN.)
SOLID_ANGLE_UNIT()
);
#617=(
CONVERSION_BASED_UNIT('DEGREE',#619)
NAMED_UNIT(#618)
PLANE_ANGLE_UNIT()
);
#618=DIMENSIONAL_EXPONENTS(0.,0.,0.,0.,0.,0.,0.);
#619=PLANE_ANGLE_MEASURE_WITH_UNIT(PLANE_ANGLE_MEASURE(0.0174532925),#620);
#620=(
NAMED_UNIT(*)
PLANE_ANGLE_UNIT()
SI_UNIT($,.RADIAN.)
);
#621=(
LENGTH_UNIT()
NAMED_UNIT(*)
SI_UNIT(.MILLI.,.METRE.)
);
ENDSEC;
END-ISO-10303-21;
