ISO-10303-21;
HEADER;
/* Generated by software containing ST-Developer
 * from STEP Tools, Inc. (www.steptools.com) 
 */
/* OPTION: using custom schema-name function */

FILE_DESCRIPTION(
/* description */ (''),
/* implementation_level */ '2;1');

FILE_NAME(
/* name */ 'ACM45-SP1104-D25x39-W25-L150-Z02.stp',
/* time_stamp */ '2023-10-09T05:41:53+03:00',
/* author */ (''),
/* organization */ (''),
/* preprocessor_version */ 'ST-DEVELOPER v19.4',
/* originating_system */ 'SIEMENS PLM Software NX2306.3001',
/* authorisation */ '');

FILE_SCHEMA (('AUTOMOTIVE_DESIGN { 1 0 10303 214 3 1 1 1 }'));
ENDSEC;

DATA;
#10=SHAPE_REPRESENTATION_RELATIONSHIP('None',
'relationship between ACM45-SP1104-D25x39-W25-L150-Z02-None and ACM45-
SP1104-D25x39-W25-L150-Z02-None',#22,#11);
#11=ADVANCED_BREP_SHAPE_REPRESENTATION(
'ACM45-SP1104-D25x39-W25-L150-Z02-None',(#48,#49),#592);
#12=SHAPE_DEFINITION_REPRESENTATION(#13,#22);
#13=PRODUCT_DEFINITION_SHAPE('','',#14);
#14=PRODUCT_DEFINITION(' ','',#16,#15);
#15=PRODUCT_DEFINITION_CONTEXT('part definition',#21,'design');
#16=PRODUCT_DEFINITION_FORMATION_WITH_SPECIFIED_SOURCE(' ',' ',#18,
 .NOT_KNOWN.);
#17=PRODUCT_RELATED_PRODUCT_CATEGORY('part','',(#18));
#18=PRODUCT('ACM45-SP1104-D25x39-W25-L150-Z02',
'ACM45-SP1104-D25x39-W25-L150-Z02',' ',(#19));
#19=PRODUCT_CONTEXT(' ',#21,'mechanical');
#20=APPLICATION_PROTOCOL_DEFINITION('international standard',
'automotive_design',2010,#21);
#21=APPLICATION_CONTEXT(
'core data for automotive mechanical design processes');
#22=SHAPE_REPRESENTATION('ACM45-SP1104-D25x39-W25-L150-Z02-None',(#334),
#592);
#23=DRAUGHTING_PRE_DEFINED_COLOUR('yellow');
#24=LINE('',#568,#28);
#25=LINE('',#576,#29);
#26=LINE('',#584,#30);
#27=LINE('',#590,#31);
#28=VECTOR('',#453,9.89999999999998);
#29=VECTOR('',#462,9.89999999999998);
#30=VECTOR('',#471,9.90000000000004);
#31=VECTOR('',#478,9.90000000000001);
#32=PRESENTATION_LAYER_ASSIGNMENT('1','Layer 1',(#48,#49));
#33=STYLED_ITEM('',(#35),#48);
#34=STYLED_ITEM('',(#36),#49);
#35=PRESENTATION_STYLE_ASSIGNMENT((#37));
#36=PRESENTATION_STYLE_ASSIGNMENT((#38));
#37=SURFACE_STYLE_USAGE(.BOTH.,#39);
#38=SURFACE_STYLE_USAGE(.BOTH.,#40);
#39=SURFACE_SIDE_STYLE('',(#41));
#40=SURFACE_SIDE_STYLE('',(#42));
#41=SURFACE_STYLE_FILL_AREA(#43);
#42=SURFACE_STYLE_FILL_AREA(#44);
#43=FILL_AREA_STYLE('',(#45));
#44=FILL_AREA_STYLE('',(#46));
#45=FILL_AREA_STYLE_COLOUR('',#47);
#46=FILL_AREA_STYLE_COLOUR('',#23);
#47=COLOUR_RGB('silver gray',0.6,0.6,0.6);
#48=MANIFOLD_SOLID_BREP('',#50);
#49=MANIFOLD_SOLID_BREP('',#51);
#50=CLOSED_SHELL('',(#132,#133,#134,#135,#136,#137,#138,#139,#140,#141,
#142,#143,#144,#145,#146,#147,#148));
#51=CLOSED_SHELL('',(#149,#150,#151,#152,#153,#154,#155,#156));
#52=CYLINDRICAL_SURFACE('',#354,12.2500000000002);
#53=CYLINDRICAL_SURFACE('',#358,12.5);
#54=CYLINDRICAL_SURFACE('',#362,12.25);
#55=SURFACE_OF_REVOLUTION('',#75,#65);
#56=SURFACE_OF_REVOLUTION('',#76,#66);
#57=SURFACE_OF_REVOLUTION('',#324,#67);
#58=SURFACE_OF_REVOLUTION('',#24,#68);
#59=SURFACE_OF_REVOLUTION('',#327,#69);
#60=SURFACE_OF_REVOLUTION('',#25,#70);
#61=SURFACE_OF_REVOLUTION('',#330,#71);
#62=SURFACE_OF_REVOLUTION('',#26,#72);
#63=SURFACE_OF_REVOLUTION('',#333,#73);
#64=SURFACE_OF_REVOLUTION('',#27,#74);
#65=AXIS1_PLACEMENT('',#515,#406);
#66=AXIS1_PLACEMENT('',#537,#413);
#67=AXIS1_PLACEMENT('',#565,#450);
#68=AXIS1_PLACEMENT('',#569,#454);
#69=AXIS1_PLACEMENT('',#573,#459);
#70=AXIS1_PLACEMENT('',#577,#463);
#71=AXIS1_PLACEMENT('',#581,#468);
#72=AXIS1_PLACEMENT('',#585,#472);
#73=AXIS1_PLACEMENT('',#589,#477);
#74=AXIS1_PLACEMENT('',#591,#479);
#75=B_SPLINE_CURVE_WITH_KNOTS('',3,(#501,#502,#503,#504,#505,#506,#507,
#508,#509,#510,#511,#512,#513,#514),.UNSPECIFIED.,.F.,.F.,(4,2,2,2,2,2,
4),(0.,0.108357208156604,0.229507316580929,0.471807706853646,0.592957827604171,
0.714107960852693,1.),.UNSPECIFIED.);
#76=B_SPLINE_CURVE_WITH_KNOTS('',3,(#521,#522,#523,#524,#525,#526,#527,
#528,#529,#530,#531,#532,#533,#534,#535,#536),.UNSPECIFIED.,.F.,.F.,(4,
2,2,2,2,2,2,4),(0.,0.126514991064585,0.253029556795829,0.40242368233451,
0.551817781805308,0.701211864465452,0.85060593600003,1.),.UNSPECIFIED.);
#77=CONICAL_SURFACE('',#340,5.03589838486225,60.0000000000001);
#78=CONICAL_SURFACE('',#356,12.5,45.0000000000004);
#79=CONICAL_SURFACE('',#360,12.25,19.9999999999996);
#80=TOROIDAL_SURFACE('',#338,3.23205080756886,2.);
#81=TOROIDAL_SURFACE('',#342,6.03589838486224,2.);
#82=TOROIDAL_SURFACE('',#346,11.1929843946562,0.8);
#83=TOROIDAL_SURFACE('',#349,17.0549982223651,0.800000000009977);
#84=TOROIDAL_SURFACE('',#352,13.0500000000007,0.800000000000359);
#85=TOROIDAL_SURFACE('',#364,10.75,1.5);
#86=FACE_BOUND('',#163,.T.);
#87=FACE_BOUND('',#164,.T.);
#88=FACE_BOUND('',#165,.T.);
#89=FACE_BOUND('',#166,.T.);
#90=FACE_BOUND('',#167,.T.);
#91=FACE_BOUND('',#168,.T.);
#92=FACE_BOUND('',#169,.T.);
#93=FACE_BOUND('',#170,.T.);
#94=FACE_BOUND('',#171,.T.);
#95=FACE_BOUND('',#172,.T.);
#96=FACE_BOUND('',#173,.T.);
#97=FACE_BOUND('',#174,.T.);
#98=FACE_BOUND('',#175,.T.);
#99=FACE_BOUND('',#176,.T.);
#100=FACE_BOUND('',#177,.T.);
#101=FACE_BOUND('',#178,.T.);
#102=FACE_BOUND('',#179,.T.);
#103=FACE_BOUND('',#180,.T.);
#104=FACE_BOUND('',#181,.T.);
#105=FACE_BOUND('',#182,.T.);
#106=FACE_BOUND('',#183,.T.);
#107=FACE_BOUND('',#184,.T.);
#108=FACE_BOUND('',#185,.T.);
#109=FACE_BOUND('',#186,.T.);
#110=FACE_BOUND('',#187,.T.);
#111=FACE_BOUND('',#188,.T.);
#112=FACE_BOUND('',#189,.T.);
#113=FACE_BOUND('',#190,.T.);
#114=FACE_BOUND('',#191,.T.);
#115=FACE_BOUND('',#192,.T.);
#116=FACE_BOUND('',#194,.T.);
#117=FACE_BOUND('',#195,.T.);
#118=FACE_BOUND('',#196,.T.);
#119=FACE_BOUND('',#197,.T.);
#120=FACE_BOUND('',#198,.T.);
#121=FACE_BOUND('',#199,.T.);
#122=FACE_BOUND('',#200,.T.);
#123=FACE_BOUND('',#201,.T.);
#124=FACE_BOUND('',#202,.T.);
#125=FACE_BOUND('',#203,.T.);
#126=FACE_BOUND('',#204,.T.);
#127=FACE_BOUND('',#205,.T.);
#128=FACE_BOUND('',#206,.T.);
#129=FACE_BOUND('',#207,.T.);
#130=FACE_BOUND('',#208,.T.);
#131=FACE_BOUND('',#209,.T.);
#132=ADVANCED_FACE('',(#160),#157,.F.);
#133=ADVANCED_FACE('',(#86,#87),#80,.F.);
#134=ADVANCED_FACE('',(#88,#89),#77,.F.);
#135=ADVANCED_FACE('',(#90,#91),#81,.T.);
#136=ADVANCED_FACE('',(#92,#93),#158,.F.);
#137=ADVANCED_FACE('',(#94,#95),#82,.T.);
#138=ADVANCED_FACE('',(#96,#97),#55,.T.);
#139=ADVANCED_FACE('',(#98,#99),#83,.T.);
#140=ADVANCED_FACE('',(#100,#101),#56,.T.);
#141=ADVANCED_FACE('',(#102,#103),#84,.F.);
#142=ADVANCED_FACE('',(#104,#105),#52,.T.);
#143=ADVANCED_FACE('',(#106,#107),#78,.T.);
#144=ADVANCED_FACE('',(#108,#109),#53,.T.);
#145=ADVANCED_FACE('',(#110,#111),#79,.T.);
#146=ADVANCED_FACE('',(#112,#113),#54,.T.);
#147=ADVANCED_FACE('',(#114,#115),#85,.T.);
#148=ADVANCED_FACE('',(#161),#159,.F.);
#149=ADVANCED_FACE('',(#116,#117),#57,.T.);
#150=ADVANCED_FACE('',(#118,#119),#58,.T.);
#151=ADVANCED_FACE('',(#120,#121),#59,.T.);
#152=ADVANCED_FACE('',(#122,#123),#60,.T.);
#153=ADVANCED_FACE('',(#124,#125),#61,.T.);
#154=ADVANCED_FACE('',(#126,#127),#62,.T.);
#155=ADVANCED_FACE('',(#128,#129),#63,.T.);
#156=ADVANCED_FACE('',(#130,#131),#64,.T.);
#157=PLANE('',#336);
#158=PLANE('',#344);
#159=PLANE('',#365);
#160=FACE_OUTER_BOUND('',#162,.T.);
#161=FACE_OUTER_BOUND('',#193,.T.);
#162=EDGE_LOOP('',(#210));
#163=EDGE_LOOP('',(#211));
#164=EDGE_LOOP('',(#212));
#165=EDGE_LOOP('',(#213));
#166=EDGE_LOOP('',(#214));
#167=EDGE_LOOP('',(#215));
#168=EDGE_LOOP('',(#216));
#169=EDGE_LOOP('',(#217));
#170=EDGE_LOOP('',(#218));
#171=EDGE_LOOP('',(#219));
#172=EDGE_LOOP('',(#220));
#173=EDGE_LOOP('',(#221));
#174=EDGE_LOOP('',(#222));
#175=EDGE_LOOP('',(#223));
#176=EDGE_LOOP('',(#224));
#177=EDGE_LOOP('',(#225));
#178=EDGE_LOOP('',(#226));
#179=EDGE_LOOP('',(#227));
#180=EDGE_LOOP('',(#228));
#181=EDGE_LOOP('',(#229));
#182=EDGE_LOOP('',(#230));
#183=EDGE_LOOP('',(#231));
#184=EDGE_LOOP('',(#232));
#185=EDGE_LOOP('',(#233));
#186=EDGE_LOOP('',(#234));
#187=EDGE_LOOP('',(#235));
#188=EDGE_LOOP('',(#236));
#189=EDGE_LOOP('',(#237));
#190=EDGE_LOOP('',(#238));
#191=EDGE_LOOP('',(#239));
#192=EDGE_LOOP('',(#240));
#193=EDGE_LOOP('',(#241));
#194=EDGE_LOOP('',(#242));
#195=EDGE_LOOP('',(#243));
#196=EDGE_LOOP('',(#244));
#197=EDGE_LOOP('',(#245));
#198=EDGE_LOOP('',(#246));
#199=EDGE_LOOP('',(#247));
#200=EDGE_LOOP('',(#248));
#201=EDGE_LOOP('',(#249));
#202=EDGE_LOOP('',(#250));
#203=EDGE_LOOP('',(#251));
#204=EDGE_LOOP('',(#252));
#205=EDGE_LOOP('',(#253));
#206=EDGE_LOOP('',(#254));
#207=EDGE_LOOP('',(#255));
#208=EDGE_LOOP('',(#256));
#209=EDGE_LOOP('',(#257));
#210=ORIENTED_EDGE('',*,*,#282,.T.);
#211=ORIENTED_EDGE('',*,*,#282,.F.);
#212=ORIENTED_EDGE('',*,*,#283,.T.);
#213=ORIENTED_EDGE('',*,*,#283,.F.);
#214=ORIENTED_EDGE('',*,*,#284,.T.);
#215=ORIENTED_EDGE('',*,*,#284,.F.);
#216=ORIENTED_EDGE('',*,*,#285,.T.);
#217=ORIENTED_EDGE('',*,*,#285,.F.);
#218=ORIENTED_EDGE('',*,*,#286,.T.);
#219=ORIENTED_EDGE('',*,*,#286,.F.);
#220=ORIENTED_EDGE('',*,*,#287,.T.);
#221=ORIENTED_EDGE('',*,*,#287,.F.);
#222=ORIENTED_EDGE('',*,*,#288,.T.);
#223=ORIENTED_EDGE('',*,*,#288,.F.);
#224=ORIENTED_EDGE('',*,*,#289,.T.);
#225=ORIENTED_EDGE('',*,*,#289,.F.);
#226=ORIENTED_EDGE('',*,*,#290,.T.);
#227=ORIENTED_EDGE('',*,*,#290,.F.);
#228=ORIENTED_EDGE('',*,*,#291,.T.);
#229=ORIENTED_EDGE('',*,*,#291,.F.);
#230=ORIENTED_EDGE('',*,*,#292,.T.);
#231=ORIENTED_EDGE('',*,*,#292,.F.);
#232=ORIENTED_EDGE('',*,*,#293,.T.);
#233=ORIENTED_EDGE('',*,*,#293,.F.);
#234=ORIENTED_EDGE('',*,*,#294,.T.);
#235=ORIENTED_EDGE('',*,*,#294,.F.);
#236=ORIENTED_EDGE('',*,*,#295,.T.);
#237=ORIENTED_EDGE('',*,*,#295,.F.);
#238=ORIENTED_EDGE('',*,*,#296,.T.);
#239=ORIENTED_EDGE('',*,*,#296,.F.);
#240=ORIENTED_EDGE('',*,*,#297,.T.);
#241=ORIENTED_EDGE('',*,*,#297,.F.);
#242=ORIENTED_EDGE('',*,*,#298,.F.);
#243=ORIENTED_EDGE('',*,*,#299,.T.);
#244=ORIENTED_EDGE('',*,*,#300,.F.);
#245=ORIENTED_EDGE('',*,*,#298,.T.);
#246=ORIENTED_EDGE('',*,*,#301,.F.);
#247=ORIENTED_EDGE('',*,*,#300,.T.);
#248=ORIENTED_EDGE('',*,*,#302,.F.);
#249=ORIENTED_EDGE('',*,*,#301,.T.);
#250=ORIENTED_EDGE('',*,*,#303,.F.);
#251=ORIENTED_EDGE('',*,*,#302,.T.);
#252=ORIENTED_EDGE('',*,*,#304,.F.);
#253=ORIENTED_EDGE('',*,*,#303,.T.);
#254=ORIENTED_EDGE('',*,*,#305,.F.);
#255=ORIENTED_EDGE('',*,*,#304,.T.);
#256=ORIENTED_EDGE('',*,*,#299,.F.);
#257=ORIENTED_EDGE('',*,*,#305,.T.);
#258=VERTEX_POINT('',#482);
#259=VERTEX_POINT('',#485);
#260=VERTEX_POINT('',#488);
#261=VERTEX_POINT('',#491);
#262=VERTEX_POINT('',#494);
#263=VERTEX_POINT('',#497);
#264=VERTEX_POINT('',#500);
#265=VERTEX_POINT('',#517);
#266=VERTEX_POINT('',#520);
#267=VERTEX_POINT('',#539);
#268=VERTEX_POINT('',#542);
#269=VERTEX_POINT('',#545);
#270=VERTEX_POINT('',#548);
#271=VERTEX_POINT('',#551);
#272=VERTEX_POINT('',#554);
#273=VERTEX_POINT('',#557);
#274=VERTEX_POINT('',#561);
#275=VERTEX_POINT('',#563);
#276=VERTEX_POINT('',#567);
#277=VERTEX_POINT('',#571);
#278=VERTEX_POINT('',#575);
#279=VERTEX_POINT('',#579);
#280=VERTEX_POINT('',#583);
#281=VERTEX_POINT('',#587);
#282=EDGE_CURVE('',#258,#258,#306,.T.);
#283=EDGE_CURVE('',#259,#259,#307,.T.);
#284=EDGE_CURVE('',#260,#260,#308,.T.);
#285=EDGE_CURVE('',#261,#261,#309,.T.);
#286=EDGE_CURVE('',#262,#262,#310,.T.);
#287=EDGE_CURVE('',#263,#263,#311,.T.);
#288=EDGE_CURVE('',#264,#264,#312,.T.);
#289=EDGE_CURVE('',#265,#265,#313,.T.);
#290=EDGE_CURVE('',#266,#266,#314,.T.);
#291=EDGE_CURVE('',#267,#267,#315,.T.);
#292=EDGE_CURVE('',#268,#268,#316,.T.);
#293=EDGE_CURVE('',#269,#269,#317,.T.);
#294=EDGE_CURVE('',#270,#270,#318,.T.);
#295=EDGE_CURVE('',#271,#271,#319,.T.);
#296=EDGE_CURVE('',#272,#272,#320,.T.);
#297=EDGE_CURVE('',#273,#273,#321,.T.);
#298=EDGE_CURVE('',#274,#274,#322,.T.);
#299=EDGE_CURVE('',#275,#275,#323,.T.);
#300=EDGE_CURVE('',#276,#276,#325,.T.);
#301=EDGE_CURVE('',#277,#277,#326,.T.);
#302=EDGE_CURVE('',#278,#278,#328,.T.);
#303=EDGE_CURVE('',#279,#279,#329,.T.);
#304=EDGE_CURVE('',#280,#280,#331,.T.);
#305=EDGE_CURVE('',#281,#281,#332,.T.);
#306=CIRCLE('',#335,3.23205080756885);
#307=CIRCLE('',#337,4.23205080756884);
#308=CIRCLE('',#339,5.03589838486225);
#309=CIRCLE('',#341,6.03589838486224);
#310=CIRCLE('',#343,11.1929843946562);
#311=CIRCLE('',#345,11.7685493503289);
#312=CIRCLE('',#347,17.6250285050129);
#313=CIRCLE('',#348,17.625028619506);
#314=CIRCLE('',#350,12.4755416720035);
#315=CIRCLE('',#351,12.2500000000004);
#316=CIRCLE('',#353,12.25);
#317=CIRCLE('',#355,12.5);
#318=CIRCLE('',#357,12.5);
#319=CIRCLE('',#359,12.25);
#320=CIRCLE('',#361,12.25);
#321=CIRCLE('',#363,10.75);
#322=CIRCLE('',#366,12.3109718209929);
#323=CIRCLE('',#367,11.1919329946903);
#324=CIRCLE('',#368,0.8);
#325=CIRCLE('',#369,19.2670802046215);
#326=CIRCLE('',#370,19.2670802046215);
#327=CIRCLE('',#371,0.8);
#328=CIRCLE('',#372,12.3109718209928);
#329=CIRCLE('',#373,11.1919329946903);
#330=CIRCLE('',#374,0.8);
#331=CIRCLE('',#375,4.41010336881086);
#332=CIRCLE('',#376,4.41010336881088);
#333=CIRCLE('',#377,0.8);
#334=AXIS2_PLACEMENT_3D('',#480,#378,#379);
#335=AXIS2_PLACEMENT_3D('',#481,#380,#381);
#336=AXIS2_PLACEMENT_3D('',#483,#382,#383);
#337=AXIS2_PLACEMENT_3D('',#484,#384,#385);
#338=AXIS2_PLACEMENT_3D('',#486,#386,#387);
#339=AXIS2_PLACEMENT_3D('',#487,#388,#389);
#340=AXIS2_PLACEMENT_3D('',#489,#390,#391);
#341=AXIS2_PLACEMENT_3D('',#490,#392,#393);
#342=AXIS2_PLACEMENT_3D('',#492,#394,#395);
#343=AXIS2_PLACEMENT_3D('',#493,#396,#397);
#344=AXIS2_PLACEMENT_3D('',#495,#398,#399);
#345=AXIS2_PLACEMENT_3D('',#496,#400,#401);
#346=AXIS2_PLACEMENT_3D('',#498,#402,#403);
#347=AXIS2_PLACEMENT_3D('',#499,#404,#405);
#348=AXIS2_PLACEMENT_3D('',#516,#407,#408);
#349=AXIS2_PLACEMENT_3D('',#518,#409,#410);
#350=AXIS2_PLACEMENT_3D('',#519,#411,#412);
#351=AXIS2_PLACEMENT_3D('',#538,#414,#415);
#352=AXIS2_PLACEMENT_3D('',#540,#416,#417);
#353=AXIS2_PLACEMENT_3D('',#541,#418,#419);
#354=AXIS2_PLACEMENT_3D('',#543,#420,#421);
#355=AXIS2_PLACEMENT_3D('',#544,#422,#423);
#356=AXIS2_PLACEMENT_3D('',#546,#424,#425);
#357=AXIS2_PLACEMENT_3D('',#547,#426,#427);
#358=AXIS2_PLACEMENT_3D('',#549,#428,#429);
#359=AXIS2_PLACEMENT_3D('',#550,#430,#431);
#360=AXIS2_PLACEMENT_3D('',#552,#432,#433);
#361=AXIS2_PLACEMENT_3D('',#553,#434,#435);
#362=AXIS2_PLACEMENT_3D('',#555,#436,#437);
#363=AXIS2_PLACEMENT_3D('',#556,#438,#439);
#364=AXIS2_PLACEMENT_3D('',#558,#440,#441);
#365=AXIS2_PLACEMENT_3D('',#559,#442,#443);
#366=AXIS2_PLACEMENT_3D('',#560,#444,#445);
#367=AXIS2_PLACEMENT_3D('',#562,#446,#447);
#368=AXIS2_PLACEMENT_3D('',#564,#448,#449);
#369=AXIS2_PLACEMENT_3D('',#566,#451,#452);
#370=AXIS2_PLACEMENT_3D('',#570,#455,#456);
#371=AXIS2_PLACEMENT_3D('',#572,#457,#458);
#372=AXIS2_PLACEMENT_3D('',#574,#460,#461);
#373=AXIS2_PLACEMENT_3D('',#578,#464,#465);
#374=AXIS2_PLACEMENT_3D('',#580,#466,#467);
#375=AXIS2_PLACEMENT_3D('',#582,#469,#470);
#376=AXIS2_PLACEMENT_3D('',#586,#473,#474);
#377=AXIS2_PLACEMENT_3D('',#588,#475,#476);
#378=DIRECTION('',(0.,0.,1.));
#379=DIRECTION('',(1.,0.,0.));
#380=DIRECTION('',(-1.,0.,0.));
#381=DIRECTION('',(0.,0.,1.));
#382=DIRECTION('',(1.,0.,0.));
#383=DIRECTION('',(0.,0.,-1.));
#384=DIRECTION('',(-1.,0.,0.));
#385=DIRECTION('',(0.,0.,1.));
#386=DIRECTION('',(-1.,0.,0.));
#387=DIRECTION('',(0.,0.,1.));
#388=DIRECTION('',(-1.,0.,0.));
#389=DIRECTION('',(0.,0.,1.));
#390=DIRECTION('',(-1.,0.,0.));
#391=DIRECTION('',(4.99319772015744E-19,0.,1.));
#392=DIRECTION('',(-1.,0.,0.));
#393=DIRECTION('',(0.,0.,1.));
#394=DIRECTION('',(-1.,0.,0.));
#395=DIRECTION('',(0.,0.,1.));
#396=DIRECTION('',(-1.,0.,0.));
#397=DIRECTION('',(0.,0.,1.));
#398=DIRECTION('',(1.,0.,0.));
#399=DIRECTION('',(0.,0.,-1.));
#400=DIRECTION('',(-1.,0.,0.));
#401=DIRECTION('',(0.,0.,1.));
#402=DIRECTION('',(-1.,0.,0.));
#403=DIRECTION('',(0.,0.,1.));
#404=DIRECTION('',(-1.,0.,0.));
#405=DIRECTION('',(0.,0.,1.));
#406=DIRECTION('',(-1.,0.,0.));
#407=DIRECTION('',(-1.,0.,0.));
#408=DIRECTION('',(0.,0.,1.));
#409=DIRECTION('',(-1.,0.,0.));
#410=DIRECTION('',(0.,0.,1.));
#411=DIRECTION('',(-1.,0.,0.));
#412=DIRECTION('',(0.,0.,1.));
#413=DIRECTION('',(-1.,0.,0.));
#414=DIRECTION('',(-1.,0.,0.));
#415=DIRECTION('',(0.,0.,1.));
#416=DIRECTION('',(-1.,0.,0.));
#417=DIRECTION('',(0.,0.,1.));
#418=DIRECTION('',(-1.,0.,0.));
#419=DIRECTION('',(0.,0.,1.));
#420=DIRECTION('',(-1.,0.,0.));
#421=DIRECTION('',(0.,0.,1.));
#422=DIRECTION('',(-1.,0.,0.));
#423=DIRECTION('',(0.,0.,1.));
#424=DIRECTION('',(1.,0.,0.));
#425=DIRECTION('',(-8.22387425648253E-17,0.,-1.));
#426=DIRECTION('',(-1.,0.,0.));
#427=DIRECTION('',(0.,0.,1.));
#428=DIRECTION('',(-1.,0.,0.));
#429=DIRECTION('',(0.,0.,1.));
#430=DIRECTION('',(-1.,0.,0.));
#431=DIRECTION('',(0.,0.,1.));
#432=DIRECTION('',(-1.,0.,0.));
#433=DIRECTION('',(7.3774808177889E-17,0.,1.));
#434=DIRECTION('',(-1.,0.,0.));
#435=DIRECTION('',(0.,0.,1.));
#436=DIRECTION('',(-1.,0.,0.));
#437=DIRECTION('',(0.,0.,1.));
#438=DIRECTION('',(-1.,0.,0.));
#439=DIRECTION('',(0.,0.,1.));
#440=DIRECTION('',(-1.,0.,0.));
#441=DIRECTION('',(0.,0.,1.));
#442=DIRECTION('',(-1.,0.,0.));
#443=DIRECTION('',(0.,0.,1.));
#444=DIRECTION('',(1.,0.,0.));
#445=DIRECTION('',(0.,0.,-1.));
#446=DIRECTION('',(1.,0.,0.));
#447=DIRECTION('',(0.,0.,-1.));
#448=DIRECTION('',(-1.38777878078145E-17,-0.0871557427476582,0.996194698091746));
#449=DIRECTION('',(-0.707106781186546,-0.70441602640276,-0.0616284167162195));
#450=DIRECTION('',(1.,0.,0.));
#451=DIRECTION('',(1.,0.,0.));
#452=DIRECTION('',(0.,0.,-1.));
#453=DIRECTION('',(0.707106781186549,-0.704416026402757,-0.0616284167162193));
#454=DIRECTION('',(1.,0.,0.));
#455=DIRECTION('',(1.,0.,0.));
#456=DIRECTION('',(0.,0.,-1.));
#457=DIRECTION('',(-1.38777878078145E-17,-0.0871557427476582,0.996194698091746));
#458=DIRECTION('',(-0.707106781186546,-0.70441602640276,-0.0616284167162195));
#459=DIRECTION('',(1.,0.,0.));
#460=DIRECTION('',(1.,0.,0.));
#461=DIRECTION('',(0.,0.,-1.));
#462=DIRECTION('',(0.707106781186546,0.70441602640276,0.0616284167162195));
#463=DIRECTION('',(1.,0.,0.));
#464=DIRECTION('',(1.,0.,0.));
#465=DIRECTION('',(0.,0.,-1.));
#466=DIRECTION('',(-1.38777878078145E-17,-0.0871557427476582,0.996194698091746));
#467=DIRECTION('',(-0.707106781186546,-0.70441602640276,-0.0616284167162195));
#468=DIRECTION('',(1.,0.,0.));
#469=DIRECTION('',(1.,0.,0.));
#470=DIRECTION('',(0.,0.,-1.));
#471=DIRECTION('',(-0.707106781186549,0.704416026402757,0.0616284167162193));
#472=DIRECTION('',(1.,0.,0.));
#473=DIRECTION('',(1.,0.,0.));
#474=DIRECTION('',(0.,0.,-1.));
#475=DIRECTION('',(-1.38777878078145E-17,-0.0871557427476582,0.996194698091746));
#476=DIRECTION('',(-0.707106781186546,-0.70441602640276,-0.0616284167162195));
#477=DIRECTION('',(1.,0.,0.));
#478=DIRECTION('',(-0.707106781186546,-0.70441602640276,-0.0616284167162195));
#479=DIRECTION('',(1.,0.,0.));
#480=CARTESIAN_POINT('',(0.,0.,0.));
#481=CARTESIAN_POINT('',(2.,0.,0.));
#482=CARTESIAN_POINT('',(2.,0.,3.23205080756885));
#483=CARTESIAN_POINT('',(2.,0.,0.));
#484=CARTESIAN_POINT('',(1.73205080756888,0.,0.));
#485=CARTESIAN_POINT('',(1.73205080756888,0.,4.23205080756884));
#486=CARTESIAN_POINT('',(0.,0.,0.));
#487=CARTESIAN_POINT('',(1.26794919243112,0.,0.));
#488=CARTESIAN_POINT('',(1.26794919243112,0.,5.03589838486225));
#489=CARTESIAN_POINT('',(1.26794919243112,0.,0.));
#490=CARTESIAN_POINT('',(1.,0.,0.));
#491=CARTESIAN_POINT('',(1.,0.,6.03589838486224));
#492=CARTESIAN_POINT('',(3.,0.,0.));
#493=CARTESIAN_POINT('',(1.,0.,0.));
#494=CARTESIAN_POINT('',(1.,0.,11.1929843946562));
#495=CARTESIAN_POINT('',(1.,6.03589838486224,0.));
#496=CARTESIAN_POINT('',(1.24436974362301,0.,0.));
#497=CARTESIAN_POINT('',(1.24436974362301,0.,11.7685493503289));
#498=CARTESIAN_POINT('',(1.8,0.,0.));
#499=CARTESIAN_POINT('',(7.23905032022207,0.,0.));
#500=CARTESIAN_POINT('',(7.23905032022207,0.,17.6250285050129));
#501=CARTESIAN_POINT('',(7.23905032022207,17.6250285050129,0.));
#502=CARTESIAN_POINT('',(7.02336445462252,17.4126433455936,0.));
#503=CARTESIAN_POINT('',(6.8076183292795,17.2003193800385,0.));
#504=CARTESIAN_POINT('',(6.35051287830708,16.7507481281891,0.));
#505=CARTESIAN_POINT('',(6.10913657268317,16.5135180233809,0.));
#506=CARTESIAN_POINT('',(5.38472100778033,15.8021193072717,0.));
#507=CARTESIAN_POINT('',(4.90139792394657,15.3282391531988,0.));
#508=CARTESIAN_POINT('',(4.17566178193108,14.6181876308367,0.));
#509=CARTESIAN_POINT('',(3.93362376768139,14.38163254386,0.));
#510=CARTESIAN_POINT('',(3.44925528620293,13.908822077291,0.));
#511=CARTESIAN_POINT('',(3.2069248015622,13.672566521281,0.));
#512=CARTESIAN_POINT('',(2.39216504249764,12.8793822821747,0.));
#513=CARTESIAN_POINT('',(1.81896459699624,12.3232431039115,0.));
#514=CARTESIAN_POINT('',(1.24436974362301,11.7685493503289,0.));
#515=CARTESIAN_POINT('',(0.,0.,0.));
#516=CARTESIAN_POINT('',(8.3616640767883,0.,0.));
#517=CARTESIAN_POINT('',(8.3616640767883,0.,17.625028619506));
#518=CARTESIAN_POINT('',(7.80035725663427,0.,0.));
#519=CARTESIAN_POINT('',(13.6254797527392,0.,0.));
#520=CARTESIAN_POINT('',(13.6254797527392,0.,12.4755416720035));
#521=CARTESIAN_POINT('',(14.0936074825603,12.022377930167,0.));
#522=CARTESIAN_POINT('',(13.8267036762889,12.2804233217696,0.));
#523=CARTESIAN_POINT('',(13.5600885622254,12.538767539597,0.));
#524=CARTESIAN_POINT('',(13.0273363443891,13.0559459847826,0.));
#525=CARTESIAN_POINT('',(12.7611992304706,13.3147806876295,0.));
#526=CARTESIAN_POINT('',(12.1812301697723,13.8797049992238,0.));
#527=CARTESIAN_POINT('',(11.8674765245969,14.185875389431,0.));
#528=CARTESIAN_POINT('',(11.240424262361,14.7986812011988,0.));
#529=CARTESIAN_POINT('',(10.9271257104668,15.1053170620006,0.));
#530=CARTESIAN_POINT('',(10.3009061261978,15.7189736484351,0.));
#531=CARTESIAN_POINT('',(9.98798513980981,16.0259946741819,0.));
#532=CARTESIAN_POINT('',(9.36245979393607,16.6403588426286,0.));
#533=CARTESIAN_POINT('',(9.04985546744677,16.9477021951285,0.));
#534=CARTESIAN_POINT('',(8.42491494840999,17.5626612029353,0.));
#535=CARTESIAN_POINT('',(8.11257877991008,17.8702770079109,0.));
#536=CARTESIAN_POINT('',(7.80035713,18.1780089432955,0.));
#537=CARTESIAN_POINT('',(0.,0.,0.));
#538=CARTESIAN_POINT('',(14.1822540601517,0.,0.));
#539=CARTESIAN_POINT('',(14.1822540601517,0.,12.2500000000004));
#540=CARTESIAN_POINT('',(14.1822540601517,0.,0.));
#541=CARTESIAN_POINT('',(34.75,0.,0.));
#542=CARTESIAN_POINT('',(34.75,0.,12.25));
#543=CARTESIAN_POINT('',(0.,0.,0.));
#544=CARTESIAN_POINT('',(35.,0.,0.));
#545=CARTESIAN_POINT('',(35.,0.,12.5));
#546=CARTESIAN_POINT('',(35.,0.,0.));
#547=CARTESIAN_POINT('',(146.313130645136,0.,0.));
#548=CARTESIAN_POINT('',(146.313130645136,0.,12.5));
#549=CARTESIAN_POINT('',(0.,0.,0.));
#550=CARTESIAN_POINT('',(147.,0.,0.));
#551=CARTESIAN_POINT('',(147.,0.,12.25));
#552=CARTESIAN_POINT('',(147.,0.,0.));
#553=CARTESIAN_POINT('',(148.5,0.,0.));
#554=CARTESIAN_POINT('',(148.5,0.,12.25));
#555=CARTESIAN_POINT('',(0.,0.,0.));
#556=CARTESIAN_POINT('',(150.,0.,0.));
#557=CARTESIAN_POINT('',(150.,0.,10.75));
#558=CARTESIAN_POINT('',(148.5,0.,0.));
#559=CARTESIAN_POINT('',(150.,10.75,0.));
#560=CARTESIAN_POINT('',(0.23431457130393,0.,0.));
#561=CARTESIAN_POINT('',(0.23431457130393,0.,-12.3109718209929));
#562=CARTESIAN_POINT('',(0.234314571303937,0.,0.));
#563=CARTESIAN_POINT('',(0.234314571303937,0.,-11.1919329946903));
#564=CARTESIAN_POINT('',(0.799999996253167,-11.7297656413683,0.708726792236521));
#565=CARTESIAN_POINT('',(0.,0.,0.));
#566=CARTESIAN_POINT('',(7.23467170505076,0.,0.));
#567=CARTESIAN_POINT('',(7.23467170505076,0.,-19.2670802046215));
#568=CARTESIAN_POINT('',(0.234314571303943,-12.2932984624905,0.659424058863545));
#569=CARTESIAN_POINT('',(0.,0.,0.));
#570=CARTESIAN_POINT('',(8.36604255494931,0.,0.));
#571=CARTESIAN_POINT('',(8.36604255494931,0.,-19.2670802046215));
#572=CARTESIAN_POINT('',(7.80035713000006,-18.7034843027556,0.0986054667459538));
#573=CARTESIAN_POINT('',(0.,0.,0.));
#574=CARTESIAN_POINT('',(15.3663996886961,0.,0.));
#575=CARTESIAN_POINT('',(15.3663996886961,0.,-12.3109718209928));
#576=CARTESIAN_POINT('',(8.36604255494927,-19.2670171238778,0.0493027333729779));
#577=CARTESIAN_POINT('',(0.,0.,0.));
#578=CARTESIAN_POINT('',(15.3663996886961,0.,0.));
#579=CARTESIAN_POINT('',(15.3663996886961,0.,-11.1919329946903));
#580=CARTESIAN_POINT('',(14.8007142637468,-11.7297656413683,0.708726792236523));
#581=CARTESIAN_POINT('',(0.,0.,0.));
#582=CARTESIAN_POINT('',(8.36604255494922,0.,0.));
#583=CARTESIAN_POINT('',(8.36604255494922,0.,-4.41010336881086));
#584=CARTESIAN_POINT('',(15.3663996886961,-11.1662328202461,0.758029525609496));
#585=CARTESIAN_POINT('',(0.,0.,0.));
#586=CARTESIAN_POINT('',(7.23467170505075,0.,0.));
#587=CARTESIAN_POINT('',(7.23467170505075,0.,-4.41010336881088));
#588=CARTESIAN_POINT('',(7.80035712999999,-4.75604697998097,1.31884811772709));
#589=CARTESIAN_POINT('',(0.,0.,0.));
#590=CARTESIAN_POINT('',(7.23467170505073,-4.19251415885875,1.36815085110007));
#591=CARTESIAN_POINT('',(0.,0.,0.));
#592=(
GEOMETRIC_REPRESENTATION_CONTEXT(3)
GLOBAL_UNCERTAINTY_ASSIGNED_CONTEXT((#593))
GLOBAL_UNIT_ASSIGNED_CONTEXT((#599,#595,#594))
REPRESENTATION_CONTEXT('ACM45-SP1104-D25x39-W25-L150-Z02',
'TOP_LEVEL_ASSEMBLY_PART')
);
#593=UNCERTAINTY_MEASURE_WITH_UNIT(LENGTH_MEASURE(0.0508),#599,
'DISTANCE_ACCURACY_VALUE','Maximum Tolerance applied to model');
#594=(
NAMED_UNIT(*)
SI_UNIT($,.STERADIAN.)
SOLID_ANGLE_UNIT()
);
#595=(
CONVERSION_BASED_UNIT('DEGREE',#597)
NAMED_UNIT(#596)
PLANE_ANGLE_UNIT()
);
#596=DIMENSIONAL_EXPONENTS(0.,0.,0.,0.,0.,0.,0.);
#597=PLANE_ANGLE_MEASURE_WITH_UNIT(PLANE_ANGLE_MEASURE(0.0174532925),#598);
#598=(
NAMED_UNIT(*)
PLANE_ANGLE_UNIT()
SI_UNIT($,.RADIAN.)
);
#599=(
LENGTH_UNIT()
NAMED_UNIT(*)
SI_UNIT(.MILLI.,.METRE.)
);
ENDSEC;
END-ISO-10303-21;
