ISO-10303-21;
HEADER;
/* Generated by software containing ST-Developer
 * from STEP Tools, Inc. (www.steptools.com) 
 */
/* OPTION: using custom schema-name function */

FILE_DESCRIPTION(
/* description */ (''),
/* implementation_level */ '2;1');

FILE_NAME(
/* name */ 'ACM45-TC16-D10X31-W16-L100-Z02.stp',
/* time_stamp */ '2023-10-09T02:53:37+03:00',
/* author */ (''),
/* organization */ (''),
/* preprocessor_version */ 'ST-DEVELOPER v19.4',
/* originating_system */ 'SIEMENS PLM Software NX2306.3001',
/* authorisation */ '');

FILE_SCHEMA (('AUTOMOTIVE_DESIGN { 1 0 10303 214 3 1 1 1 }'));
ENDSEC;

DATA;
#10=SHAPE_REPRESENTATION_RELATIONSHIP('None',
'relationship between ACM45-TC16-D10X31-W16-L100-Z02-None and ACM45-TC
16-D10X31-W16-L100-Z02-None',#22,#11);
#11=ADVANCED_BREP_SHAPE_REPRESENTATION(
'ACM45-TC16-D10X31-W16-L100-Z02-None',(#157,#158),#639);
#12=SHAPE_DEFINITION_REPRESENTATION(#13,#22);
#13=PRODUCT_DEFINITION_SHAPE('','',#14);
#14=PRODUCT_DEFINITION(' ','',#16,#15);
#15=PRODUCT_DEFINITION_CONTEXT('part definition',#21,'design');
#16=PRODUCT_DEFINITION_FORMATION_WITH_SPECIFIED_SOURCE(' ',' ',#18,
 .NOT_KNOWN.);
#17=PRODUCT_RELATED_PRODUCT_CATEGORY('part','',(#18));
#18=PRODUCT('ACM45-TC16-D10X31-W16-L100-Z02',
'ACM45-TC16-D10X31-W16-L100-Z02',' ',(#19));
#19=PRODUCT_CONTEXT(' ',#21,'mechanical');
#20=APPLICATION_PROTOCOL_DEFINITION('international standard',
'automotive_design',2010,#21);
#21=APPLICATION_CONTEXT(
'core data for automotive mechanical design processes');
#22=SHAPE_REPRESENTATION('ACM45-TC16-D10X31-W16-L100-Z02-None',(#404),#639);
#23=DRAUGHTING_PRE_DEFINED_COLOUR('yellow');
#24=LINE('',#631,#26);
#25=LINE('',#637,#27);
#26=VECTOR('',#523,15.1121432960385);
#27=VECTOR('',#530,15.1121432960385);
#28=OVER_RIDING_STYLED_ITEM('',(#48),#228,#45);
#29=OVER_RIDING_STYLED_ITEM('',(#49),#229,#45);
#30=OVER_RIDING_STYLED_ITEM('',(#50),#230,#45);
#31=OVER_RIDING_STYLED_ITEM('',(#51),#231,#45);
#32=OVER_RIDING_STYLED_ITEM('',(#52),#232,#45);
#33=OVER_RIDING_STYLED_ITEM('',(#53),#233,#45);
#34=OVER_RIDING_STYLED_ITEM('',(#54),#234,#45);
#35=OVER_RIDING_STYLED_ITEM('',(#55),#235,#45);
#36=OVER_RIDING_STYLED_ITEM('',(#56),#236,#45);
#37=OVER_RIDING_STYLED_ITEM('',(#57),#237,#45);
#38=OVER_RIDING_STYLED_ITEM('',(#58),#238,#45);
#39=OVER_RIDING_STYLED_ITEM('',(#59),#239,#45);
#40=OVER_RIDING_STYLED_ITEM('',(#60),#240,#45);
#41=OVER_RIDING_STYLED_ITEM('',(#61),#241,#45);
#42=OVER_RIDING_STYLED_ITEM('',(#62),#242,#45);
#43=OVER_RIDING_STYLED_ITEM('',(#63),#243,#45);
#44=PRESENTATION_LAYER_ASSIGNMENT('1','Layer 1',(#157,#158));
#45=STYLED_ITEM('',(#47),#157);
#46=STYLED_ITEM('',(#64),#158);
#47=PRESENTATION_STYLE_ASSIGNMENT((#65));
#48=PRESENTATION_STYLE_ASSIGNMENT((#66));
#49=PRESENTATION_STYLE_ASSIGNMENT((#67));
#50=PRESENTATION_STYLE_ASSIGNMENT((#68));
#51=PRESENTATION_STYLE_ASSIGNMENT((#69));
#52=PRESENTATION_STYLE_ASSIGNMENT((#70));
#53=PRESENTATION_STYLE_ASSIGNMENT((#71));
#54=PRESENTATION_STYLE_ASSIGNMENT((#72));
#55=PRESENTATION_STYLE_ASSIGNMENT((#73));
#56=PRESENTATION_STYLE_ASSIGNMENT((#74));
#57=PRESENTATION_STYLE_ASSIGNMENT((#75));
#58=PRESENTATION_STYLE_ASSIGNMENT((#76));
#59=PRESENTATION_STYLE_ASSIGNMENT((#77));
#60=PRESENTATION_STYLE_ASSIGNMENT((#78));
#61=PRESENTATION_STYLE_ASSIGNMENT((#79));
#62=PRESENTATION_STYLE_ASSIGNMENT((#80));
#63=PRESENTATION_STYLE_ASSIGNMENT((#81));
#64=PRESENTATION_STYLE_ASSIGNMENT((#82));
#65=SURFACE_STYLE_USAGE(.BOTH.,#83);
#66=SURFACE_STYLE_USAGE(.BOTH.,#84);
#67=SURFACE_STYLE_USAGE(.BOTH.,#85);
#68=SURFACE_STYLE_USAGE(.BOTH.,#86);
#69=SURFACE_STYLE_USAGE(.BOTH.,#87);
#70=SURFACE_STYLE_USAGE(.BOTH.,#88);
#71=SURFACE_STYLE_USAGE(.BOTH.,#89);
#72=SURFACE_STYLE_USAGE(.BOTH.,#90);
#73=SURFACE_STYLE_USAGE(.BOTH.,#91);
#74=SURFACE_STYLE_USAGE(.BOTH.,#92);
#75=SURFACE_STYLE_USAGE(.BOTH.,#93);
#76=SURFACE_STYLE_USAGE(.BOTH.,#94);
#77=SURFACE_STYLE_USAGE(.BOTH.,#95);
#78=SURFACE_STYLE_USAGE(.BOTH.,#96);
#79=SURFACE_STYLE_USAGE(.BOTH.,#97);
#80=SURFACE_STYLE_USAGE(.BOTH.,#98);
#81=SURFACE_STYLE_USAGE(.BOTH.,#99);
#82=SURFACE_STYLE_USAGE(.BOTH.,#100);
#83=SURFACE_SIDE_STYLE('',(#101));
#84=SURFACE_SIDE_STYLE('',(#102));
#85=SURFACE_SIDE_STYLE('',(#103));
#86=SURFACE_SIDE_STYLE('',(#104));
#87=SURFACE_SIDE_STYLE('',(#105));
#88=SURFACE_SIDE_STYLE('',(#106));
#89=SURFACE_SIDE_STYLE('',(#107));
#90=SURFACE_SIDE_STYLE('',(#108));
#91=SURFACE_SIDE_STYLE('',(#109));
#92=SURFACE_SIDE_STYLE('',(#110));
#93=SURFACE_SIDE_STYLE('',(#111));
#94=SURFACE_SIDE_STYLE('',(#112));
#95=SURFACE_SIDE_STYLE('',(#113));
#96=SURFACE_SIDE_STYLE('',(#114));
#97=SURFACE_SIDE_STYLE('',(#115));
#98=SURFACE_SIDE_STYLE('',(#116));
#99=SURFACE_SIDE_STYLE('',(#117));
#100=SURFACE_SIDE_STYLE('',(#118));
#101=SURFACE_STYLE_FILL_AREA(#119);
#102=SURFACE_STYLE_FILL_AREA(#120);
#103=SURFACE_STYLE_FILL_AREA(#121);
#104=SURFACE_STYLE_FILL_AREA(#122);
#105=SURFACE_STYLE_FILL_AREA(#123);
#106=SURFACE_STYLE_FILL_AREA(#124);
#107=SURFACE_STYLE_FILL_AREA(#125);
#108=SURFACE_STYLE_FILL_AREA(#126);
#109=SURFACE_STYLE_FILL_AREA(#127);
#110=SURFACE_STYLE_FILL_AREA(#128);
#111=SURFACE_STYLE_FILL_AREA(#129);
#112=SURFACE_STYLE_FILL_AREA(#130);
#113=SURFACE_STYLE_FILL_AREA(#131);
#114=SURFACE_STYLE_FILL_AREA(#132);
#115=SURFACE_STYLE_FILL_AREA(#133);
#116=SURFACE_STYLE_FILL_AREA(#134);
#117=SURFACE_STYLE_FILL_AREA(#135);
#118=SURFACE_STYLE_FILL_AREA(#136);
#119=FILL_AREA_STYLE('',(#137));
#120=FILL_AREA_STYLE('',(#138));
#121=FILL_AREA_STYLE('',(#139));
#122=FILL_AREA_STYLE('',(#140));
#123=FILL_AREA_STYLE('',(#141));
#124=FILL_AREA_STYLE('',(#142));
#125=FILL_AREA_STYLE('',(#143));
#126=FILL_AREA_STYLE('',(#144));
#127=FILL_AREA_STYLE('',(#145));
#128=FILL_AREA_STYLE('',(#146));
#129=FILL_AREA_STYLE('',(#147));
#130=FILL_AREA_STYLE('',(#148));
#131=FILL_AREA_STYLE('',(#149));
#132=FILL_AREA_STYLE('',(#150));
#133=FILL_AREA_STYLE('',(#151));
#134=FILL_AREA_STYLE('',(#152));
#135=FILL_AREA_STYLE('',(#153));
#136=FILL_AREA_STYLE('',(#154));
#137=FILL_AREA_STYLE_COLOUR('',#155);
#138=FILL_AREA_STYLE_COLOUR('',#156);
#139=FILL_AREA_STYLE_COLOUR('',#156);
#140=FILL_AREA_STYLE_COLOUR('',#156);
#141=FILL_AREA_STYLE_COLOUR('',#156);
#142=FILL_AREA_STYLE_COLOUR('',#156);
#143=FILL_AREA_STYLE_COLOUR('',#156);
#144=FILL_AREA_STYLE_COLOUR('',#156);
#145=FILL_AREA_STYLE_COLOUR('',#156);
#146=FILL_AREA_STYLE_COLOUR('',#156);
#147=FILL_AREA_STYLE_COLOUR('',#156);
#148=FILL_AREA_STYLE_COLOUR('',#156);
#149=FILL_AREA_STYLE_COLOUR('',#156);
#150=FILL_AREA_STYLE_COLOUR('',#156);
#151=FILL_AREA_STYLE_COLOUR('',#156);
#152=FILL_AREA_STYLE_COLOUR('',#156);
#153=FILL_AREA_STYLE_COLOUR('',#156);
#154=FILL_AREA_STYLE_COLOUR('',#23);
#155=COLOUR_RGB('Medium Steel',0.611764705882353,0.658823529411765,0.670588235294118);
#156=COLOUR_RGB('silver gray',0.6,0.6,0.6);
#157=MANIFOLD_SOLID_BREP('',#159);
#158=MANIFOLD_SOLID_BREP('',#160);
#159=CLOSED_SHELL('',(#228,#229,#230,#231,#232,#233,#234,#235,#236,#237,
#238,#239,#240,#241,#242,#243));
#160=CLOSED_SHELL('',(#244,#245,#246,#247,#248,#249));
#161=(
BOUNDED_SURFACE()
B_SPLINE_SURFACE(3,3,((#566,#567,#568,#569,#570,#571,#572),(#573,#574,#575,
#576,#577,#578,#579),(#580,#581,#582,#583,#584,#585,#586),(#587,#588,#589,
#590,#591,#592,#593)),.UNSPECIFIED.,.F.,.T.,.F.)
B_SPLINE_SURFACE_WITH_KNOTS((4,4),(1,3,3,3,1),(0.,1.),(-0.5,0.,0.5,1.,1.5),
 .UNSPECIFIED.)
GEOMETRIC_REPRESENTATION_ITEM()
RATIONAL_B_SPLINE_SURFACE(((1.,0.333333333333333,0.333333333333333,1.,0.333333333333333,
0.333333333333333,1.),(0.993785152490398,0.331261717496799,0.331261717496799,
0.993785152490398,0.331261717496799,0.331261717496799,0.993785152490398),
(0.993785152490398,0.331261717496799,0.331261717496799,0.993785152490398,
0.331261717496799,0.331261717496799,0.993785152490398),(1.,0.333333333333333,
0.333333333333333,1.,0.333333333333333,0.333333333333333,1.)))
REPRESENTATION_ITEM('')
SURFACE()
);
#162=CONICAL_SURFACE('',#417,8.94846310392954,20.);
#163=CONICAL_SURFACE('',#424,8.,30.);
#164=CONICAL_SURFACE('',#428,7.75,10.0000000000001);
#165=CONICAL_SURFACE('',#438,4.99999999855664,45.0000000000001);
#166=CYLINDRICAL_SURFACE('',#413,14.5);
#167=CYLINDRICAL_SURFACE('',#422,7.75);
#168=CYLINDRICAL_SURFACE('',#426,8.);
#169=CYLINDRICAL_SURFACE('',#430,7.75);
#170=SURFACE_OF_REVOLUTION('',#182,#176);
#171=SURFACE_OF_REVOLUTION('',#397,#177);
#172=SURFACE_OF_REVOLUTION('',#400,#178);
#173=SURFACE_OF_REVOLUTION('',#24,#179);
#174=SURFACE_OF_REVOLUTION('',#403,#180);
#175=SURFACE_OF_REVOLUTION('',#25,#181);
#176=AXIS1_PLACEMENT('',#551,#456);
#177=AXIS1_PLACEMENT('',#621,#511);
#178=AXIS1_PLACEMENT('',#628,#520);
#179=AXIS1_PLACEMENT('',#632,#524);
#180=AXIS1_PLACEMENT('',#636,#529);
#181=AXIS1_PLACEMENT('',#638,#531);
#182=B_SPLINE_CURVE_WITH_KNOTS('',3,(#541,#542,#543,#544,#545,#546,#547,
#548,#549,#550),.UNSPECIFIED.,.F.,.F.,(4,2,2,2,4),(0.,0.5,0.75,0.875,1.),
 .UNSPECIFIED.);
#183=TOROIDAL_SURFACE('',#408,5.09856938407274,0.8);
#184=TOROIDAL_SURFACE('',#411,13.5,1.);
#185=TOROIDAL_SURFACE('',#415,11.5,3.);
#186=TOROIDAL_SURFACE('',#420,10.75,3.);
#187=TOROIDAL_SURFACE('',#432,6.75,1.);
#188=FACE_BOUND('',#255,.T.);
#189=FACE_BOUND('',#256,.T.);
#190=FACE_BOUND('',#257,.T.);
#191=FACE_BOUND('',#258,.T.);
#192=FACE_BOUND('',#259,.T.);
#193=FACE_BOUND('',#260,.T.);
#194=FACE_BOUND('',#261,.T.);
#195=FACE_BOUND('',#262,.T.);
#196=FACE_BOUND('',#263,.T.);
#197=FACE_BOUND('',#264,.T.);
#198=FACE_BOUND('',#265,.T.);
#199=FACE_BOUND('',#266,.T.);
#200=FACE_BOUND('',#267,.T.);
#201=FACE_BOUND('',#268,.T.);
#202=FACE_BOUND('',#269,.T.);
#203=FACE_BOUND('',#270,.T.);
#204=FACE_BOUND('',#271,.T.);
#205=FACE_BOUND('',#272,.T.);
#206=FACE_BOUND('',#273,.T.);
#207=FACE_BOUND('',#274,.T.);
#208=FACE_BOUND('',#275,.T.);
#209=FACE_BOUND('',#276,.T.);
#210=FACE_BOUND('',#277,.T.);
#211=FACE_BOUND('',#278,.T.);
#212=FACE_BOUND('',#279,.T.);
#213=FACE_BOUND('',#280,.T.);
#214=FACE_BOUND('',#281,.T.);
#215=FACE_BOUND('',#282,.T.);
#216=FACE_BOUND('',#284,.T.);
#217=FACE_BOUND('',#285,.T.);
#218=FACE_BOUND('',#286,.T.);
#219=FACE_BOUND('',#287,.T.);
#220=FACE_BOUND('',#288,.T.);
#221=FACE_BOUND('',#289,.T.);
#222=FACE_BOUND('',#290,.T.);
#223=FACE_BOUND('',#291,.T.);
#224=FACE_BOUND('',#292,.T.);
#225=FACE_BOUND('',#293,.T.);
#226=FACE_BOUND('',#294,.T.);
#227=FACE_BOUND('',#295,.T.);
#228=ADVANCED_FACE('',(#252),#250,.F.);
#229=ADVANCED_FACE('',(#188,#189),#183,.T.);
#230=ADVANCED_FACE('',(#190,#191),#170,.T.);
#231=ADVANCED_FACE('',(#192,#193),#184,.T.);
#232=ADVANCED_FACE('',(#194,#195),#166,.T.);
#233=ADVANCED_FACE('',(#196,#197),#185,.T.);
#234=ADVANCED_FACE('',(#198,#199),#162,.T.);
#235=ADVANCED_FACE('',(#200,#201),#161,.T.);
#236=ADVANCED_FACE('',(#202,#203),#186,.F.);
#237=ADVANCED_FACE('',(#204,#205),#167,.T.);
#238=ADVANCED_FACE('',(#206,#207),#163,.T.);
#239=ADVANCED_FACE('',(#208,#209),#168,.T.);
#240=ADVANCED_FACE('',(#210,#211),#164,.T.);
#241=ADVANCED_FACE('',(#212,#213),#169,.T.);
#242=ADVANCED_FACE('',(#214,#215),#187,.T.);
#243=ADVANCED_FACE('',(#253),#251,.F.);
#244=ADVANCED_FACE('',(#216,#217),#171,.T.);
#245=ADVANCED_FACE('',(#218,#219),#165,.T.);
#246=ADVANCED_FACE('',(#220,#221),#172,.T.);
#247=ADVANCED_FACE('',(#222,#223),#173,.T.);
#248=ADVANCED_FACE('',(#224,#225),#174,.T.);
#249=ADVANCED_FACE('',(#226,#227),#175,.T.);
#250=PLANE('',#406);
#251=PLANE('',#433);
#252=FACE_OUTER_BOUND('',#254,.T.);
#253=FACE_OUTER_BOUND('',#283,.T.);
#254=EDGE_LOOP('',(#296));
#255=EDGE_LOOP('',(#297));
#256=EDGE_LOOP('',(#298));
#257=EDGE_LOOP('',(#299));
#258=EDGE_LOOP('',(#300));
#259=EDGE_LOOP('',(#301));
#260=EDGE_LOOP('',(#302));
#261=EDGE_LOOP('',(#303));
#262=EDGE_LOOP('',(#304));
#263=EDGE_LOOP('',(#305));
#264=EDGE_LOOP('',(#306));
#265=EDGE_LOOP('',(#307));
#266=EDGE_LOOP('',(#308));
#267=EDGE_LOOP('',(#309));
#268=EDGE_LOOP('',(#310));
#269=EDGE_LOOP('',(#311));
#270=EDGE_LOOP('',(#312));
#271=EDGE_LOOP('',(#313));
#272=EDGE_LOOP('',(#314));
#273=EDGE_LOOP('',(#315));
#274=EDGE_LOOP('',(#316));
#275=EDGE_LOOP('',(#317));
#276=EDGE_LOOP('',(#318));
#277=EDGE_LOOP('',(#319));
#278=EDGE_LOOP('',(#320));
#279=EDGE_LOOP('',(#321));
#280=EDGE_LOOP('',(#322));
#281=EDGE_LOOP('',(#323));
#282=EDGE_LOOP('',(#324));
#283=EDGE_LOOP('',(#325));
#284=EDGE_LOOP('',(#326));
#285=EDGE_LOOP('',(#327));
#286=EDGE_LOOP('',(#328));
#287=EDGE_LOOP('',(#329));
#288=EDGE_LOOP('',(#330));
#289=EDGE_LOOP('',(#331));
#290=EDGE_LOOP('',(#332));
#291=EDGE_LOOP('',(#333));
#292=EDGE_LOOP('',(#334));
#293=EDGE_LOOP('',(#335));
#294=EDGE_LOOP('',(#336));
#295=EDGE_LOOP('',(#337));
#296=ORIENTED_EDGE('',*,*,#359,.T.);
#297=ORIENTED_EDGE('',*,*,#359,.F.);
#298=ORIENTED_EDGE('',*,*,#360,.T.);
#299=ORIENTED_EDGE('',*,*,#360,.F.);
#300=ORIENTED_EDGE('',*,*,#361,.T.);
#301=ORIENTED_EDGE('',*,*,#361,.F.);
#302=ORIENTED_EDGE('',*,*,#362,.T.);
#303=ORIENTED_EDGE('',*,*,#362,.F.);
#304=ORIENTED_EDGE('',*,*,#363,.T.);
#305=ORIENTED_EDGE('',*,*,#363,.F.);
#306=ORIENTED_EDGE('',*,*,#364,.T.);
#307=ORIENTED_EDGE('',*,*,#364,.F.);
#308=ORIENTED_EDGE('',*,*,#365,.T.);
#309=ORIENTED_EDGE('',*,*,#365,.F.);
#310=ORIENTED_EDGE('',*,*,#366,.T.);
#311=ORIENTED_EDGE('',*,*,#366,.F.);
#312=ORIENTED_EDGE('',*,*,#367,.T.);
#313=ORIENTED_EDGE('',*,*,#367,.F.);
#314=ORIENTED_EDGE('',*,*,#368,.T.);
#315=ORIENTED_EDGE('',*,*,#368,.F.);
#316=ORIENTED_EDGE('',*,*,#369,.T.);
#317=ORIENTED_EDGE('',*,*,#369,.F.);
#318=ORIENTED_EDGE('',*,*,#370,.T.);
#319=ORIENTED_EDGE('',*,*,#370,.F.);
#320=ORIENTED_EDGE('',*,*,#371,.T.);
#321=ORIENTED_EDGE('',*,*,#371,.F.);
#322=ORIENTED_EDGE('',*,*,#372,.T.);
#323=ORIENTED_EDGE('',*,*,#372,.F.);
#324=ORIENTED_EDGE('',*,*,#373,.T.);
#325=ORIENTED_EDGE('',*,*,#373,.F.);
#326=ORIENTED_EDGE('',*,*,#374,.F.);
#327=ORIENTED_EDGE('',*,*,#375,.T.);
#328=ORIENTED_EDGE('',*,*,#376,.F.);
#329=ORIENTED_EDGE('',*,*,#374,.T.);
#330=ORIENTED_EDGE('',*,*,#377,.F.);
#331=ORIENTED_EDGE('',*,*,#376,.T.);
#332=ORIENTED_EDGE('',*,*,#378,.F.);
#333=ORIENTED_EDGE('',*,*,#377,.T.);
#334=ORIENTED_EDGE('',*,*,#379,.F.);
#335=ORIENTED_EDGE('',*,*,#378,.T.);
#336=ORIENTED_EDGE('',*,*,#375,.F.);
#337=ORIENTED_EDGE('',*,*,#379,.T.);
#338=VERTEX_POINT('',#534);
#339=VERTEX_POINT('',#537);
#340=VERTEX_POINT('',#540);
#341=VERTEX_POINT('',#553);
#342=VERTEX_POINT('',#556);
#343=VERTEX_POINT('',#559);
#344=VERTEX_POINT('',#562);
#345=VERTEX_POINT('',#565);
#346=VERTEX_POINT('',#595);
#347=VERTEX_POINT('',#598);
#348=VERTEX_POINT('',#601);
#349=VERTEX_POINT('',#604);
#350=VERTEX_POINT('',#607);
#351=VERTEX_POINT('',#610);
#352=VERTEX_POINT('',#613);
#353=VERTEX_POINT('',#617);
#354=VERTEX_POINT('',#619);
#355=VERTEX_POINT('',#623);
#356=VERTEX_POINT('',#626);
#357=VERTEX_POINT('',#630);
#358=VERTEX_POINT('',#634);
#359=EDGE_CURVE('',#338,#338,#380,.T.);
#360=EDGE_CURVE('',#339,#339,#381,.T.);
#361=EDGE_CURVE('',#340,#340,#382,.T.);
#362=EDGE_CURVE('',#341,#341,#383,.T.);
#363=EDGE_CURVE('',#342,#342,#384,.T.);
#364=EDGE_CURVE('',#343,#343,#385,.T.);
#365=EDGE_CURVE('',#344,#344,#386,.T.);
#366=EDGE_CURVE('',#345,#345,#387,.T.);
#367=EDGE_CURVE('',#346,#346,#388,.T.);
#368=EDGE_CURVE('',#347,#347,#389,.T.);
#369=EDGE_CURVE('',#348,#348,#390,.T.);
#370=EDGE_CURVE('',#349,#349,#391,.T.);
#371=EDGE_CURVE('',#350,#350,#392,.T.);
#372=EDGE_CURVE('',#351,#351,#393,.T.);
#373=EDGE_CURVE('',#352,#352,#394,.T.);
#374=EDGE_CURVE('',#353,#353,#395,.T.);
#375=EDGE_CURVE('',#354,#354,#396,.T.);
#376=EDGE_CURVE('',#355,#355,#398,.T.);
#377=EDGE_CURVE('',#356,#356,#399,.T.);
#378=EDGE_CURVE('',#357,#357,#401,.T.);
#379=EDGE_CURVE('',#358,#358,#402,.T.);
#380=CIRCLE('',#405,5.09856938407274);
#381=CIRCLE('',#407,5.73382885969551);
#382=CIRCLE('',#409,14.2192090851337);
#383=CIRCLE('',#410,14.5);
#384=CIRCLE('',#412,14.5);
#385=CIRCLE('',#414,14.3190778623577);
#386=CIRCLE('',#416,8.94846310392954);
#387=CIRCLE('',#418,8.3125);
#388=CIRCLE('',#419,7.75);
#389=CIRCLE('',#421,7.75);
#390=CIRCLE('',#423,8.);
#391=CIRCLE('',#425,8.);
#392=CIRCLE('',#427,7.75);
#393=CIRCLE('',#429,7.75);
#394=CIRCLE('',#431,6.75);
#395=CIRCLE('',#434,4.99999999855664);
#396=CIRCLE('',#435,4.34581419460589);
#397=CIRCLE('',#436,0.4);
#398=CIRCLE('',#437,15.6858990014483);
#399=CIRCLE('',#439,15.5198651670736);
#400=CIRCLE('',#440,0.4);
#401=CIRCLE('',#441,3.52097144575557);
#402=CIRCLE('',#442,3.38593467594848);
#403=CIRCLE('',#443,0.4);
#404=AXIS2_PLACEMENT_3D('',#532,#444,#445);
#405=AXIS2_PLACEMENT_3D('',#533,#446,#447);
#406=AXIS2_PLACEMENT_3D('',#535,#448,#449);
#407=AXIS2_PLACEMENT_3D('',#536,#450,#451);
#408=AXIS2_PLACEMENT_3D('',#538,#452,#453);
#409=AXIS2_PLACEMENT_3D('',#539,#454,#455);
#410=AXIS2_PLACEMENT_3D('',#552,#457,#458);
#411=AXIS2_PLACEMENT_3D('',#554,#459,#460);
#412=AXIS2_PLACEMENT_3D('',#555,#461,#462);
#413=AXIS2_PLACEMENT_3D('',#557,#463,#464);
#414=AXIS2_PLACEMENT_3D('',#558,#465,#466);
#415=AXIS2_PLACEMENT_3D('',#560,#467,#468);
#416=AXIS2_PLACEMENT_3D('',#561,#469,#470);
#417=AXIS2_PLACEMENT_3D('',#563,#471,#472);
#418=AXIS2_PLACEMENT_3D('',#564,#473,#474);
#419=AXIS2_PLACEMENT_3D('',#594,#475,#476);
#420=AXIS2_PLACEMENT_3D('',#596,#477,#478);
#421=AXIS2_PLACEMENT_3D('',#597,#479,#480);
#422=AXIS2_PLACEMENT_3D('',#599,#481,#482);
#423=AXIS2_PLACEMENT_3D('',#600,#483,#484);
#424=AXIS2_PLACEMENT_3D('',#602,#485,#486);
#425=AXIS2_PLACEMENT_3D('',#603,#487,#488);
#426=AXIS2_PLACEMENT_3D('',#605,#489,#490);
#427=AXIS2_PLACEMENT_3D('',#606,#491,#492);
#428=AXIS2_PLACEMENT_3D('',#608,#493,#494);
#429=AXIS2_PLACEMENT_3D('',#609,#495,#496);
#430=AXIS2_PLACEMENT_3D('',#611,#497,#498);
#431=AXIS2_PLACEMENT_3D('',#612,#499,#500);
#432=AXIS2_PLACEMENT_3D('',#614,#501,#502);
#433=AXIS2_PLACEMENT_3D('',#615,#503,#504);
#434=AXIS2_PLACEMENT_3D('',#616,#505,#506);
#435=AXIS2_PLACEMENT_3D('',#618,#507,#508);
#436=AXIS2_PLACEMENT_3D('',#620,#509,#510);
#437=AXIS2_PLACEMENT_3D('',#622,#512,#513);
#438=AXIS2_PLACEMENT_3D('',#624,#514,#515);
#439=AXIS2_PLACEMENT_3D('',#625,#516,#517);
#440=AXIS2_PLACEMENT_3D('',#627,#518,#519);
#441=AXIS2_PLACEMENT_3D('',#629,#521,#522);
#442=AXIS2_PLACEMENT_3D('',#633,#525,#526);
#443=AXIS2_PLACEMENT_3D('',#635,#527,#528);
#444=DIRECTION('',(0.,0.,1.));
#445=DIRECTION('',(1.,0.,0.));
#446=DIRECTION('',(-1.,0.,0.));
#447=DIRECTION('',(0.,0.,1.));
#448=DIRECTION('',(1.,0.,0.));
#449=DIRECTION('',(0.,0.,-1.));
#450=DIRECTION('',(-1.,0.,0.));
#451=DIRECTION('',(0.,0.,1.));
#452=DIRECTION('',(-1.,0.,0.));
#453=DIRECTION('',(0.,0.,1.));
#454=DIRECTION('',(-1.,0.,0.));
#455=DIRECTION('',(0.,0.,1.));
#456=DIRECTION('',(-1.,0.,0.));
#457=DIRECTION('',(-1.,0.,0.));
#458=DIRECTION('',(0.,0.,1.));
#459=DIRECTION('',(-1.,0.,0.));
#460=DIRECTION('',(0.,0.,1.));
#461=DIRECTION('',(-1.,0.,0.));
#462=DIRECTION('',(0.,0.,1.));
#463=DIRECTION('',(-1.,0.,0.));
#464=DIRECTION('',(0.,0.,1.));
#465=DIRECTION('',(-1.,0.,0.));
#466=DIRECTION('',(0.,0.,1.));
#467=DIRECTION('',(-1.,0.,0.));
#468=DIRECTION('',(0.,0.,1.));
#469=DIRECTION('',(-1.,0.,0.));
#470=DIRECTION('',(0.,0.,1.));
#471=DIRECTION('',(-1.,0.,0.));
#472=DIRECTION('',(-8.37314481354384E-17,0.,1.));
#473=DIRECTION('',(-1.,0.,0.));
#474=DIRECTION('',(0.,0.,1.));
#475=DIRECTION('',(-1.,0.,0.));
#476=DIRECTION('',(0.,0.,1.));
#477=DIRECTION('',(-1.,0.,0.));
#478=DIRECTION('',(0.,0.,1.));
#479=DIRECTION('',(-1.,0.,0.));
#480=DIRECTION('',(0.,0.,1.));
#481=DIRECTION('',(-1.,0.,0.));
#482=DIRECTION('',(0.,0.,1.));
#483=DIRECTION('',(-1.,0.,0.));
#484=DIRECTION('',(0.,0.,1.));
#485=DIRECTION('',(1.,0.,0.));
#486=DIRECTION('',(-1.42251112247994E-16,0.,-1.));
#487=DIRECTION('',(-1.,0.,0.));
#488=DIRECTION('',(0.,0.,1.));
#489=DIRECTION('',(-1.,0.,0.));
#490=DIRECTION('',(0.,0.,1.));
#491=DIRECTION('',(-1.,0.,0.));
#492=DIRECTION('',(0.,0.,1.));
#493=DIRECTION('',(-1.,0.,0.));
#494=DIRECTION('',(-1.50782436287279E-16,0.,1.));
#495=DIRECTION('',(-1.,0.,0.));
#496=DIRECTION('',(0.,0.,1.));
#497=DIRECTION('',(-1.,0.,0.));
#498=DIRECTION('',(0.,0.,1.));
#499=DIRECTION('',(-1.,0.,0.));
#500=DIRECTION('',(0.,0.,1.));
#501=DIRECTION('',(-1.,0.,0.));
#502=DIRECTION('',(0.,0.,1.));
#503=DIRECTION('',(-1.,0.,0.));
#504=DIRECTION('',(0.,0.,1.));
#505=DIRECTION('',(1.,0.,0.));
#506=DIRECTION('',(0.,0.,-1.));
#507=DIRECTION('',(1.,0.,0.));
#508=DIRECTION('',(0.,0.,-1.));
#509=DIRECTION('',(-0.17106461289603,-0.171064612896029,0.970295726275996));
#510=DIRECTION('',(-0.707106781186547,0.707106781186548,0.));
#511=DIRECTION('',(1.,0.,0.));
#512=DIRECTION('',(1.,0.,0.));
#513=DIRECTION('',(0.,0.,-1.));
#514=DIRECTION('',(1.,0.,0.));
#515=DIRECTION('',(4.83306043058907E-17,0.,-1.));
#516=DIRECTION('',(1.,0.,0.));
#517=DIRECTION('',(0.,0.,-1.));
#518=DIRECTION('',(-0.171064612896029,-0.171064612896029,0.970295726275996));
#519=DIRECTION('',(0.707106781186547,-0.707106781186548,-2.77555756156289E-17));
#520=DIRECTION('',(1.,0.,0.));
#521=DIRECTION('',(1.,0.,0.));
#522=DIRECTION('',(0.,0.,-1.));
#523=DIRECTION('',(0.240628966651579,0.947735747838125,0.209510507321));
#524=DIRECTION('',(1.,0.,0.));
#525=DIRECTION('',(1.,0.,0.));
#526=DIRECTION('',(0.,0.,-1.));
#527=DIRECTION('',(-0.17106461289603,-0.171064612896029,0.970295726275996));
#528=DIRECTION('',(-0.707106781186547,0.707106781186548,0.));
#529=DIRECTION('',(1.,0.,0.));
#530=DIRECTION('',(-0.947735747838126,-0.240628966651576,-0.209510507321));
#531=DIRECTION('',(1.,0.,0.));
#532=CARTESIAN_POINT('',(0.,0.,0.));
#533=CARTESIAN_POINT('',(1.49999999904592,0.,0.));
#534=CARTESIAN_POINT('',(1.49999999904592,0.,5.09856938407274));
#535=CARTESIAN_POINT('',(1.49999999904592,0.,0.));
#536=CARTESIAN_POINT('',(1.81374348378729,0.,0.));
#537=CARTESIAN_POINT('',(1.81374348378729,0.,5.73382885969551));
#538=CARTESIAN_POINT('',(2.29999999904593,0.,0.));
#539=CARTESIAN_POINT('',(11.1551731198405,0.,0.));
#540=CARTESIAN_POINT('',(11.1551731198405,0.,14.2192090851337));
#541=CARTESIAN_POINT('',(11.6042942088236,14.6534756833478,0.));
#542=CARTESIAN_POINT('',(9.98849461508436,13.0898117333273,0.));
#543=CARTESIAN_POINT('',(8.3661064480935,11.5327423373179,0.));
#544=CARTESIAN_POINT('',(5.89589705058755,9.23651198001849,0.));
#545=CARTESIAN_POINT('',(5.06619237105403,8.47740478800731,0.));
#546=CARTESIAN_POINT('',(3.80010494144914,7.36406942390312,0.));
#547=CARTESIAN_POINT('',(3.37442030399942,6.99730813131196,0.));
#548=CARTESIAN_POINT('',(2.51045238313666,6.27877951086845,0.));
#549=CARTESIAN_POINT('',(2.0723456140346,5.92680210890475,0.));
#550=CARTESIAN_POINT('',(1.62251256171541,5.58878045088262,0.));
#551=CARTESIAN_POINT('',(0.,0.,0.));
#552=CARTESIAN_POINT('',(11.8499668243753,0.,0.));
#553=CARTESIAN_POINT('',(11.8499668243753,0.,14.5));
#554=CARTESIAN_POINT('',(11.8499668243753,0.,0.));
#555=CARTESIAN_POINT('',(14.8316952808436,0.,0.));
#556=CARTESIAN_POINT('',(14.8316952808436,0.,14.5));
#557=CARTESIAN_POINT('',(0.,0.,0.));
#558=CARTESIAN_POINT('',(15.8577557108206,0.,0.));
#559=CARTESIAN_POINT('',(15.8577557108206,0.,14.3190778623577));
#560=CARTESIAN_POINT('',(14.8316952808436,0.,0.));
#561=CARTESIAN_POINT('',(30.6133984881917,0.,0.));
#562=CARTESIAN_POINT('',(30.6133984881917,0.,8.94846310392954));
#563=CARTESIAN_POINT('',(30.6133984881917,0.,0.));
#564=CARTESIAN_POINT('',(31.8181037256537,0.,0.));
#565=CARTESIAN_POINT('',(31.8181037256537,0.,8.3125));
#566=CARTESIAN_POINT('',(30.6133984881917,0.,8.94846310392954));
#567=CARTESIAN_POINT('',(30.6133984881917,17.8969262078591,8.94846310392954));
#568=CARTESIAN_POINT('',(30.6133984881917,17.8969262078591,-8.94846310392954));
#569=CARTESIAN_POINT('',(30.6133984881917,0.,-8.94846310392954));
#570=CARTESIAN_POINT('',(30.6133984881917,-17.8969262078591,-8.94846310392954));
#571=CARTESIAN_POINT('',(30.6133984881917,-17.8969262078591,8.94846310392954));
#572=CARTESIAN_POINT('',(30.6133984881917,0.,8.94846310392954));
#573=CARTESIAN_POINT('',(31.0427701764262,0.,8.79218458997555));
#574=CARTESIAN_POINT('',(31.0427701764262,17.5843691799511,8.79218458997555));
#575=CARTESIAN_POINT('',(31.0427701764262,17.5843691799511,-8.79218458997555));
#576=CARTESIAN_POINT('',(31.0427701764262,0.,-8.79218458997555));
#577=CARTESIAN_POINT('',(31.0427701764262,-17.5843691799511,-8.79218458997555));
#578=CARTESIAN_POINT('',(31.0427701764262,-17.5843691799511,8.79218458997555));
#579=CARTESIAN_POINT('',(31.0427701764262,0.,8.79218458997555));
#580=CARTESIAN_POINT('',(31.4468498826696,0.,8.57887117834063));
#581=CARTESIAN_POINT('',(31.4468498826696,17.1577423566813,8.57887117834063));
#582=CARTESIAN_POINT('',(31.4468498826696,17.1577423566813,-8.57887117834063));
#583=CARTESIAN_POINT('',(31.4468498826696,0.,-8.57887117834063));
#584=CARTESIAN_POINT('',(31.4468498826696,-17.1577423566813,-8.57887117834063));
#585=CARTESIAN_POINT('',(31.4468498826696,-17.1577423566813,8.57887117834063));
#586=CARTESIAN_POINT('',(31.4468498826696,0.,8.57887117834063));
#587=CARTESIAN_POINT('',(31.8181037256536,0.,8.31249999999998));
#588=CARTESIAN_POINT('',(31.8181037256536,16.625,8.31249999999998));
#589=CARTESIAN_POINT('',(31.8181037256536,16.625,-8.31249999999998));
#590=CARTESIAN_POINT('',(31.8181037256536,0.,-8.31249999999998));
#591=CARTESIAN_POINT('',(31.8181037256536,-16.625,-8.31249999999998));
#592=CARTESIAN_POINT('',(31.8181037256536,-16.625,8.31249999999998));
#593=CARTESIAN_POINT('',(31.8181037256536,0.,8.31249999999998));
#594=CARTESIAN_POINT('',(33.5669872981078,0.,0.));
#595=CARTESIAN_POINT('',(33.5669872981078,0.,7.75));
#596=CARTESIAN_POINT('',(33.5669872981078,0.,0.));
#597=CARTESIAN_POINT('',(34.5669872981078,0.,0.));
#598=CARTESIAN_POINT('',(34.5669872981078,0.,7.75));
#599=CARTESIAN_POINT('',(0.,0.,0.));
#600=CARTESIAN_POINT('',(35.,0.,0.));
#601=CARTESIAN_POINT('',(35.,0.,8.));
#602=CARTESIAN_POINT('',(35.,0.,0.));
#603=CARTESIAN_POINT('',(94.5821795450956,0.,0.));
#604=CARTESIAN_POINT('',(94.5821795450956,0.,8.));
#605=CARTESIAN_POINT('',(0.,0.,0.));
#606=CARTESIAN_POINT('',(96.,0.,0.));
#607=CARTESIAN_POINT('',(96.,0.,7.75));
#608=CARTESIAN_POINT('',(96.,0.,0.));
#609=CARTESIAN_POINT('',(99.,0.,0.));
#610=CARTESIAN_POINT('',(99.,0.,7.75));
#611=CARTESIAN_POINT('',(0.,0.,0.));
#612=CARTESIAN_POINT('',(100.,0.,0.));
#613=CARTESIAN_POINT('',(100.,0.,6.75));
#614=CARTESIAN_POINT('',(99.,0.,0.));
#615=CARTESIAN_POINT('',(100.,6.75,0.));
#616=CARTESIAN_POINT('',(0.119662848556641,0.,0.));
#617=CARTESIAN_POINT('',(0.119662848556641,0.,-4.99999999855664));
#618=CARTESIAN_POINT('',(0.286375486961969,0.,0.));
#619=CARTESIAN_POINT('',(0.286375486961969,0.,-4.34581419460589));
#620=CARTESIAN_POINT('',(0.39410392367907,-4.7255589234342,0.0967687582398677));
#621=CARTESIAN_POINT('',(31.8181037256537,0.,0.));
#622=CARTESIAN_POINT('',(10.8055618514483,0.,0.));
#623=CARTESIAN_POINT('',(10.8055618514483,0.,-15.6858990014483));
#624=CARTESIAN_POINT('',(0.119662848556641,0.,0.));
#625=CARTESIAN_POINT('',(11.4621724384102,0.,0.));
#626=CARTESIAN_POINT('',(11.4621724384102,0.,-15.5198651670736));
#627=CARTESIAN_POINT('',(11.0800029265707,-15.4114579263259,0.0967687582398686));
#628=CARTESIAN_POINT('',(31.8181037256537,0.,0.));
#629=CARTESIAN_POINT('',(15.0985918636266,0.,0.));
#630=CARTESIAN_POINT('',(15.0985918636266,0.,-3.52097144575557));
#631=CARTESIAN_POINT('',(11.4621724384102,-15.519186363043,0.145153137359798));
#632=CARTESIAN_POINT('',(31.8181037256537,0.,0.));
#633=CARTESIAN_POINT('',(14.6086939150699,0.,0.));
#634=CARTESIAN_POINT('',(14.6086939150699,0.,-3.38593467594848));
#635=CARTESIAN_POINT('',(14.716422351787,-1.08913949821794,3.26292156690053));
#636=CARTESIAN_POINT('',(31.8181037256537,0.,0.));
#637=CARTESIAN_POINT('',(14.6086939150699,-0.706969986378383,3.31130594602046));
#638=CARTESIAN_POINT('',(31.8181037256537,0.,0.));
#639=(
GEOMETRIC_REPRESENTATION_CONTEXT(3)
GLOBAL_UNCERTAINTY_ASSIGNED_CONTEXT((#640))
GLOBAL_UNIT_ASSIGNED_CONTEXT((#646,#642,#641))
REPRESENTATION_CONTEXT('ACM45-TC16-D10X31-W16-L100-Z02',
'TOP_LEVEL_ASSEMBLY_PART')
);
#640=UNCERTAINTY_MEASURE_WITH_UNIT(LENGTH_MEASURE(0.0254),#646,
'DISTANCE_ACCURACY_VALUE','Maximum Tolerance applied to model');
#641=(
NAMED_UNIT(*)
SI_UNIT($,.STERADIAN.)
SOLID_ANGLE_UNIT()
);
#642=(
CONVERSION_BASED_UNIT('DEGREE',#644)
NAMED_UNIT(#643)
PLANE_ANGLE_UNIT()
);
#643=DIMENSIONAL_EXPONENTS(0.,0.,0.,0.,0.,0.,0.);
#644=PLANE_ANGLE_MEASURE_WITH_UNIT(PLANE_ANGLE_MEASURE(0.0174532925),#645);
#645=(
NAMED_UNIT(*)
PLANE_ANGLE_UNIT()
SI_UNIT($,.RADIAN.)
);
#646=(
LENGTH_UNIT()
NAMED_UNIT(*)
SI_UNIT(.MILLI.,.METRE.)
);
ENDSEC;
END-ISO-10303-21;
