ISO-10303-21;
HEADER;
/* Generated by software containing ST-Developer
 * from STEP Tools, Inc. (www.steptools.com) 
 */
/* OPTION: using custom schema-name function */

FILE_DESCRIPTION(
/* description */ (''),
/* implementation_level */ '2;1');

FILE_NAME(
/* name */ 'AEA-114x134.stp',
/* time_stamp */ '2023-10-19T09:20:20+03:00',
/* author */ (''),
/* organization */ (''),
/* preprocessor_version */ 'ST-DEVELOPER v19.4',
/* originating_system */ 'SIEMENS PLM Software NX2306.3001',
/* authorisation */ '');

FILE_SCHEMA (('AP203_CONFIGURATION_CONTROLLED_3D_DESIGN_OF_MECHANICAL_PARTS_AND_ASSEMBLIES_MIM_LF { 1 0 10303 403 2 1 2}'));
ENDSEC;

DATA;
#10=SHAPE_REPRESENTATION_RELATIONSHIP('None',
'relationship between AEA-114x134-None and AEA-114x134-None',#76,#11);
#11=ADVANCED_BREP_SHAPE_REPRESENTATION('AEA-114x134-None',(#86),#372);
#12=APPLIED_APPROVAL_ASSIGNMENT(#24,(#66));
#13=APPLIED_APPROVAL_ASSIGNMENT(#25,(#68));
#14=APPLIED_APPROVAL_ASSIGNMENT(#26,(#38));
#15=APPROVAL_PERSON_ORGANIZATION(#30,#24,#18);
#16=APPROVAL_PERSON_ORGANIZATION(#31,#25,#19);
#17=APPROVAL_PERSON_ORGANIZATION(#32,#26,#20);
#18=APPROVAL_ROLE('approver');
#19=APPROVAL_ROLE('approver');
#20=APPROVAL_ROLE('approver');
#21=APPROVAL_DATE_TIME(#46,#24);
#22=APPROVAL_DATE_TIME(#47,#25);
#23=APPROVAL_DATE_TIME(#48,#26);
#24=APPROVAL(#27,' ');
#25=APPROVAL(#28,' ');
#26=APPROVAL(#29,' ');
#27=APPROVAL_STATUS('not_yet_approved');
#28=APPROVAL_STATUS('not_yet_approved');
#29=APPROVAL_STATUS('not_yet_approved');
#30=PERSON_AND_ORGANIZATION(#36,#33);
#31=PERSON_AND_ORGANIZATION(#36,#34);
#32=PERSON_AND_ORGANIZATION(#36,#35);
#33=ORGANIZATION(' ',' ',' ');
#34=ORGANIZATION(' ',' ',' ');
#35=ORGANIZATION(' ',' ',' ');
#36=PERSON(' ',' ',' ',(' '),$,$);
#37=APPLIED_SECURITY_CLASSIFICATION_ASSIGNMENT(#38,(#68));
#38=SECURITY_CLASSIFICATION(' ',' ',#39);
#39=SECURITY_CLASSIFICATION_LEVEL('confidential');
#40=APPLIED_DATE_AND_TIME_ASSIGNMENT(#44,#42,(#66));
#41=APPLIED_DATE_AND_TIME_ASSIGNMENT(#45,#43,(#38));
#42=DATE_TIME_ROLE('creation_date');
#43=DATE_TIME_ROLE('classification_date');
#44=DATE_AND_TIME(#59,#49);
#45=DATE_AND_TIME(#60,#50);
#46=DATE_AND_TIME(#61,#51);
#47=DATE_AND_TIME(#62,#52);
#48=DATE_AND_TIME(#63,#53);
#49=LOCAL_TIME(0,0,0.,#54);
#50=LOCAL_TIME(0,0,0.,#55);
#51=LOCAL_TIME(0,0,0.,#56);
#52=LOCAL_TIME(0,0,0.,#57);
#53=LOCAL_TIME(0,0,0.,#58);
#54=COORDINATED_UNIVERSAL_TIME_OFFSET(0,0,.BEHIND.);
#55=COORDINATED_UNIVERSAL_TIME_OFFSET(0,0,.BEHIND.);
#56=COORDINATED_UNIVERSAL_TIME_OFFSET(0,0,.BEHIND.);
#57=COORDINATED_UNIVERSAL_TIME_OFFSET(0,0,.BEHIND.);
#58=COORDINATED_UNIVERSAL_TIME_OFFSET(0,0,.BEHIND.);
#59=CALENDAR_DATE(0,1,1);
#60=CALENDAR_DATE(0,1,1);
#61=CALENDAR_DATE(0,1,1);
#62=CALENDAR_DATE(0,1,1);
#63=CALENDAR_DATE(0,1,1);
#64=SHAPE_DEFINITION_REPRESENTATION(#65,#76);
#65=PRODUCT_DEFINITION_SHAPE('','',#66);
#66=PRODUCT_DEFINITION(' ','',#68,#67);
#67=PRODUCT_DEFINITION_CONTEXT('part definition',#75,'design');
#68=PRODUCT_DEFINITION_FORMATION_WITH_SPECIFIED_SOURCE(' ',' ',#70,
 .NOT_KNOWN.);
#69=PRODUCT_RELATED_PRODUCT_CATEGORY('detail','',(#70));
#70=PRODUCT('AEA-114x134','AEA-114x134',' ',(#73));
#71=PRODUCT_CATEGORY('part',' ');
#72=PRODUCT_CATEGORY(' ','');
#73=PRODUCT_CONTEXT(' ',#75,'mechanical');
#74=APPLICATION_PROTOCOL_DEFINITION('international standard',
'config_control_design',2010,#75);
#75=APPLICATION_CONTEXT(
'configuration controlled 3D designs of mechanical parts and assemblie
s');
#76=SHAPE_REPRESENTATION('AEA-114x134-None',(#242),#372);
#77=PRESENTATION_LAYER_ASSIGNMENT('1','Layer 1',(#86));
#78=STYLED_ITEM('',(#79),#86);
#79=PRESENTATION_STYLE_ASSIGNMENT((#80));
#80=SURFACE_STYLE_USAGE(.BOTH.,#81);
#81=SURFACE_SIDE_STYLE('',(#82));
#82=SURFACE_STYLE_FILL_AREA(#83);
#83=FILL_AREA_STYLE('',(#84));
#84=FILL_AREA_STYLE_COLOUR('',#85);
#85=COLOUR_RGB('medium steel',0.611764705882353,0.658823529411765,0.670588235294118);
#86=MANIFOLD_SOLID_BREP('',#87);
#87=CLOSED_SHELL('',(#98,#99,#100,#101,#102,#103,#104,#105,#106,#107,#108,
#109,#110,#111));
#88=CONICAL_SURFACE('',#265,4.39999999998739,44.9999999999998);
#89=CONICAL_SURFACE('',#266,7.5,45.);
#90=CONICAL_SURFACE('',#267,7.195,45.);
#91=CONICAL_SURFACE('',#268,15.9,45.0000000000002);
#92=CONICAL_SURFACE('',#269,15.6,45.0000000000001);
#93=CONICAL_SURFACE('',#270,4.09999999998739,44.9999999999996);
#94=PLANE('',#248);
#95=PLANE('',#251);
#96=PLANE('',#257);
#97=PLANE('',#264);
#98=ADVANCED_FACE('',(#116,#117),#112,.F.);
#99=ADVANCED_FACE('',(#118,#119),#94,.T.);
#100=ADVANCED_FACE('',(#120,#121),#95,.T.);
#101=ADVANCED_FACE('',(#122,#123),#113,.T.);
#102=ADVANCED_FACE('',(#124,#125),#96,.F.);
#103=ADVANCED_FACE('',(#126,#127),#114,.T.);
#104=ADVANCED_FACE('',(#128,#129),#115,.F.);
#105=ADVANCED_FACE('',(#130,#131),#97,.T.);
#106=ADVANCED_FACE('',(#132,#133),#88,.F.);
#107=ADVANCED_FACE('',(#134,#135),#89,.F.);
#108=ADVANCED_FACE('',(#136,#137),#90,.T.);
#109=ADVANCED_FACE('',(#138,#139),#91,.T.);
#110=ADVANCED_FACE('',(#140,#141),#92,.T.);
#111=ADVANCED_FACE('',(#142,#143),#93,.F.);
#112=CYLINDRICAL_SURFACE('',#245,4.09999999998739);
#113=CYLINDRICAL_SURFACE('',#254,15.9);
#114=CYLINDRICAL_SURFACE('',#259,7.495);
#115=CYLINDRICAL_SURFACE('',#262,7.5);
#116=FACE_BOUND('',#144,.T.);
#117=FACE_BOUND('',#145,.T.);
#118=FACE_BOUND('',#146,.T.);
#119=FACE_BOUND('',#147,.T.);
#120=FACE_BOUND('',#148,.T.);
#121=FACE_BOUND('',#149,.T.);
#122=FACE_BOUND('',#150,.T.);
#123=FACE_BOUND('',#151,.T.);
#124=FACE_BOUND('',#152,.T.);
#125=FACE_BOUND('',#153,.T.);
#126=FACE_BOUND('',#154,.T.);
#127=FACE_BOUND('',#155,.T.);
#128=FACE_BOUND('',#156,.T.);
#129=FACE_BOUND('',#157,.T.);
#130=FACE_BOUND('',#158,.T.);
#131=FACE_BOUND('',#159,.T.);
#132=FACE_BOUND('',#160,.T.);
#133=FACE_BOUND('',#161,.T.);
#134=FACE_BOUND('',#162,.T.);
#135=FACE_BOUND('',#163,.T.);
#136=FACE_BOUND('',#164,.T.);
#137=FACE_BOUND('',#165,.T.);
#138=FACE_BOUND('',#166,.T.);
#139=FACE_BOUND('',#167,.T.);
#140=FACE_BOUND('',#168,.T.);
#141=FACE_BOUND('',#169,.T.);
#142=FACE_BOUND('',#170,.T.);
#143=FACE_BOUND('',#171,.T.);
#144=EDGE_LOOP('',(#172));
#145=EDGE_LOOP('',(#173));
#146=EDGE_LOOP('',(#174));
#147=EDGE_LOOP('',(#175));
#148=EDGE_LOOP('',(#176));
#149=EDGE_LOOP('',(#177));
#150=EDGE_LOOP('',(#178));
#151=EDGE_LOOP('',(#179));
#152=EDGE_LOOP('',(#180));
#153=EDGE_LOOP('',(#181));
#154=EDGE_LOOP('',(#182));
#155=EDGE_LOOP('',(#183));
#156=EDGE_LOOP('',(#184));
#157=EDGE_LOOP('',(#185));
#158=EDGE_LOOP('',(#186));
#159=EDGE_LOOP('',(#187));
#160=EDGE_LOOP('',(#188));
#161=EDGE_LOOP('',(#189));
#162=EDGE_LOOP('',(#190));
#163=EDGE_LOOP('',(#191));
#164=EDGE_LOOP('',(#192));
#165=EDGE_LOOP('',(#193));
#166=EDGE_LOOP('',(#194));
#167=EDGE_LOOP('',(#195));
#168=EDGE_LOOP('',(#196));
#169=EDGE_LOOP('',(#197));
#170=EDGE_LOOP('',(#198));
#171=EDGE_LOOP('',(#199));
#172=ORIENTED_EDGE('',*,*,#214,.T.);
#173=ORIENTED_EDGE('',*,*,#215,.T.);
#174=ORIENTED_EDGE('',*,*,#216,.T.);
#175=ORIENTED_EDGE('',*,*,#217,.T.);
#176=ORIENTED_EDGE('',*,*,#218,.T.);
#177=ORIENTED_EDGE('',*,*,#219,.T.);
#178=ORIENTED_EDGE('',*,*,#220,.T.);
#179=ORIENTED_EDGE('',*,*,#221,.T.);
#180=ORIENTED_EDGE('',*,*,#222,.T.);
#181=ORIENTED_EDGE('',*,*,#223,.T.);
#182=ORIENTED_EDGE('',*,*,#224,.T.);
#183=ORIENTED_EDGE('',*,*,#223,.F.);
#184=ORIENTED_EDGE('',*,*,#225,.T.);
#185=ORIENTED_EDGE('',*,*,#226,.T.);
#186=ORIENTED_EDGE('',*,*,#227,.T.);
#187=ORIENTED_EDGE('',*,*,#226,.F.);
#188=ORIENTED_EDGE('',*,*,#215,.F.);
#189=ORIENTED_EDGE('',*,*,#227,.F.);
#190=ORIENTED_EDGE('',*,*,#218,.F.);
#191=ORIENTED_EDGE('',*,*,#225,.F.);
#192=ORIENTED_EDGE('',*,*,#224,.F.);
#193=ORIENTED_EDGE('',*,*,#217,.F.);
#194=ORIENTED_EDGE('',*,*,#219,.F.);
#195=ORIENTED_EDGE('',*,*,#220,.F.);
#196=ORIENTED_EDGE('',*,*,#221,.F.);
#197=ORIENTED_EDGE('',*,*,#222,.F.);
#198=ORIENTED_EDGE('',*,*,#216,.F.);
#199=ORIENTED_EDGE('',*,*,#214,.F.);
#200=VERTEX_POINT('',#331);
#201=VERTEX_POINT('',#333);
#202=VERTEX_POINT('',#336);
#203=VERTEX_POINT('',#338);
#204=VERTEX_POINT('',#341);
#205=VERTEX_POINT('',#343);
#206=VERTEX_POINT('',#346);
#207=VERTEX_POINT('',#348);
#208=VERTEX_POINT('',#351);
#209=VERTEX_POINT('',#353);
#210=VERTEX_POINT('',#356);
#211=VERTEX_POINT('',#359);
#212=VERTEX_POINT('',#361);
#213=VERTEX_POINT('',#364);
#214=EDGE_CURVE('',#200,#200,#228,.T.);
#215=EDGE_CURVE('',#201,#201,#229,.T.);
#216=EDGE_CURVE('',#202,#202,#230,.T.);
#217=EDGE_CURVE('',#203,#203,#231,.T.);
#218=EDGE_CURVE('',#204,#204,#232,.T.);
#219=EDGE_CURVE('',#205,#205,#233,.T.);
#220=EDGE_CURVE('',#206,#206,#234,.T.);
#221=EDGE_CURVE('',#207,#207,#235,.T.);
#222=EDGE_CURVE('',#208,#208,#236,.T.);
#223=EDGE_CURVE('',#209,#209,#237,.T.);
#224=EDGE_CURVE('',#210,#210,#238,.T.);
#225=EDGE_CURVE('',#211,#211,#239,.T.);
#226=EDGE_CURVE('',#212,#212,#240,.T.);
#227=EDGE_CURVE('',#213,#213,#241,.T.);
#228=CIRCLE('',#243,4.09999999998739);
#229=CIRCLE('',#244,4.09999999998739);
#230=CIRCLE('',#246,4.29999999998739);
#231=CIRCLE('',#247,7.195);
#232=CIRCLE('',#249,7.8);
#233=CIRCLE('',#250,15.6);
#234=CIRCLE('',#252,15.9);
#235=CIRCLE('',#253,15.9);
#236=CIRCLE('',#255,15.6);
#237=CIRCLE('',#256,7.495);
#238=CIRCLE('',#258,7.495);
#239=CIRCLE('',#260,7.5);
#240=CIRCLE('',#261,7.5);
#241=CIRCLE('',#263,4.39999999998739);
#242=AXIS2_PLACEMENT_3D('',#329,#271,#272);
#243=AXIS2_PLACEMENT_3D('',#330,#273,#274);
#244=AXIS2_PLACEMENT_3D('',#332,#275,#276);
#245=AXIS2_PLACEMENT_3D('',#334,#277,#278);
#246=AXIS2_PLACEMENT_3D('',#335,#279,#280);
#247=AXIS2_PLACEMENT_3D('',#337,#281,#282);
#248=AXIS2_PLACEMENT_3D('',#339,#283,#284);
#249=AXIS2_PLACEMENT_3D('',#340,#285,#286);
#250=AXIS2_PLACEMENT_3D('',#342,#287,#288);
#251=AXIS2_PLACEMENT_3D('',#344,#289,#290);
#252=AXIS2_PLACEMENT_3D('',#345,#291,#292);
#253=AXIS2_PLACEMENT_3D('',#347,#293,#294);
#254=AXIS2_PLACEMENT_3D('',#349,#295,#296);
#255=AXIS2_PLACEMENT_3D('',#350,#297,#298);
#256=AXIS2_PLACEMENT_3D('',#352,#299,#300);
#257=AXIS2_PLACEMENT_3D('',#354,#301,#302);
#258=AXIS2_PLACEMENT_3D('',#355,#303,#304);
#259=AXIS2_PLACEMENT_3D('',#357,#305,#306);
#260=AXIS2_PLACEMENT_3D('',#358,#307,#308);
#261=AXIS2_PLACEMENT_3D('',#360,#309,#310);
#262=AXIS2_PLACEMENT_3D('',#362,#311,#312);
#263=AXIS2_PLACEMENT_3D('',#363,#313,#314);
#264=AXIS2_PLACEMENT_3D('',#365,#315,#316);
#265=AXIS2_PLACEMENT_3D('',#366,#317,#318);
#266=AXIS2_PLACEMENT_3D('',#367,#319,#320);
#267=AXIS2_PLACEMENT_3D('',#368,#321,#322);
#268=AXIS2_PLACEMENT_3D('',#369,#323,#324);
#269=AXIS2_PLACEMENT_3D('',#370,#325,#326);
#270=AXIS2_PLACEMENT_3D('',#371,#327,#328);
#271=DIRECTION('',(0.,0.,1.));
#272=DIRECTION('',(1.,0.,0.));
#273=DIRECTION('',(0.,-1.,0.));
#274=DIRECTION('',(0.,0.,-1.));
#275=DIRECTION('',(0.,1.,0.));
#276=DIRECTION('',(0.,0.,1.));
#277=DIRECTION('',(0.,-1.,0.));
#278=DIRECTION('',(0.,0.,-1.));
#279=DIRECTION('',(0.,1.,0.));
#280=DIRECTION('',(0.,0.,-1.));
#281=DIRECTION('',(0.,-1.,0.));
#282=DIRECTION('',(0.,0.,-1.));
#283=DIRECTION('',(0.,-1.,0.));
#284=DIRECTION('',(0.,0.,-1.));
#285=DIRECTION('',(0.,-1.,0.));
#286=DIRECTION('',(0.,0.,1.));
#287=DIRECTION('',(0.,1.,0.));
#288=DIRECTION('',(0.,0.,1.));
#289=DIRECTION('',(0.,1.,0.));
#290=DIRECTION('',(0.,0.,1.));
#291=DIRECTION('',(0.,-1.,0.));
#292=DIRECTION('',(0.,0.,1.));
#293=DIRECTION('',(0.,1.,0.));
#294=DIRECTION('',(0.,0.,1.));
#295=DIRECTION('',(0.,1.,0.));
#296=DIRECTION('',(1.,0.,0.));
#297=DIRECTION('',(0.,-1.,0.));
#298=DIRECTION('',(0.,0.,1.));
#299=DIRECTION('',(0.,1.,0.));
#300=DIRECTION('',(1.,0.,-6.12323399573677E-17));
#301=DIRECTION('',(0.,1.,0.));
#302=DIRECTION('',(0.,0.,1.));
#303=DIRECTION('',(0.,1.,0.));
#304=DIRECTION('',(0.,0.,-1.));
#305=DIRECTION('',(0.,1.,0.));
#306=DIRECTION('',(0.,0.,1.));
#307=DIRECTION('',(0.,1.,0.));
#308=DIRECTION('',(0.,0.,1.));
#309=DIRECTION('',(0.,-1.,0.));
#310=DIRECTION('',(-1.,0.,-1.83697019872103E-16));
#311=DIRECTION('',(0.,1.,0.));
#312=DIRECTION('',(0.,0.,1.));
#313=DIRECTION('',(0.,-1.,0.));
#314=DIRECTION('',(0.,0.,1.));
#315=DIRECTION('',(0.,1.,0.));
#316=DIRECTION('',(0.,0.,1.));
#317=DIRECTION('',(0.,1.,0.));
#318=DIRECTION('',(0.,-6.2176468673005E-17,1.));
#319=DIRECTION('',(0.,1.,0.));
#320=DIRECTION('',(0.,-5.50979168548465E-17,1.));
#321=DIRECTION('',(0.,1.,0.));
#322=DIRECTION('',(0.,0.,1.));
#323=DIRECTION('',(0.,-1.,0.));
#324=DIRECTION('',(0.,-5.46423380561645E-17,-1.));
#325=DIRECTION('',(0.,1.,0.));
#326=DIRECTION('',(0.,1.45186584736144E-17,1.));
#327=DIRECTION('',(0.,-1.,0.));
#328=DIRECTION('',(0.,-2.76422424217006E-17,-1.));
#329=CARTESIAN_POINT('',(0.,0.,0.));
#330=CARTESIAN_POINT('',(0.,0.200000000000006,0.));
#331=CARTESIAN_POINT('',(0.,0.200000000000006,-4.09999999998739));
#332=CARTESIAN_POINT('',(0.,8.3,0.));
#333=CARTESIAN_POINT('',(0.,8.3,4.09999999998739));
#334=CARTESIAN_POINT('',(0.,32.,0.));
#335=CARTESIAN_POINT('',(0.,0.,0.));
#336=CARTESIAN_POINT('',(0.,0.,-4.29999999998739));
#337=CARTESIAN_POINT('',(0.,0.,0.));
#338=CARTESIAN_POINT('',(0.,0.,-7.195));
#339=CARTESIAN_POINT('',(0.,0.,0.));
#340=CARTESIAN_POINT('',(0.,12.9,0.));
#341=CARTESIAN_POINT('',(0.,12.9,7.8));
#342=CARTESIAN_POINT('',(0.,12.9,0.));
#343=CARTESIAN_POINT('',(0.,12.9,15.6));
#344=CARTESIAN_POINT('',(0.,12.9,0.));
#345=CARTESIAN_POINT('',(0.,12.6,0.));
#346=CARTESIAN_POINT('',(0.,12.6,15.9));
#347=CARTESIAN_POINT('',(0.,4.2,0.));
#348=CARTESIAN_POINT('',(0.,4.2,15.9));
#349=CARTESIAN_POINT('',(0.,0.,0.));
#350=CARTESIAN_POINT('',(0.,3.9,0.));
#351=CARTESIAN_POINT('',(0.,3.9,15.6));
#352=CARTESIAN_POINT('',(0.,3.9,0.));
#353=CARTESIAN_POINT('',(7.495,3.9,-4.58936387980471E-16));
#354=CARTESIAN_POINT('',(0.,3.9,0.));
#355=CARTESIAN_POINT('',(0.,0.3,0.));
#356=CARTESIAN_POINT('',(0.,0.3,-7.495));
#357=CARTESIAN_POINT('',(0.,0.,0.));
#358=CARTESIAN_POINT('',(0.,12.6,0.));
#359=CARTESIAN_POINT('',(0.,12.6,7.5));
#360=CARTESIAN_POINT('',(0.,8.6,0.));
#361=CARTESIAN_POINT('',(-7.5,8.6,-1.37772764904077E-15));
#362=CARTESIAN_POINT('',(0.,8.6,0.));
#363=CARTESIAN_POINT('',(0.,8.6,0.));
#364=CARTESIAN_POINT('',(0.,8.6,4.39999999998739));
#365=CARTESIAN_POINT('',(0.,8.6,0.));
#366=CARTESIAN_POINT('',(0.,8.6,0.));
#367=CARTESIAN_POINT('',(0.,12.6,0.));
#368=CARTESIAN_POINT('',(0.,0.,0.));
#369=CARTESIAN_POINT('',(0.,12.6,0.));
#370=CARTESIAN_POINT('',(0.,3.9,0.));
#371=CARTESIAN_POINT('',(0.,0.200000000000006,0.));
#372=(
GEOMETRIC_REPRESENTATION_CONTEXT(3)
GLOBAL_UNCERTAINTY_ASSIGNED_CONTEXT((#373))
GLOBAL_UNIT_ASSIGNED_CONTEXT((#379,#375,#374))
REPRESENTATION_CONTEXT('AEA-114x134','TOP_LEVEL_ASSEMBLY_PART')
);
#373=UNCERTAINTY_MEASURE_WITH_UNIT(LENGTH_MEASURE(2.E-5),#379,
'DISTANCE_ACCURACY_VALUE','Maximum Tolerance applied to model');
#374=(
NAMED_UNIT(*)
SI_UNIT($,.STERADIAN.)
SOLID_ANGLE_UNIT()
);
#375=(
CONVERSION_BASED_UNIT('DEGREE',#377)
NAMED_UNIT(#376)
PLANE_ANGLE_UNIT()
);
#376=DIMENSIONAL_EXPONENTS(0.,0.,0.,0.,0.,0.,0.);
#377=PLANE_ANGLE_MEASURE_WITH_UNIT(PLANE_ANGLE_MEASURE(0.0174532925),#378);
#378=(
NAMED_UNIT(*)
PLANE_ANGLE_UNIT()
SI_UNIT($,.RADIAN.)
);
#379=(
LENGTH_UNIT()
NAMED_UNIT(*)
SI_UNIT(.MILLI.,.METRE.)
);
ENDSEC;
END-ISO-10303-21;
