ISO-10303-21;
HEADER;
/* Generated by software containing ST-Developer
 * from STEP Tools, Inc. (www.steptools.com) 
 */
/* OPTION: using custom schema-name function */

FILE_DESCRIPTION(
/* description */ (''),
/* implementation_level */ '2;1');

FILE_NAME(
/* name */ 'AEKR-D2.25X12 XC.. 060204.stp',
/* time_stamp */ '2023-10-31T02:36:23+03:00',
/* author */ (''),
/* organization */ (''),
/* preprocessor_version */ 'ST-DEVELOPER v19.4',
/* originating_system */ 'SIEMENS PLM Software NX2306.3001',
/* authorisation */ '');

FILE_SCHEMA (('AUTOMOTIVE_DESIGN { 1 0 10303 214 3 1 1 1 }'));
ENDSEC;

DATA;
#10=SHAPE_REPRESENTATION_RELATIONSHIP('None',
'relationship between AEKR-D2.25X12 XC.. 060204-None and AEKR-D2.25X12
 XC.. 060204-None',#22,#11);
#11=ADVANCED_BREP_SHAPE_REPRESENTATION('AEKR-D2.25X12 XC.. 060204-None',
(#48,#49),#391);
#12=SHAPE_DEFINITION_REPRESENTATION(#13,#22);
#13=PRODUCT_DEFINITION_SHAPE('','',#14);
#14=PRODUCT_DEFINITION(' ','',#16,#15);
#15=PRODUCT_DEFINITION_CONTEXT('part definition',#21,'design');
#16=PRODUCT_DEFINITION_FORMATION_WITH_SPECIFIED_SOURCE(' ',' ',#18,
 .NOT_KNOWN.);
#17=PRODUCT_RELATED_PRODUCT_CATEGORY('part','',(#18));
#18=PRODUCT('AEKR-D2.25X12 XC.. 060204','AEKR-D2.25X12 XC.. 060204',' ',
(#19));
#19=PRODUCT_CONTEXT(' ',#21,'mechanical');
#20=APPLICATION_PROTOCOL_DEFINITION('international standard',
'automotive_design',2010,#21);
#21=APPLICATION_CONTEXT(
'core data for automotive mechanical design processes');
#22=SHAPE_REPRESENTATION('AEKR-D2.25X12 XC.. 060204-None',(#231),#391);
#23=DRAUGHTING_PRE_DEFINED_COLOUR('yellow');
#24=LINE('',#387,#25);
#25=VECTOR('',#332,5.70427844059654);
#26=SURFACE_OF_REVOLUTION('',#228,#29);
#27=SURFACE_OF_REVOLUTION('',#24,#30);
#28=SURFACE_OF_REVOLUTION('',#230,#31);
#29=AXIS1_PLACEMENT('',#384,#329);
#30=AXIS1_PLACEMENT('',#388,#333);
#31=AXIS1_PLACEMENT('',#390,#336);
#32=PRESENTATION_LAYER_ASSIGNMENT('1','Layer 1',(#48,#49));
#33=STYLED_ITEM('',(#35),#48);
#34=STYLED_ITEM('',(#36),#49);
#35=PRESENTATION_STYLE_ASSIGNMENT((#37));
#36=PRESENTATION_STYLE_ASSIGNMENT((#38));
#37=SURFACE_STYLE_USAGE(.BOTH.,#39);
#38=SURFACE_STYLE_USAGE(.BOTH.,#40);
#39=SURFACE_SIDE_STYLE('',(#41));
#40=SURFACE_SIDE_STYLE('',(#42));
#41=SURFACE_STYLE_FILL_AREA(#43);
#42=SURFACE_STYLE_FILL_AREA(#44);
#43=FILL_AREA_STYLE('',(#45));
#44=FILL_AREA_STYLE('',(#46));
#45=FILL_AREA_STYLE_COLOUR('',#47);
#46=FILL_AREA_STYLE_COLOUR('',#23);
#47=COLOUR_RGB('light gray',0.8,0.8,0.8);
#48=MANIFOLD_SOLID_BREP('',#50);
#49=MANIFOLD_SOLID_BREP('',#51);
#50=CLOSED_SHELL('',(#90,#91,#92,#93,#94,#95,#96,#97,#98,#99,#100,#101,
#102));
#51=CLOSED_SHELL('',(#103,#104,#105,#106,#107));
#52=CYLINDRICAL_SURFACE('',#239,5.5);
#53=CYLINDRICAL_SURFACE('',#247,10.);
#54=CYLINDRICAL_SURFACE('',#256,8.);
#55=CONICAL_SURFACE('',#237,5.5,2.99999999999961);
#56=CONICAL_SURFACE('',#243,9.6,60.);
#57=TOROIDAL_SURFACE('',#235,4.92912577893097,0.4);
#58=TOROIDAL_SURFACE('',#241,8.5,3.);
#59=TOROIDAL_SURFACE('',#245,9.2,0.8);
#60=TOROIDAL_SURFACE('',#249,9.5,0.5);
#61=TOROIDAL_SURFACE('',#255,7.,1.);
#62=FACE_BOUND('',#118,.T.);
#63=FACE_BOUND('',#119,.T.);
#64=FACE_BOUND('',#120,.T.);
#65=FACE_BOUND('',#121,.T.);
#66=FACE_BOUND('',#122,.T.);
#67=FACE_BOUND('',#123,.T.);
#68=FACE_BOUND('',#124,.T.);
#69=FACE_BOUND('',#125,.T.);
#70=FACE_BOUND('',#126,.T.);
#71=FACE_BOUND('',#127,.T.);
#72=FACE_BOUND('',#128,.T.);
#73=FACE_BOUND('',#129,.T.);
#74=FACE_BOUND('',#130,.T.);
#75=FACE_BOUND('',#131,.T.);
#76=FACE_BOUND('',#132,.T.);
#77=FACE_BOUND('',#133,.T.);
#78=FACE_BOUND('',#134,.T.);
#79=FACE_BOUND('',#135,.T.);
#80=FACE_BOUND('',#137,.T.);
#81=FACE_BOUND('',#138,.T.);
#82=FACE_BOUND('',#139,.T.);
#83=FACE_BOUND('',#140,.T.);
#84=FACE_BOUND('',#143,.T.);
#85=FACE_BOUND('',#144,.T.);
#86=FACE_BOUND('',#145,.T.);
#87=FACE_BOUND('',#146,.T.);
#88=FACE_BOUND('',#147,.T.);
#89=FACE_BOUND('',#148,.T.);
#90=ADVANCED_FACE('',(#113),#108,.F.);
#91=ADVANCED_FACE('',(#62,#63),#57,.T.);
#92=ADVANCED_FACE('',(#64,#65),#55,.T.);
#93=ADVANCED_FACE('',(#66,#67),#52,.T.);
#94=ADVANCED_FACE('',(#68,#69),#58,.F.);
#95=ADVANCED_FACE('',(#70,#71),#56,.T.);
#96=ADVANCED_FACE('',(#72,#73),#59,.T.);
#97=ADVANCED_FACE('',(#74,#75),#53,.T.);
#98=ADVANCED_FACE('',(#76,#77),#60,.T.);
#99=ADVANCED_FACE('',(#78,#79),#109,.F.);
#100=ADVANCED_FACE('',(#114),#110,.F.);
#101=ADVANCED_FACE('',(#80,#81),#61,.T.);
#102=ADVANCED_FACE('',(#82,#83),#54,.T.);
#103=ADVANCED_FACE('',(#115),#111,.T.);
#104=ADVANCED_FACE('',(#116),#112,.F.);
#105=ADVANCED_FACE('',(#84,#85),#26,.T.);
#106=ADVANCED_FACE('',(#86,#87),#27,.T.);
#107=ADVANCED_FACE('',(#88,#89),#28,.T.);
#108=PLANE('',#233);
#109=PLANE('',#251);
#110=PLANE('',#253);
#111=PLANE('',#258);
#112=PLANE('',#260);
#113=FACE_OUTER_BOUND('',#117,.T.);
#114=FACE_OUTER_BOUND('',#136,.T.);
#115=FACE_OUTER_BOUND('',#141,.T.);
#116=FACE_OUTER_BOUND('',#142,.T.);
#117=EDGE_LOOP('',(#149));
#118=EDGE_LOOP('',(#150));
#119=EDGE_LOOP('',(#151));
#120=EDGE_LOOP('',(#152));
#121=EDGE_LOOP('',(#153));
#122=EDGE_LOOP('',(#154));
#123=EDGE_LOOP('',(#155));
#124=EDGE_LOOP('',(#156));
#125=EDGE_LOOP('',(#157));
#126=EDGE_LOOP('',(#158));
#127=EDGE_LOOP('',(#159));
#128=EDGE_LOOP('',(#160));
#129=EDGE_LOOP('',(#161));
#130=EDGE_LOOP('',(#162));
#131=EDGE_LOOP('',(#163));
#132=EDGE_LOOP('',(#164));
#133=EDGE_LOOP('',(#165));
#134=EDGE_LOOP('',(#166));
#135=EDGE_LOOP('',(#167));
#136=EDGE_LOOP('',(#168));
#137=EDGE_LOOP('',(#169));
#138=EDGE_LOOP('',(#170));
#139=EDGE_LOOP('',(#171));
#140=EDGE_LOOP('',(#172));
#141=EDGE_LOOP('',(#173));
#142=EDGE_LOOP('',(#174));
#143=EDGE_LOOP('',(#175));
#144=EDGE_LOOP('',(#176));
#145=EDGE_LOOP('',(#177));
#146=EDGE_LOOP('',(#178));
#147=EDGE_LOOP('',(#179));
#148=EDGE_LOOP('',(#180));
#149=ORIENTED_EDGE('',*,*,#197,.T.);
#150=ORIENTED_EDGE('',*,*,#197,.F.);
#151=ORIENTED_EDGE('',*,*,#198,.T.);
#152=ORIENTED_EDGE('',*,*,#198,.F.);
#153=ORIENTED_EDGE('',*,*,#199,.T.);
#154=ORIENTED_EDGE('',*,*,#199,.F.);
#155=ORIENTED_EDGE('',*,*,#200,.T.);
#156=ORIENTED_EDGE('',*,*,#200,.F.);
#157=ORIENTED_EDGE('',*,*,#201,.T.);
#158=ORIENTED_EDGE('',*,*,#201,.F.);
#159=ORIENTED_EDGE('',*,*,#202,.T.);
#160=ORIENTED_EDGE('',*,*,#202,.F.);
#161=ORIENTED_EDGE('',*,*,#203,.T.);
#162=ORIENTED_EDGE('',*,*,#203,.F.);
#163=ORIENTED_EDGE('',*,*,#204,.T.);
#164=ORIENTED_EDGE('',*,*,#204,.F.);
#165=ORIENTED_EDGE('',*,*,#205,.T.);
#166=ORIENTED_EDGE('',*,*,#206,.F.);
#167=ORIENTED_EDGE('',*,*,#205,.F.);
#168=ORIENTED_EDGE('',*,*,#207,.F.);
#169=ORIENTED_EDGE('',*,*,#208,.F.);
#170=ORIENTED_EDGE('',*,*,#207,.T.);
#171=ORIENTED_EDGE('',*,*,#208,.T.);
#172=ORIENTED_EDGE('',*,*,#206,.T.);
#173=ORIENTED_EDGE('',*,*,#209,.T.);
#174=ORIENTED_EDGE('',*,*,#210,.F.);
#175=ORIENTED_EDGE('',*,*,#211,.F.);
#176=ORIENTED_EDGE('',*,*,#210,.T.);
#177=ORIENTED_EDGE('',*,*,#212,.F.);
#178=ORIENTED_EDGE('',*,*,#211,.T.);
#179=ORIENTED_EDGE('',*,*,#209,.F.);
#180=ORIENTED_EDGE('',*,*,#212,.T.);
#181=VERTEX_POINT('',#339);
#182=VERTEX_POINT('',#342);
#183=VERTEX_POINT('',#345);
#184=VERTEX_POINT('',#348);
#185=VERTEX_POINT('',#351);
#186=VERTEX_POINT('',#354);
#187=VERTEX_POINT('',#357);
#188=VERTEX_POINT('',#360);
#189=VERTEX_POINT('',#363);
#190=VERTEX_POINT('',#366);
#191=VERTEX_POINT('',#369);
#192=VERTEX_POINT('',#372);
#193=VERTEX_POINT('',#376);
#194=VERTEX_POINT('',#379);
#195=VERTEX_POINT('',#382);
#196=VERTEX_POINT('',#386);
#197=EDGE_CURVE('',#181,#181,#213,.T.);
#198=EDGE_CURVE('',#182,#182,#214,.T.);
#199=EDGE_CURVE('',#183,#183,#215,.T.);
#200=EDGE_CURVE('',#184,#184,#216,.T.);
#201=EDGE_CURVE('',#185,#185,#217,.T.);
#202=EDGE_CURVE('',#186,#186,#218,.T.);
#203=EDGE_CURVE('',#187,#187,#219,.T.);
#204=EDGE_CURVE('',#188,#188,#220,.T.);
#205=EDGE_CURVE('',#189,#189,#221,.T.);
#206=EDGE_CURVE('',#190,#190,#222,.T.);
#207=EDGE_CURVE('',#191,#191,#223,.T.);
#208=EDGE_CURVE('',#192,#192,#224,.T.);
#209=EDGE_CURVE('',#193,#193,#225,.T.);
#210=EDGE_CURVE('',#194,#194,#226,.T.);
#211=EDGE_CURVE('',#195,#195,#227,.T.);
#212=EDGE_CURVE('',#196,#196,#229,.T.);
#213=CIRCLE('',#232,4.92912577893097);
#214=CIRCLE('',#234,5.3285775928328);
#215=CIRCLE('',#236,5.5);
#216=CIRCLE('',#238,5.5);
#217=CIRCLE('',#240,7.);
#218=CIRCLE('',#242,9.6);
#219=CIRCLE('',#244,10.);
#220=CIRCLE('',#246,10.);
#221=CIRCLE('',#248,9.5);
#222=CIRCLE('',#250,8.);
#223=CIRCLE('',#252,7.);
#224=CIRCLE('',#254,8.);
#225=CIRCLE('',#257,5.6113339441785);
#226=CIRCLE('',#259,5.30422455215555);
#227=CIRCLE('',#261,5.60968594606533);
#228=CIRCLE('',#262,0.304228042495734);
#229=CIRCLE('',#263,5.99970149232427);
#230=CIRCLE('',#264,0.4);
#231=AXIS2_PLACEMENT_3D('',#337,#265,#266);
#232=AXIS2_PLACEMENT_3D('',#338,#267,#268);
#233=AXIS2_PLACEMENT_3D('',#340,#269,#270);
#234=AXIS2_PLACEMENT_3D('',#341,#271,#272);
#235=AXIS2_PLACEMENT_3D('',#343,#273,#274);
#236=AXIS2_PLACEMENT_3D('',#344,#275,#276);
#237=AXIS2_PLACEMENT_3D('',#346,#277,#278);
#238=AXIS2_PLACEMENT_3D('',#347,#279,#280);
#239=AXIS2_PLACEMENT_3D('',#349,#281,#282);
#240=AXIS2_PLACEMENT_3D('',#350,#283,#284);
#241=AXIS2_PLACEMENT_3D('',#352,#285,#286);
#242=AXIS2_PLACEMENT_3D('',#353,#287,#288);
#243=AXIS2_PLACEMENT_3D('',#355,#289,#290);
#244=AXIS2_PLACEMENT_3D('',#356,#291,#292);
#245=AXIS2_PLACEMENT_3D('',#358,#293,#294);
#246=AXIS2_PLACEMENT_3D('',#359,#295,#296);
#247=AXIS2_PLACEMENT_3D('',#361,#297,#298);
#248=AXIS2_PLACEMENT_3D('',#362,#299,#300);
#249=AXIS2_PLACEMENT_3D('',#364,#301,#302);
#250=AXIS2_PLACEMENT_3D('',#365,#303,#304);
#251=AXIS2_PLACEMENT_3D('',#367,#305,#306);
#252=AXIS2_PLACEMENT_3D('',#368,#307,#308);
#253=AXIS2_PLACEMENT_3D('',#370,#309,#310);
#254=AXIS2_PLACEMENT_3D('',#371,#311,#312);
#255=AXIS2_PLACEMENT_3D('',#373,#313,#314);
#256=AXIS2_PLACEMENT_3D('',#374,#315,#316);
#257=AXIS2_PLACEMENT_3D('',#375,#317,#318);
#258=AXIS2_PLACEMENT_3D('',#377,#319,#320);
#259=AXIS2_PLACEMENT_3D('',#378,#321,#322);
#260=AXIS2_PLACEMENT_3D('',#380,#323,#324);
#261=AXIS2_PLACEMENT_3D('',#381,#325,#326);
#262=AXIS2_PLACEMENT_3D('',#383,#327,#328);
#263=AXIS2_PLACEMENT_3D('',#385,#330,#331);
#264=AXIS2_PLACEMENT_3D('',#389,#334,#335);
#265=DIRECTION('',(0.,0.,1.));
#266=DIRECTION('',(1.,0.,0.));
#267=DIRECTION('',(-1.,0.,0.));
#268=DIRECTION('',(0.,0.,1.));
#269=DIRECTION('',(1.,0.,0.));
#270=DIRECTION('',(0.,0.,-1.));
#271=DIRECTION('',(-1.,0.,0.));
#272=DIRECTION('',(0.,0.,1.));
#273=DIRECTION('',(-1.,0.,0.));
#274=DIRECTION('',(0.,0.,1.));
#275=DIRECTION('',(-1.,0.,0.));
#276=DIRECTION('',(0.,0.,1.));
#277=DIRECTION('',(1.,0.,0.));
#278=DIRECTION('',(5.99133138053195E-17,0.,-1.));
#279=DIRECTION('',(-1.,0.,0.));
#280=DIRECTION('',(0.,0.,1.));
#281=DIRECTION('',(-1.,0.,0.));
#282=DIRECTION('',(0.,0.,1.));
#283=DIRECTION('',(-1.,0.,0.));
#284=DIRECTION('',(0.,0.,1.));
#285=DIRECTION('',(-1.,0.,0.));
#286=DIRECTION('',(0.,0.,1.));
#287=DIRECTION('',(-1.,0.,0.));
#288=DIRECTION('',(0.,0.,1.));
#289=DIRECTION('',(1.,0.,0.));
#290=DIRECTION('',(-5.97613529108602E-17,0.,-1.));
#291=DIRECTION('',(-1.,0.,0.));
#292=DIRECTION('',(0.,0.,1.));
#293=DIRECTION('',(-1.,0.,0.));
#294=DIRECTION('',(0.,0.,1.));
#295=DIRECTION('',(-1.,0.,0.));
#296=DIRECTION('',(0.,0.,1.));
#297=DIRECTION('',(-1.,0.,0.));
#298=DIRECTION('',(0.,0.,1.));
#299=DIRECTION('',(-1.,0.,0.));
#300=DIRECTION('',(0.,0.,1.));
#301=DIRECTION('',(-1.,0.,0.));
#302=DIRECTION('',(0.,0.,1.));
#303=DIRECTION('',(1.,0.,0.));
#304=DIRECTION('',(0.,0.,1.));
#305=DIRECTION('',(-1.,0.,0.));
#306=DIRECTION('',(0.,0.,1.));
#307=DIRECTION('',(-1.,0.,0.));
#308=DIRECTION('',(0.,0.,1.));
#309=DIRECTION('',(-1.,0.,0.));
#310=DIRECTION('',(0.,0.,1.));
#311=DIRECTION('',(-1.,0.,0.));
#312=DIRECTION('',(0.,0.,1.));
#313=DIRECTION('',(-1.,0.,0.));
#314=DIRECTION('',(0.,0.,1.));
#315=DIRECTION('',(-1.,0.,0.));
#316=DIRECTION('',(0.,0.,1.));
#317=DIRECTION('',(-1.,0.,0.));
#318=DIRECTION('',(0.,0.,1.));
#319=DIRECTION('',(-1.,0.,0.));
#320=DIRECTION('',(0.,0.,1.));
#321=DIRECTION('',(-1.,0.,0.));
#322=DIRECTION('',(0.,0.,1.));
#323=DIRECTION('',(-1.,0.,0.));
#324=DIRECTION('',(0.,0.,1.));
#325=DIRECTION('',(-1.,0.,0.));
#326=DIRECTION('',(0.,0.,1.));
#327=DIRECTION('',(-4.33680868994202E-19,0.125333233564305,-0.992114701314478));
#328=DIRECTION('',(1.22464679914735E-16,-0.992114701314478,-0.125333233564305));
#329=DIRECTION('',(-1.,0.,0.));
#330=DIRECTION('',(-1.,0.,0.));
#331=DIRECTION('',(0.,0.,1.));
#332=DIRECTION('',(-0.997610080107542,-0.0685502302089102,-0.00865990797462928));
#333=DIRECTION('',(-1.,0.,0.));
#334=DIRECTION('',(-1.38777878078145E-16,0.125333233564305,-0.992114701314478));
#335=DIRECTION('',(-0.999847695156391,-0.0173147889997444,-0.00218736653226308));
#336=DIRECTION('',(-1.,0.,0.));
#337=CARTESIAN_POINT('',(0.,0.,0.));
#338=CARTESIAN_POINT('',(0.35,0.,0.));
#339=CARTESIAN_POINT('',(0.35,0.,4.92912577893097));
#340=CARTESIAN_POINT('',(0.35,0.,0.));
#341=CARTESIAN_POINT('',(0.729065617502825,0.,0.));
#342=CARTESIAN_POINT('',(0.729065617502825,0.,5.3285775928328));
#343=CARTESIAN_POINT('',(0.75,0.,0.));
#344=CARTESIAN_POINT('',(4.,0.,0.));
#345=CARTESIAN_POINT('',(4.,0.,5.5));
#346=CARTESIAN_POINT('',(4.,0.,0.));
#347=CARTESIAN_POINT('',(27.,0.,0.));
#348=CARTESIAN_POINT('',(27.,0.,5.5));
#349=CARTESIAN_POINT('',(0.,0.,0.));
#350=CARTESIAN_POINT('',(29.5980762113533,0.,0.));
#351=CARTESIAN_POINT('',(29.5980762113533,0.,7.));
#352=CARTESIAN_POINT('',(27.,0.,0.));
#353=CARTESIAN_POINT('',(31.0991869112463,0.,0.));
#354=CARTESIAN_POINT('',(31.0991869112463,0.,9.6));
#355=CARTESIAN_POINT('',(31.0991869112463,0.,0.));
#356=CARTESIAN_POINT('',(31.7920072342739,0.,0.));
#357=CARTESIAN_POINT('',(31.7920072342739,0.,10.));
#358=CARTESIAN_POINT('',(31.7920072342739,0.,0.));
#359=CARTESIAN_POINT('',(32.5,0.,0.));
#360=CARTESIAN_POINT('',(32.5,0.,10.));
#361=CARTESIAN_POINT('',(0.,0.,0.));
#362=CARTESIAN_POINT('',(33.,0.,0.));
#363=CARTESIAN_POINT('',(33.,0.,9.5));
#364=CARTESIAN_POINT('',(32.5,0.,0.));
#365=CARTESIAN_POINT('',(33.,0.,0.));
#366=CARTESIAN_POINT('',(33.,0.,8.));
#367=CARTESIAN_POINT('',(33.,9.5,0.));
#368=CARTESIAN_POINT('',(78.,0.,0.));
#369=CARTESIAN_POINT('',(78.,0.,7.));
#370=CARTESIAN_POINT('',(78.,7.,0.));
#371=CARTESIAN_POINT('',(77.,0.,0.));
#372=CARTESIAN_POINT('',(77.,0.,8.));
#373=CARTESIAN_POINT('',(77.,0.,0.));
#374=CARTESIAN_POINT('',(0.,0.,0.));
#375=CARTESIAN_POINT('',(6.09174250913768E-5,0.,0.));
#376=CARTESIAN_POINT('',(6.09174250913768E-5,0.,5.6113339441785));
#377=CARTESIAN_POINT('',(6.09174250913768E-5,0.,0.));
#378=CARTESIAN_POINT('',(6.39983969163542,0.,0.));
#379=CARTESIAN_POINT('',(6.39983969163542,0.,5.30422455215555));
#380=CARTESIAN_POINT('',(6.39983969163542,0.,0.));
#381=CARTESIAN_POINT('',(6.11158005006406,0.,0.));
#382=CARTESIAN_POINT('',(6.11158005006406,0.,5.60968594606533));
#383=CARTESIAN_POINT('',(6.09565798454413,-5.30664559498218,0.173087021988672));
#384=CARTESIAN_POINT('',(0.,0.,0.));
#385=CARTESIAN_POINT('',(0.420934377984821,0.,0.));
#386=CARTESIAN_POINT('',(0.420934377984821,0.,5.99970149232427));
#387=CARTESIAN_POINT('',(6.11158005006406,-5.6080610621842,0.135009393362997));
#388=CARTESIAN_POINT('',(0.,0.,0.));
#389=CARTESIAN_POINT('',(0.399999995487648,-5.60278864542408,0.135675454495212));
#390=CARTESIAN_POINT('',(0.,0.,0.));
#391=(
GEOMETRIC_REPRESENTATION_CONTEXT(3)
GLOBAL_UNCERTAINTY_ASSIGNED_CONTEXT((#392))
GLOBAL_UNIT_ASSIGNED_CONTEXT((#398,#394,#393))
REPRESENTATION_CONTEXT('AEKR-D2.25X12 XC.','TOP_LEVEL_ASSEMBLY_PART')
);
#392=UNCERTAINTY_MEASURE_WITH_UNIT(LENGTH_MEASURE(2.E-5),#398,
'DISTANCE_ACCURACY_VALUE','Maximum Tolerance applied to model');
#393=(
NAMED_UNIT(*)
SI_UNIT($,.STERADIAN.)
SOLID_ANGLE_UNIT()
);
#394=(
CONVERSION_BASED_UNIT('DEGREE',#396)
NAMED_UNIT(#395)
PLANE_ANGLE_UNIT()
);
#395=DIMENSIONAL_EXPONENTS(0.,0.,0.,0.,0.,0.,0.);
#396=PLANE_ANGLE_MEASURE_WITH_UNIT(PLANE_ANGLE_MEASURE(0.0174532925),#397);
#397=(
NAMED_UNIT(*)
PLANE_ANGLE_UNIT()
SI_UNIT($,.RADIAN.)
);
#398=(
LENGTH_UNIT()
NAMED_UNIT(*)
SI_UNIT(.MILLI.,.METRE.)
);
ENDSEC;
END-ISO-10303-21;
