ISO-10303-21;
HEADER;
/* Generated by software containing ST-Developer
 * from STEP Tools, Inc. (www.steptools.com) 
 */
/* OPTION: using custom schema-name function */

FILE_DESCRIPTION(
/* description */ (''),
/* implementation_level */ '2;1');

FILE_NAME(
/* name */ 'AEKR-D2.25X16 XC.. 080304.stp',
/* time_stamp */ '2023-10-31T02:25:58+03:00',
/* author */ (''),
/* organization */ (''),
/* preprocessor_version */ 'ST-DEVELOPER v19.4',
/* originating_system */ 'SIEMENS PLM Software NX2306.3001',
/* authorisation */ '');

FILE_SCHEMA (('AUTOMOTIVE_DESIGN { 1 0 10303 214 3 1 1 1 }'));
ENDSEC;

DATA;
#10=SHAPE_REPRESENTATION_RELATIONSHIP('None',
'relationship between AEKR-D2.25X16 XC.. 080304_XT-None and AEKR-D2.25
X16 XC.. 080304_XT-None',#22,#11);
#11=ADVANCED_BREP_SHAPE_REPRESENTATION(
'AEKR-D2.25X16 XC.. 080304_XT-None',(#46,#47),#347);
#12=SHAPE_DEFINITION_REPRESENTATION(#13,#22);
#13=PRODUCT_DEFINITION_SHAPE('','',#14);
#14=PRODUCT_DEFINITION(' ','',#16,#15);
#15=PRODUCT_DEFINITION_CONTEXT('part definition',#21,'design');
#16=PRODUCT_DEFINITION_FORMATION_WITH_SPECIFIED_SOURCE(' ',' ',#18,
 .NOT_KNOWN.);
#17=PRODUCT_RELATED_PRODUCT_CATEGORY('part','',(#18));
#18=PRODUCT('AEKR-D2.25X16 XC.. 080304_XT',
'AEKR-D2.25X16 XC.. 080304_XT',' ',(#19));
#19=PRODUCT_CONTEXT(' ',#21,'mechanical');
#20=APPLICATION_PROTOCOL_DEFINITION('international standard',
'automotive_design',2010,#21);
#21=APPLICATION_CONTEXT(
'core data for automotive mechanical design processes');
#22=SHAPE_REPRESENTATION('AEKR-D2.25X16 XC.. 080304_XT-None',(#207),#347);
#23=DRAUGHTING_PRE_DEFINED_COLOUR('yellow');
#24=SURFACE_OF_REVOLUTION('',#28,#26);
#25=SURFACE_OF_REVOLUTION('',#206,#27);
#26=AXIS1_PLACEMENT('',#341,#292);
#27=AXIS1_PLACEMENT('',#346,#299);
#28=LINE('',#340,#29);
#29=VECTOR('',#291,8.0043066425862);
#30=PRESENTATION_LAYER_ASSIGNMENT('1','Layer 1',(#46,#47));
#31=STYLED_ITEM('',(#33),#46);
#32=STYLED_ITEM('',(#34),#47);
#33=PRESENTATION_STYLE_ASSIGNMENT((#35));
#34=PRESENTATION_STYLE_ASSIGNMENT((#36));
#35=SURFACE_STYLE_USAGE(.BOTH.,#37);
#36=SURFACE_STYLE_USAGE(.BOTH.,#38);
#37=SURFACE_SIDE_STYLE('',(#39));
#38=SURFACE_SIDE_STYLE('',(#40));
#39=SURFACE_STYLE_FILL_AREA(#41);
#40=SURFACE_STYLE_FILL_AREA(#42);
#41=FILL_AREA_STYLE('',(#43));
#42=FILL_AREA_STYLE('',(#44));
#43=FILL_AREA_STYLE_COLOUR('',#45);
#44=FILL_AREA_STYLE_COLOUR('',#23);
#45=COLOUR_RGB('light gray',0.8,0.8,0.8);
#46=MANIFOLD_SOLID_BREP('',#48);
#47=MANIFOLD_SOLID_BREP('',#49);
#48=CLOSED_SHELL('',(#83,#84,#85,#86,#87,#88,#89,#90,#91,#92,#93,#94));
#49=CLOSED_SHELL('',(#95,#96,#97,#98));
#50=CYLINDRICAL_SURFACE('',#215,7.5);
#51=CYLINDRICAL_SURFACE('',#221,12.5);
#52=CYLINDRICAL_SURFACE('',#230,10.);
#53=CONICAL_SURFACE('',#213,7.5,2.99999999999961);
#54=TOROIDAL_SURFACE('',#211,6.80016426572551,0.5);
#55=TOROIDAL_SURFACE('',#217,13.5,6.);
#56=TOROIDAL_SURFACE('',#219,11.7,0.8);
#57=TOROIDAL_SURFACE('',#223,12.,0.5);
#58=TOROIDAL_SURFACE('',#229,8.,2.);
#59=FACE_BOUND('',#109,.T.);
#60=FACE_BOUND('',#110,.T.);
#61=FACE_BOUND('',#111,.T.);
#62=FACE_BOUND('',#112,.T.);
#63=FACE_BOUND('',#113,.T.);
#64=FACE_BOUND('',#114,.T.);
#65=FACE_BOUND('',#115,.T.);
#66=FACE_BOUND('',#116,.T.);
#67=FACE_BOUND('',#117,.T.);
#68=FACE_BOUND('',#118,.T.);
#69=FACE_BOUND('',#119,.T.);
#70=FACE_BOUND('',#120,.T.);
#71=FACE_BOUND('',#121,.T.);
#72=FACE_BOUND('',#122,.T.);
#73=FACE_BOUND('',#123,.T.);
#74=FACE_BOUND('',#124,.T.);
#75=FACE_BOUND('',#126,.T.);
#76=FACE_BOUND('',#127,.T.);
#77=FACE_BOUND('',#128,.T.);
#78=FACE_BOUND('',#129,.T.);
#79=FACE_BOUND('',#131,.T.);
#80=FACE_BOUND('',#132,.T.);
#81=FACE_BOUND('',#134,.T.);
#82=FACE_BOUND('',#135,.T.);
#83=ADVANCED_FACE('',(#104),#99,.F.);
#84=ADVANCED_FACE('',(#59,#60),#54,.T.);
#85=ADVANCED_FACE('',(#61,#62),#53,.T.);
#86=ADVANCED_FACE('',(#63,#64),#50,.T.);
#87=ADVANCED_FACE('',(#65,#66),#55,.F.);
#88=ADVANCED_FACE('',(#67,#68),#56,.T.);
#89=ADVANCED_FACE('',(#69,#70),#51,.T.);
#90=ADVANCED_FACE('',(#71,#72),#57,.T.);
#91=ADVANCED_FACE('',(#73,#74),#100,.F.);
#92=ADVANCED_FACE('',(#105),#101,.F.);
#93=ADVANCED_FACE('',(#75,#76),#58,.T.);
#94=ADVANCED_FACE('',(#77,#78),#52,.T.);
#95=ADVANCED_FACE('',(#106),#102,.F.);
#96=ADVANCED_FACE('',(#79,#80),#24,.F.);
#97=ADVANCED_FACE('',(#107),#103,.T.);
#98=ADVANCED_FACE('',(#81,#82),#25,.F.);
#99=PLANE('',#209);
#100=PLANE('',#225);
#101=PLANE('',#227);
#102=PLANE('',#232);
#103=PLANE('',#235);
#104=FACE_OUTER_BOUND('',#108,.T.);
#105=FACE_OUTER_BOUND('',#125,.T.);
#106=FACE_OUTER_BOUND('',#130,.T.);
#107=FACE_OUTER_BOUND('',#133,.T.);
#108=EDGE_LOOP('',(#136));
#109=EDGE_LOOP('',(#137));
#110=EDGE_LOOP('',(#138));
#111=EDGE_LOOP('',(#139));
#112=EDGE_LOOP('',(#140));
#113=EDGE_LOOP('',(#141));
#114=EDGE_LOOP('',(#142));
#115=EDGE_LOOP('',(#143));
#116=EDGE_LOOP('',(#144));
#117=EDGE_LOOP('',(#145));
#118=EDGE_LOOP('',(#146));
#119=EDGE_LOOP('',(#147));
#120=EDGE_LOOP('',(#148));
#121=EDGE_LOOP('',(#149));
#122=EDGE_LOOP('',(#150));
#123=EDGE_LOOP('',(#151));
#124=EDGE_LOOP('',(#152));
#125=EDGE_LOOP('',(#153));
#126=EDGE_LOOP('',(#154));
#127=EDGE_LOOP('',(#155));
#128=EDGE_LOOP('',(#156));
#129=EDGE_LOOP('',(#157));
#130=EDGE_LOOP('',(#158));
#131=EDGE_LOOP('',(#159));
#132=EDGE_LOOP('',(#160));
#133=EDGE_LOOP('',(#161));
#134=EDGE_LOOP('',(#162));
#135=EDGE_LOOP('',(#163));
#136=ORIENTED_EDGE('',*,*,#178,.T.);
#137=ORIENTED_EDGE('',*,*,#178,.F.);
#138=ORIENTED_EDGE('',*,*,#179,.T.);
#139=ORIENTED_EDGE('',*,*,#179,.F.);
#140=ORIENTED_EDGE('',*,*,#180,.T.);
#141=ORIENTED_EDGE('',*,*,#180,.F.);
#142=ORIENTED_EDGE('',*,*,#181,.T.);
#143=ORIENTED_EDGE('',*,*,#181,.F.);
#144=ORIENTED_EDGE('',*,*,#182,.T.);
#145=ORIENTED_EDGE('',*,*,#182,.F.);
#146=ORIENTED_EDGE('',*,*,#183,.T.);
#147=ORIENTED_EDGE('',*,*,#183,.F.);
#148=ORIENTED_EDGE('',*,*,#184,.T.);
#149=ORIENTED_EDGE('',*,*,#184,.F.);
#150=ORIENTED_EDGE('',*,*,#185,.T.);
#151=ORIENTED_EDGE('',*,*,#186,.F.);
#152=ORIENTED_EDGE('',*,*,#185,.F.);
#153=ORIENTED_EDGE('',*,*,#187,.F.);
#154=ORIENTED_EDGE('',*,*,#188,.F.);
#155=ORIENTED_EDGE('',*,*,#187,.T.);
#156=ORIENTED_EDGE('',*,*,#188,.T.);
#157=ORIENTED_EDGE('',*,*,#186,.T.);
#158=ORIENTED_EDGE('',*,*,#189,.F.);
#159=ORIENTED_EDGE('',*,*,#190,.F.);
#160=ORIENTED_EDGE('',*,*,#189,.T.);
#161=ORIENTED_EDGE('',*,*,#191,.T.);
#162=ORIENTED_EDGE('',*,*,#190,.T.);
#163=ORIENTED_EDGE('',*,*,#191,.F.);
#164=VERTEX_POINT('',#302);
#165=VERTEX_POINT('',#305);
#166=VERTEX_POINT('',#308);
#167=VERTEX_POINT('',#311);
#168=VERTEX_POINT('',#314);
#169=VERTEX_POINT('',#317);
#170=VERTEX_POINT('',#320);
#171=VERTEX_POINT('',#323);
#172=VERTEX_POINT('',#326);
#173=VERTEX_POINT('',#329);
#174=VERTEX_POINT('',#332);
#175=VERTEX_POINT('',#336);
#176=VERTEX_POINT('',#339);
#177=VERTEX_POINT('',#343);
#178=EDGE_CURVE('',#164,#164,#192,.T.);
#179=EDGE_CURVE('',#165,#165,#193,.T.);
#180=EDGE_CURVE('',#166,#166,#194,.T.);
#181=EDGE_CURVE('',#167,#167,#195,.T.);
#182=EDGE_CURVE('',#168,#168,#196,.T.);
#183=EDGE_CURVE('',#169,#169,#197,.T.);
#184=EDGE_CURVE('',#170,#170,#198,.T.);
#185=EDGE_CURVE('',#171,#171,#199,.T.);
#186=EDGE_CURVE('',#172,#172,#200,.T.);
#187=EDGE_CURVE('',#173,#173,#201,.T.);
#188=EDGE_CURVE('',#174,#174,#202,.T.);
#189=EDGE_CURVE('',#175,#175,#203,.T.);
#190=EDGE_CURVE('',#176,#176,#204,.T.);
#191=EDGE_CURVE('',#177,#177,#205,.T.);
#192=CIRCLE('',#208,6.80016426572551);
#193=CIRCLE('',#210,7.2994790331028);
#194=CIRCLE('',#212,7.5);
#195=CIRCLE('',#214,7.5);
#196=CIRCLE('',#216,11.9117647058824);
#197=CIRCLE('',#218,12.5);
#198=CIRCLE('',#220,12.5);
#199=CIRCLE('',#222,12.);
#200=CIRCLE('',#224,10.);
#201=CIRCLE('',#226,8.);
#202=CIRCLE('',#228,10.);
#203=CIRCLE('',#231,7.53279399434706);
#204=CIRCLE('',#233,7.99958783953879);
#205=CIRCLE('',#234,7.60675059222618);
#206=CIRCLE('',#236,0.4);
#207=AXIS2_PLACEMENT_3D('',#300,#237,#238);
#208=AXIS2_PLACEMENT_3D('',#301,#239,#240);
#209=AXIS2_PLACEMENT_3D('',#303,#241,#242);
#210=AXIS2_PLACEMENT_3D('',#304,#243,#244);
#211=AXIS2_PLACEMENT_3D('',#306,#245,#246);
#212=AXIS2_PLACEMENT_3D('',#307,#247,#248);
#213=AXIS2_PLACEMENT_3D('',#309,#249,#250);
#214=AXIS2_PLACEMENT_3D('',#310,#251,#252);
#215=AXIS2_PLACEMENT_3D('',#312,#253,#254);
#216=AXIS2_PLACEMENT_3D('',#313,#255,#256);
#217=AXIS2_PLACEMENT_3D('',#315,#257,#258);
#218=AXIS2_PLACEMENT_3D('',#316,#259,#260);
#219=AXIS2_PLACEMENT_3D('',#318,#261,#262);
#220=AXIS2_PLACEMENT_3D('',#319,#263,#264);
#221=AXIS2_PLACEMENT_3D('',#321,#265,#266);
#222=AXIS2_PLACEMENT_3D('',#322,#267,#268);
#223=AXIS2_PLACEMENT_3D('',#324,#269,#270);
#224=AXIS2_PLACEMENT_3D('',#325,#271,#272);
#225=AXIS2_PLACEMENT_3D('',#327,#273,#274);
#226=AXIS2_PLACEMENT_3D('',#328,#275,#276);
#227=AXIS2_PLACEMENT_3D('',#330,#277,#278);
#228=AXIS2_PLACEMENT_3D('',#331,#279,#280);
#229=AXIS2_PLACEMENT_3D('',#333,#281,#282);
#230=AXIS2_PLACEMENT_3D('',#334,#283,#284);
#231=AXIS2_PLACEMENT_3D('',#335,#285,#286);
#232=AXIS2_PLACEMENT_3D('',#337,#287,#288);
#233=AXIS2_PLACEMENT_3D('',#338,#289,#290);
#234=AXIS2_PLACEMENT_3D('',#342,#293,#294);
#235=AXIS2_PLACEMENT_3D('',#344,#295,#296);
#236=AXIS2_PLACEMENT_3D('',#345,#297,#298);
#237=DIRECTION('',(0.,0.,1.));
#238=DIRECTION('',(1.,0.,0.));
#239=DIRECTION('',(-1.,0.,0.));
#240=DIRECTION('',(0.,0.,1.));
#241=DIRECTION('',(1.,0.,0.));
#242=DIRECTION('',(0.,0.,-1.));
#243=DIRECTION('',(-1.,0.,0.));
#244=DIRECTION('',(0.,0.,1.));
#245=DIRECTION('',(-1.,0.,0.));
#246=DIRECTION('',(0.,0.,1.));
#247=DIRECTION('',(-1.,0.,0.));
#248=DIRECTION('',(0.,0.,1.));
#249=DIRECTION('',(1.,0.,0.));
#250=DIRECTION('',(-1.78082871789552E-15,0.,-1.));
#251=DIRECTION('',(-1.,0.,0.));
#252=DIRECTION('',(0.,0.,1.));
#253=DIRECTION('',(-1.,0.,0.));
#254=DIRECTION('',(0.,0.,1.));
#255=DIRECTION('',(-1.,0.,0.));
#256=DIRECTION('',(0.,0.,1.));
#257=DIRECTION('',(-1.,0.,0.));
#258=DIRECTION('',(0.,0.,1.));
#259=DIRECTION('',(-1.,0.,0.));
#260=DIRECTION('',(0.,0.,1.));
#261=DIRECTION('',(-1.,0.,0.));
#262=DIRECTION('',(0.,0.,1.));
#263=DIRECTION('',(-1.,0.,0.));
#264=DIRECTION('',(0.,0.,1.));
#265=DIRECTION('',(-1.,0.,0.));
#266=DIRECTION('',(0.,0.,1.));
#267=DIRECTION('',(-1.,0.,0.));
#268=DIRECTION('',(0.,0.,1.));
#269=DIRECTION('',(-1.,0.,0.));
#270=DIRECTION('',(0.,0.,1.));
#271=DIRECTION('',(1.,0.,0.));
#272=DIRECTION('',(0.,0.,1.));
#273=DIRECTION('',(-1.,0.,0.));
#274=DIRECTION('',(0.,0.,1.));
#275=DIRECTION('',(-1.,0.,0.));
#276=DIRECTION('',(0.,0.,1.));
#277=DIRECTION('',(-1.,0.,0.));
#278=DIRECTION('',(0.,0.,1.));
#279=DIRECTION('',(-1.,0.,0.));
#280=DIRECTION('',(0.,0.,1.));
#281=DIRECTION('',(-1.,0.,0.));
#282=DIRECTION('',(0.,0.,1.));
#283=DIRECTION('',(-1.,0.,0.));
#284=DIRECTION('',(0.,0.,1.));
#285=DIRECTION('',(-1.,0.,0.));
#286=DIRECTION('',(0.,0.,1.));
#287=DIRECTION('',(-1.,0.,0.));
#288=DIRECTION('',(0.,0.,1.));
#289=DIRECTION('',(-1.,0.,0.));
#290=DIRECTION('',(0.,0.,1.));
#291=DIRECTION('',(0.998278768535805,0.0584012235786683,0.00536631858449081));
#292=DIRECTION('',(-1.,0.,0.));
#293=DIRECTION('',(-1.,0.,0.));
#294=DIRECTION('',(0.,0.,1.));
#295=DIRECTION('',(-1.,0.,0.));
#296=DIRECTION('',(0.,0.,1.));
#297=DIRECTION('',(4.16333634234434E-17,-0.0915016186634026,0.995804927574662));
#298=DIRECTION('',(-0.99993565026023,-0.0112968062291939,-0.00103803066953642));
#299=DIRECTION('',(-1.,0.,0.));
#300=CARTESIAN_POINT('',(0.,0.,0.));
#301=CARTESIAN_POINT('',(0.7,0.,0.));
#302=CARTESIAN_POINT('',(0.7,0.,6.80016426572551));
#303=CARTESIAN_POINT('',(0.7,0.,0.));
#304=CARTESIAN_POINT('',(1.17383202187853,0.,0.));
#305=CARTESIAN_POINT('',(1.17383202187853,0.,7.2994790331028));
#306=CARTESIAN_POINT('',(1.2,0.,0.));
#307=CARTESIAN_POINT('',(5.,0.,0.));
#308=CARTESIAN_POINT('',(5.,0.,7.5));
#309=CARTESIAN_POINT('',(5.,0.,0.));
#310=CARTESIAN_POINT('',(36.,0.,0.));
#311=CARTESIAN_POINT('',(36.,0.,7.5));
#312=CARTESIAN_POINT('',(0.,0.,0.));
#313=CARTESIAN_POINT('',(41.7859751685017,0.,0.));
#314=CARTESIAN_POINT('',(41.7859751685017,0.,11.9117647058824));
#315=CARTESIAN_POINT('',(36.,0.,0.));
#316=CARTESIAN_POINT('',(42.557438524302,0.,0.));
#317=CARTESIAN_POINT('',(42.557438524302,0.,12.5));
#318=CARTESIAN_POINT('',(42.557438524302,0.,0.));
#319=CARTESIAN_POINT('',(43.5,0.,0.));
#320=CARTESIAN_POINT('',(43.5,0.,12.5));
#321=CARTESIAN_POINT('',(0.,0.,0.));
#322=CARTESIAN_POINT('',(44.,0.,0.));
#323=CARTESIAN_POINT('',(44.,0.,12.));
#324=CARTESIAN_POINT('',(43.5,0.,0.));
#325=CARTESIAN_POINT('',(44.,0.,0.));
#326=CARTESIAN_POINT('',(44.,0.,10.));
#327=CARTESIAN_POINT('',(44.,12.,0.));
#328=CARTESIAN_POINT('',(94.,0.,0.));
#329=CARTESIAN_POINT('',(94.,0.,8.));
#330=CARTESIAN_POINT('',(94.,8.,0.));
#331=CARTESIAN_POINT('',(92.,0.,0.));
#332=CARTESIAN_POINT('',(92.,0.,10.));
#333=CARTESIAN_POINT('',(92.,0.,0.));
#334=CARTESIAN_POINT('',(0.,0.,0.));
#335=CARTESIAN_POINT('',(8.40899753433958,0.,0.));
#336=CARTESIAN_POINT('',(8.40899753433958,0.,7.53279399434706));
#337=CARTESIAN_POINT('',(8.40899753433958,0.,0.));
#338=CARTESIAN_POINT('',(0.41846815619567,0.,0.));
#339=CARTESIAN_POINT('',(0.41846815619567,0.,7.99958783953879));
#340=CARTESIAN_POINT('',(0.418468156195669,-7.99908094499944,0.0900535276577561));
#341=CARTESIAN_POINT('',(0.,0.,0.));
#342=CARTESIAN_POINT('',(1.28185219126016E-9,0.,0.));
#343=CARTESIAN_POINT('',(1.28185219126016E-9,0.,7.60675059222618));
#344=CARTESIAN_POINT('',(1.28185219126016E-9,0.,0.));
#345=CARTESIAN_POINT('',(0.399974261385936,-7.60118493839364,0.126615034491035));
#346=CARTESIAN_POINT('',(0.,0.,0.));
#347=(
GEOMETRIC_REPRESENTATION_CONTEXT(3)
GLOBAL_UNCERTAINTY_ASSIGNED_CONTEXT((#348))
GLOBAL_UNIT_ASSIGNED_CONTEXT((#354,#350,#349))
REPRESENTATION_CONTEXT('AEKR-D2.25X16 XC.','TOP_LEVEL_ASSEMBLY_PART')
);
#348=UNCERTAINTY_MEASURE_WITH_UNIT(LENGTH_MEASURE(2.E-5),#354,
'DISTANCE_ACCURACY_VALUE','Maximum Tolerance applied to model');
#349=(
NAMED_UNIT(*)
SI_UNIT($,.STERADIAN.)
SOLID_ANGLE_UNIT()
);
#350=(
CONVERSION_BASED_UNIT('DEGREE',#352)
NAMED_UNIT(#351)
PLANE_ANGLE_UNIT()
);
#351=DIMENSIONAL_EXPONENTS(0.,0.,0.,0.,0.,0.,0.);
#352=PLANE_ANGLE_MEASURE_WITH_UNIT(PLANE_ANGLE_MEASURE(0.0174532925),#353);
#353=(
NAMED_UNIT(*)
PLANE_ANGLE_UNIT()
SI_UNIT($,.RADIAN.)
);
#354=(
LENGTH_UNIT()
NAMED_UNIT(*)
SI_UNIT(.MILLI.,.METRE.)
);
ENDSEC;
END-ISO-10303-21;
