ISO-10303-21;
HEADER;
/* Generated by software containing ST-Developer
 * from STEP Tools, Inc. (www.steptools.com) 
 */
/* OPTION: using custom schema-name function */

FILE_DESCRIPTION(
/* description */ (''),
/* implementation_level */ '2;1');

FILE_NAME(
/* name */ 'AEKR-D2.25X20 XC.. 10T304.stp',
/* time_stamp */ '2023-10-31T01:53:21+03:00',
/* author */ (''),
/* organization */ (''),
/* preprocessor_version */ 'ST-DEVELOPER v19.4',
/* originating_system */ 'SIEMENS PLM Software NX2306.3001',
/* authorisation */ '');

FILE_SCHEMA (('AUTOMOTIVE_DESIGN { 1 0 10303 214 3 1 1 1 }'));
ENDSEC;

DATA;
#10=SHAPE_REPRESENTATION_RELATIONSHIP('None',
'relationship between model1-None and model1-None',#22,#11);
#11=ADVANCED_BREP_SHAPE_REPRESENTATION('model1-None',(#46,#47),#367);
#12=SHAPE_DEFINITION_REPRESENTATION(#13,#22);
#13=PRODUCT_DEFINITION_SHAPE('','',#14);
#14=PRODUCT_DEFINITION(' ','',#16,#15);
#15=PRODUCT_DEFINITION_CONTEXT('part definition',#21,'design');
#16=PRODUCT_DEFINITION_FORMATION_WITH_SPECIFIED_SOURCE(' ',' ',#18,
 .NOT_KNOWN.);
#17=PRODUCT_RELATED_PRODUCT_CATEGORY('part','',(#18));
#18=PRODUCT('model1','model1',' ',(#19));
#19=PRODUCT_CONTEXT(' ',#21,'mechanical');
#20=APPLICATION_PROTOCOL_DEFINITION('international standard',
'automotive_design',2010,#21);
#21=APPLICATION_CONTEXT(
'core data for automotive mechanical design processes');
#22=SHAPE_REPRESENTATION('model1-None',(#218),#367);
#23=DRAUGHTING_PRE_DEFINED_COLOUR('yellow');
#24=SURFACE_OF_REVOLUTION('',#28,#26);
#25=SURFACE_OF_REVOLUTION('',#217,#27);
#26=AXIS1_PLACEMENT('',#364,#313);
#27=AXIS1_PLACEMENT('',#366,#316);
#28=LINE('',#363,#29);
#29=VECTOR('',#312,9.80669679382226);
#30=PRESENTATION_LAYER_ASSIGNMENT('1','Layer 1',(#46,#47));
#31=STYLED_ITEM('',(#33),#46);
#32=STYLED_ITEM('',(#34),#47);
#33=PRESENTATION_STYLE_ASSIGNMENT((#35));
#34=PRESENTATION_STYLE_ASSIGNMENT((#36));
#35=SURFACE_STYLE_USAGE(.BOTH.,#37);
#36=SURFACE_STYLE_USAGE(.BOTH.,#38);
#37=SURFACE_SIDE_STYLE('',(#39));
#38=SURFACE_SIDE_STYLE('',(#40));
#39=SURFACE_STYLE_FILL_AREA(#41);
#40=SURFACE_STYLE_FILL_AREA(#42);
#41=FILL_AREA_STYLE('',(#43));
#42=FILL_AREA_STYLE('',(#44));
#43=FILL_AREA_STYLE_COLOUR('',#45);
#44=FILL_AREA_STYLE_COLOUR('',#23);
#45=COLOUR_RGB('light gray',0.8,0.8,0.8);
#46=MANIFOLD_SOLID_BREP('',#48);
#47=MANIFOLD_SOLID_BREP('',#49);
#48=CLOSED_SHELL('',(#86,#87,#88,#89,#90,#91,#92,#93,#94,#95,#96,#97,#98));
#49=CLOSED_SHELL('',(#99,#100,#101,#102));
#50=CYLINDRICAL_SURFACE('',#226,9.5);
#51=CYLINDRICAL_SURFACE('',#234,16.);
#52=CYLINDRICAL_SURFACE('',#243,12.5);
#53=CONICAL_SURFACE('',#224,9.5,3.00000000000002);
#54=CONICAL_SURFACE('',#230,15.7071067811866,45.0000000000001);
#55=TOROIDAL_SURFACE('',#222,8.80016426572548,0.5);
#56=TOROIDAL_SURFACE('',#228,13.5,4.);
#57=TOROIDAL_SURFACE('',#232,15.,1.);
#58=TOROIDAL_SURFACE('',#236,15.5,0.5);
#59=TOROIDAL_SURFACE('',#242,10.5,2.);
#60=FACE_BOUND('',#113,.T.);
#61=FACE_BOUND('',#114,.T.);
#62=FACE_BOUND('',#115,.T.);
#63=FACE_BOUND('',#116,.T.);
#64=FACE_BOUND('',#117,.T.);
#65=FACE_BOUND('',#118,.T.);
#66=FACE_BOUND('',#119,.T.);
#67=FACE_BOUND('',#120,.T.);
#68=FACE_BOUND('',#121,.T.);
#69=FACE_BOUND('',#122,.T.);
#70=FACE_BOUND('',#123,.T.);
#71=FACE_BOUND('',#124,.T.);
#72=FACE_BOUND('',#125,.T.);
#73=FACE_BOUND('',#126,.T.);
#74=FACE_BOUND('',#127,.T.);
#75=FACE_BOUND('',#128,.T.);
#76=FACE_BOUND('',#129,.T.);
#77=FACE_BOUND('',#130,.T.);
#78=FACE_BOUND('',#132,.T.);
#79=FACE_BOUND('',#133,.T.);
#80=FACE_BOUND('',#134,.T.);
#81=FACE_BOUND('',#135,.T.);
#82=FACE_BOUND('',#138,.T.);
#83=FACE_BOUND('',#139,.T.);
#84=FACE_BOUND('',#140,.T.);
#85=FACE_BOUND('',#141,.T.);
#86=ADVANCED_FACE('',(#108),#103,.F.);
#87=ADVANCED_FACE('',(#60,#61),#55,.T.);
#88=ADVANCED_FACE('',(#62,#63),#53,.T.);
#89=ADVANCED_FACE('',(#64,#65),#50,.T.);
#90=ADVANCED_FACE('',(#66,#67),#56,.F.);
#91=ADVANCED_FACE('',(#68,#69),#54,.T.);
#92=ADVANCED_FACE('',(#70,#71),#57,.T.);
#93=ADVANCED_FACE('',(#72,#73),#51,.T.);
#94=ADVANCED_FACE('',(#74,#75),#58,.T.);
#95=ADVANCED_FACE('',(#76,#77),#104,.F.);
#96=ADVANCED_FACE('',(#109),#105,.F.);
#97=ADVANCED_FACE('',(#78,#79),#59,.T.);
#98=ADVANCED_FACE('',(#80,#81),#52,.T.);
#99=ADVANCED_FACE('',(#110),#106,.T.);
#100=ADVANCED_FACE('',(#111),#107,.F.);
#101=ADVANCED_FACE('',(#82,#83),#24,.T.);
#102=ADVANCED_FACE('',(#84,#85),#25,.T.);
#103=PLANE('',#220);
#104=PLANE('',#238);
#105=PLANE('',#240);
#106=PLANE('',#245);
#107=PLANE('',#247);
#108=FACE_OUTER_BOUND('',#112,.T.);
#109=FACE_OUTER_BOUND('',#131,.T.);
#110=FACE_OUTER_BOUND('',#136,.T.);
#111=FACE_OUTER_BOUND('',#137,.T.);
#112=EDGE_LOOP('',(#142));
#113=EDGE_LOOP('',(#143));
#114=EDGE_LOOP('',(#144));
#115=EDGE_LOOP('',(#145));
#116=EDGE_LOOP('',(#146));
#117=EDGE_LOOP('',(#147));
#118=EDGE_LOOP('',(#148));
#119=EDGE_LOOP('',(#149));
#120=EDGE_LOOP('',(#150));
#121=EDGE_LOOP('',(#151));
#122=EDGE_LOOP('',(#152));
#123=EDGE_LOOP('',(#153));
#124=EDGE_LOOP('',(#154));
#125=EDGE_LOOP('',(#155));
#126=EDGE_LOOP('',(#156));
#127=EDGE_LOOP('',(#157));
#128=EDGE_LOOP('',(#158));
#129=EDGE_LOOP('',(#159));
#130=EDGE_LOOP('',(#160));
#131=EDGE_LOOP('',(#161));
#132=EDGE_LOOP('',(#162));
#133=EDGE_LOOP('',(#163));
#134=EDGE_LOOP('',(#164));
#135=EDGE_LOOP('',(#165));
#136=EDGE_LOOP('',(#166));
#137=EDGE_LOOP('',(#167));
#138=EDGE_LOOP('',(#168));
#139=EDGE_LOOP('',(#169));
#140=EDGE_LOOP('',(#170));
#141=EDGE_LOOP('',(#171));
#142=ORIENTED_EDGE('',*,*,#187,.T.);
#143=ORIENTED_EDGE('',*,*,#187,.F.);
#144=ORIENTED_EDGE('',*,*,#188,.T.);
#145=ORIENTED_EDGE('',*,*,#188,.F.);
#146=ORIENTED_EDGE('',*,*,#189,.T.);
#147=ORIENTED_EDGE('',*,*,#189,.F.);
#148=ORIENTED_EDGE('',*,*,#190,.T.);
#149=ORIENTED_EDGE('',*,*,#190,.F.);
#150=ORIENTED_EDGE('',*,*,#191,.T.);
#151=ORIENTED_EDGE('',*,*,#191,.F.);
#152=ORIENTED_EDGE('',*,*,#192,.T.);
#153=ORIENTED_EDGE('',*,*,#192,.F.);
#154=ORIENTED_EDGE('',*,*,#193,.T.);
#155=ORIENTED_EDGE('',*,*,#193,.F.);
#156=ORIENTED_EDGE('',*,*,#194,.T.);
#157=ORIENTED_EDGE('',*,*,#194,.F.);
#158=ORIENTED_EDGE('',*,*,#195,.T.);
#159=ORIENTED_EDGE('',*,*,#196,.F.);
#160=ORIENTED_EDGE('',*,*,#195,.F.);
#161=ORIENTED_EDGE('',*,*,#197,.F.);
#162=ORIENTED_EDGE('',*,*,#198,.F.);
#163=ORIENTED_EDGE('',*,*,#197,.T.);
#164=ORIENTED_EDGE('',*,*,#198,.T.);
#165=ORIENTED_EDGE('',*,*,#196,.T.);
#166=ORIENTED_EDGE('',*,*,#199,.T.);
#167=ORIENTED_EDGE('',*,*,#200,.F.);
#168=ORIENTED_EDGE('',*,*,#201,.F.);
#169=ORIENTED_EDGE('',*,*,#200,.T.);
#170=ORIENTED_EDGE('',*,*,#199,.F.);
#171=ORIENTED_EDGE('',*,*,#201,.T.);
#172=VERTEX_POINT('',#319);
#173=VERTEX_POINT('',#322);
#174=VERTEX_POINT('',#325);
#175=VERTEX_POINT('',#328);
#176=VERTEX_POINT('',#331);
#177=VERTEX_POINT('',#334);
#178=VERTEX_POINT('',#337);
#179=VERTEX_POINT('',#340);
#180=VERTEX_POINT('',#343);
#181=VERTEX_POINT('',#346);
#182=VERTEX_POINT('',#349);
#183=VERTEX_POINT('',#352);
#184=VERTEX_POINT('',#356);
#185=VERTEX_POINT('',#359);
#186=VERTEX_POINT('',#362);
#187=EDGE_CURVE('',#172,#172,#202,.T.);
#188=EDGE_CURVE('',#173,#173,#203,.T.);
#189=EDGE_CURVE('',#174,#174,#204,.T.);
#190=EDGE_CURVE('',#175,#175,#205,.T.);
#191=EDGE_CURVE('',#176,#176,#206,.T.);
#192=EDGE_CURVE('',#177,#177,#207,.T.);
#193=EDGE_CURVE('',#178,#178,#208,.T.);
#194=EDGE_CURVE('',#179,#179,#209,.T.);
#195=EDGE_CURVE('',#180,#180,#210,.T.);
#196=EDGE_CURVE('',#181,#181,#211,.T.);
#197=EDGE_CURVE('',#182,#182,#212,.T.);
#198=EDGE_CURVE('',#183,#183,#213,.T.);
#199=EDGE_CURVE('',#184,#184,#214,.T.);
#200=EDGE_CURVE('',#185,#185,#215,.T.);
#201=EDGE_CURVE('',#186,#186,#216,.T.);
#202=CIRCLE('',#219,8.80016426572548);
#203=CIRCLE('',#221,9.29947903310277);
#204=CIRCLE('',#223,9.5);
#205=CIRCLE('',#225,9.5);
#206=CIRCLE('',#227,10.6715728752538);
#207=CIRCLE('',#229,15.7071067811866);
#208=CIRCLE('',#231,16.);
#209=CIRCLE('',#233,16.);
#210=CIRCLE('',#235,15.5);
#211=CIRCLE('',#237,12.5);
#212=CIRCLE('',#239,10.5);
#213=CIRCLE('',#241,12.5);
#214=CIRCLE('',#244,9.60686319011702);
#215=CIRCLE('',#246,9.4306469878648);
#216=CIRCLE('',#248,9.99958774335605);
#217=CIRCLE('',#249,0.4);
#218=AXIS2_PLACEMENT_3D('',#317,#250,#251);
#219=AXIS2_PLACEMENT_3D('',#318,#252,#253);
#220=AXIS2_PLACEMENT_3D('',#320,#254,#255);
#221=AXIS2_PLACEMENT_3D('',#321,#256,#257);
#222=AXIS2_PLACEMENT_3D('',#323,#258,#259);
#223=AXIS2_PLACEMENT_3D('',#324,#260,#261);
#224=AXIS2_PLACEMENT_3D('',#326,#262,#263);
#225=AXIS2_PLACEMENT_3D('',#327,#264,#265);
#226=AXIS2_PLACEMENT_3D('',#329,#266,#267);
#227=AXIS2_PLACEMENT_3D('',#330,#268,#269);
#228=AXIS2_PLACEMENT_3D('',#332,#270,#271);
#229=AXIS2_PLACEMENT_3D('',#333,#272,#273);
#230=AXIS2_PLACEMENT_3D('',#335,#274,#275);
#231=AXIS2_PLACEMENT_3D('',#336,#276,#277);
#232=AXIS2_PLACEMENT_3D('',#338,#278,#279);
#233=AXIS2_PLACEMENT_3D('',#339,#280,#281);
#234=AXIS2_PLACEMENT_3D('',#341,#282,#283);
#235=AXIS2_PLACEMENT_3D('',#342,#284,#285);
#236=AXIS2_PLACEMENT_3D('',#344,#286,#287);
#237=AXIS2_PLACEMENT_3D('',#345,#288,#289);
#238=AXIS2_PLACEMENT_3D('',#347,#290,#291);
#239=AXIS2_PLACEMENT_3D('',#348,#292,#293);
#240=AXIS2_PLACEMENT_3D('',#350,#294,#295);
#241=AXIS2_PLACEMENT_3D('',#351,#296,#297);
#242=AXIS2_PLACEMENT_3D('',#353,#298,#299);
#243=AXIS2_PLACEMENT_3D('',#354,#300,#301);
#244=AXIS2_PLACEMENT_3D('',#355,#302,#303);
#245=AXIS2_PLACEMENT_3D('',#357,#304,#305);
#246=AXIS2_PLACEMENT_3D('',#358,#306,#307);
#247=AXIS2_PLACEMENT_3D('',#360,#308,#309);
#248=AXIS2_PLACEMENT_3D('',#361,#310,#311);
#249=AXIS2_PLACEMENT_3D('',#365,#314,#315);
#250=DIRECTION('',(0.,0.,1.));
#251=DIRECTION('',(1.,0.,0.));
#252=DIRECTION('',(-1.,0.,0.));
#253=DIRECTION('',(0.,0.,1.));
#254=DIRECTION('',(1.,0.,0.));
#255=DIRECTION('',(0.,0.,-1.));
#256=DIRECTION('',(-1.,0.,0.));
#257=DIRECTION('',(0.,0.,1.));
#258=DIRECTION('',(-1.,0.,0.));
#259=DIRECTION('',(0.,0.,1.));
#260=DIRECTION('',(-1.,0.,0.));
#261=DIRECTION('',(0.,0.,1.));
#262=DIRECTION('',(1.,0.,0.));
#263=DIRECTION('',(-1.72329705584833E-15,0.,-1.));
#264=DIRECTION('',(-1.,0.,0.));
#265=DIRECTION('',(0.,0.,1.));
#266=DIRECTION('',(-1.,0.,0.));
#267=DIRECTION('',(0.,0.,1.));
#268=DIRECTION('',(-1.,0.,0.));
#269=DIRECTION('',(0.,0.,1.));
#270=DIRECTION('',(-1.,0.,0.));
#271=DIRECTION('',(0.,0.,1.));
#272=DIRECTION('',(-1.,0.,0.));
#273=DIRECTION('',(0.,0.,1.));
#274=DIRECTION('',(1.,0.,0.));
#275=DIRECTION('',(2.04947681991617E-17,0.,-1.));
#276=DIRECTION('',(-1.,0.,0.));
#277=DIRECTION('',(0.,0.,1.));
#278=DIRECTION('',(-1.,0.,0.));
#279=DIRECTION('',(0.,0.,1.));
#280=DIRECTION('',(-1.,0.,0.));
#281=DIRECTION('',(0.,0.,1.));
#282=DIRECTION('',(-1.,0.,0.));
#283=DIRECTION('',(0.,0.,1.));
#284=DIRECTION('',(-1.,0.,0.));
#285=DIRECTION('',(0.,0.,1.));
#286=DIRECTION('',(-1.,0.,0.));
#287=DIRECTION('',(0.,0.,1.));
#288=DIRECTION('',(1.,0.,0.));
#289=DIRECTION('',(0.,0.,1.));
#290=DIRECTION('',(-1.,0.,0.));
#291=DIRECTION('',(0.,0.,1.));
#292=DIRECTION('',(-1.,0.,0.));
#293=DIRECTION('',(0.,0.,1.));
#294=DIRECTION('',(-1.,0.,0.));
#295=DIRECTION('',(0.,0.,1.));
#296=DIRECTION('',(-1.,0.,0.));
#297=DIRECTION('',(0.,0.,1.));
#298=DIRECTION('',(-1.,0.,0.));
#299=DIRECTION('',(0.,0.,1.));
#300=DIRECTION('',(-1.,0.,0.));
#301=DIRECTION('',(0.,0.,1.));
#302=DIRECTION('',(-1.,0.,0.));
#303=DIRECTION('',(0.,0.,1.));
#304=DIRECTION('',(-1.,0.,0.));
#305=DIRECTION('',(0.,0.,1.));
#306=DIRECTION('',(-1.,0.,0.));
#307=DIRECTION('',(0.,0.,1.));
#308=DIRECTION('',(-1.,0.,0.));
#309=DIRECTION('',(0.,0.,1.));
#310=DIRECTION('',(-1.,0.,0.));
#311=DIRECTION('',(0.,0.,1.));
#312=DIRECTION('',(-0.998295415286823,-0.0580945134000358,-0.00559386540078859));
#313=DIRECTION('',(-1.,0.,0.));
#314=DIRECTION('',(8.32667268468867E-17,0.0958457525202242,-0.995396198367179));
#315=DIRECTION('',(-0.99993565026023,-0.0112921694428828,-0.0010873122477406));
#316=DIRECTION('',(-1.,0.,0.));
#317=CARTESIAN_POINT('',(0.,0.,0.));
#318=CARTESIAN_POINT('',(0.7,0.,0.));
#319=CARTESIAN_POINT('',(0.7,0.,8.80016426572548));
#320=CARTESIAN_POINT('',(0.7,0.,0.));
#321=CARTESIAN_POINT('',(1.17383202187853,0.,0.));
#322=CARTESIAN_POINT('',(1.17383202187853,0.,9.29947903310277));
#323=CARTESIAN_POINT('',(1.2,0.,0.));
#324=CARTESIAN_POINT('',(5.,0.,0.));
#325=CARTESIAN_POINT('',(5.,0.,9.5));
#326=CARTESIAN_POINT('',(5.,0.,0.));
#327=CARTESIAN_POINT('',(45.,0.,0.));
#328=CARTESIAN_POINT('',(45.,0.,9.5));
#329=CARTESIAN_POINT('',(0.,0.,0.));
#330=CARTESIAN_POINT('',(47.8284271247462,0.,0.));
#331=CARTESIAN_POINT('',(47.8284271247462,0.,10.6715728752538));
#332=CARTESIAN_POINT('',(45.,0.,0.));
#333=CARTESIAN_POINT('',(52.8639610306789,0.,0.));
#334=CARTESIAN_POINT('',(52.8639610306789,0.,15.7071067811866));
#335=CARTESIAN_POINT('',(52.8639610306789,0.,0.));
#336=CARTESIAN_POINT('',(53.5710678118655,0.,0.));
#337=CARTESIAN_POINT('',(53.5710678118655,0.,16.));
#338=CARTESIAN_POINT('',(53.5710678118655,0.,0.));
#339=CARTESIAN_POINT('',(54.5,0.,0.));
#340=CARTESIAN_POINT('',(54.5,0.,16.));
#341=CARTESIAN_POINT('',(0.,0.,0.));
#342=CARTESIAN_POINT('',(55.,0.,0.));
#343=CARTESIAN_POINT('',(55.,0.,15.5));
#344=CARTESIAN_POINT('',(54.5,0.,0.));
#345=CARTESIAN_POINT('',(55.,0.,0.));
#346=CARTESIAN_POINT('',(55.,0.,12.5));
#347=CARTESIAN_POINT('',(55.,15.5,0.));
#348=CARTESIAN_POINT('',(111.,0.,0.));
#349=CARTESIAN_POINT('',(111.,0.,10.5));
#350=CARTESIAN_POINT('',(111.,10.5,0.));
#351=CARTESIAN_POINT('',(109.,0.,0.));
#352=CARTESIAN_POINT('',(109.,0.,12.5));
#353=CARTESIAN_POINT('',(109.,0.,0.));
#354=CARTESIAN_POINT('',(0.,0.,0.));
#355=CARTESIAN_POINT('',(-0.00453775871817416,0.,0.));
#356=CARTESIAN_POINT('',(-0.00453775871817416,0.,9.60686319011702));
#357=CARTESIAN_POINT('',(-0.00453775871817416,0.,0.));
#358=CARTESIAN_POINT('',(10.2039108445764,0.,0.));
#359=CARTESIAN_POINT('',(10.2039108445764,0.,9.4306469878648));
#360=CARTESIAN_POINT('',(10.2039108445764,0.,0.));
#361=CARTESIAN_POINT('',(0.413930396195677,0.,0.));
#362=CARTESIAN_POINT('',(0.413930396195677,0.,9.99958774335605));
#363=CARTESIAN_POINT('',(10.2039108445764,-9.42936768573209,0.155330798604405));
#364=CARTESIAN_POINT('',(0.,0.,0.));
#365=CARTESIAN_POINT('',(0.395436501385918,-9.60135027427052,0.138770758847492));
#366=CARTESIAN_POINT('',(0.,0.,0.));
#367=(
GEOMETRIC_REPRESENTATION_CONTEXT(3)
GLOBAL_UNCERTAINTY_ASSIGNED_CONTEXT((#368))
GLOBAL_UNIT_ASSIGNED_CONTEXT((#374,#370,#369))
REPRESENTATION_CONTEXT('AEKR-D2.25X20 XC.','TOP_LEVEL_ASSEMBLY_PART')
);
#368=UNCERTAINTY_MEASURE_WITH_UNIT(LENGTH_MEASURE(2.E-5),#374,
'DISTANCE_ACCURACY_VALUE','Maximum Tolerance applied to model');
#369=(
NAMED_UNIT(*)
SI_UNIT($,.STERADIAN.)
SOLID_ANGLE_UNIT()
);
#370=(
CONVERSION_BASED_UNIT('DEGREE',#372)
NAMED_UNIT(#371)
PLANE_ANGLE_UNIT()
);
#371=DIMENSIONAL_EXPONENTS(0.,0.,0.,0.,0.,0.,0.);
#372=PLANE_ANGLE_MEASURE_WITH_UNIT(PLANE_ANGLE_MEASURE(0.0174532925),#373);
#373=(
NAMED_UNIT(*)
PLANE_ANGLE_UNIT()
SI_UNIT($,.RADIAN.)
);
#374=(
LENGTH_UNIT()
NAMED_UNIT(*)
SI_UNIT(.MILLI.,.METRE.)
);
ENDSEC;
END-ISO-10303-21;
