ISO-10303-21;
HEADER;
/* Generated by software containing ST-Developer
 * from STEP Tools, Inc. (www.steptools.com) 
 */
/* OPTION: using custom schema-name function */

FILE_DESCRIPTION(
/* description */ (''),
/* implementation_level */ '2;1');

FILE_NAME(
/* name */ 'AEKR-D2.25X10 XC.. 050204.stp',
/* time_stamp */ '2023-10-27T17:20:11+03:00',
/* author */ (''),
/* organization */ (''),
/* preprocessor_version */ 'ST-DEVELOPER v19.4',
/* originating_system */ 'SIEMENS PLM Software NX2306.3001',
/* authorisation */ '');

FILE_SCHEMA (('AUTOMOTIVE_DESIGN { 1 0 10303 214 3 1 1 1 }'));
ENDSEC;

DATA;
#10=SHAPE_REPRESENTATION_RELATIONSHIP('None',
'relationship between AEKR-D2.25X10 XC.. 050204_XT-None and AEKR-D2.25
X10 XC.. 050204_XT-None',#22,#11);
#11=ADVANCED_BREP_SHAPE_REPRESENTATION(
'AEKR-D2.25X10 XC.. 050204_XT-None',(#52,#24),#423);
#12=SHAPE_DEFINITION_REPRESENTATION(#13,#22);
#13=PRODUCT_DEFINITION_SHAPE('','',#14);
#14=PRODUCT_DEFINITION(' ','',#16,#15);
#15=PRODUCT_DEFINITION_CONTEXT('part definition',#21,'design');
#16=PRODUCT_DEFINITION_FORMATION_WITH_SPECIFIED_SOURCE(' ',' ',#18,
 .NOT_KNOWN.);
#17=PRODUCT_RELATED_PRODUCT_CATEGORY('part','',(#18));
#18=PRODUCT('AEKR-D2.25X10 XC.. 050204_XT',
'AEKR-D2.25X10 XC.. 050204_XT',' ',(#19));
#19=PRODUCT_CONTEXT(' ',#21,'mechanical');
#20=APPLICATION_PROTOCOL_DEFINITION('international standard',
'automotive_design',2010,#21);
#21=APPLICATION_CONTEXT(
'core data for automotive mechanical design processes');
#22=SHAPE_REPRESENTATION('AEKR-D2.25X10 XC.. 050204_XT-None',(#248),#423);
#23=DRAUGHTING_PRE_DEFINED_COLOUR('yellow');
#24=BREP_WITH_VOIDS('',#54,(#25));
#25=ORIENTED_CLOSED_SHELL('',*,#55,.F.);
#26=SURFACE_OF_REVOLUTION('',#34,#30);
#27=SURFACE_OF_REVOLUTION('',#243,#31);
#28=SURFACE_OF_REVOLUTION('',#244,#32);
#29=SURFACE_OF_REVOLUTION('',#247,#33);
#30=AXIS1_PLACEMENT('',#410,#346);
#31=AXIS1_PLACEMENT('',#412,#349);
#32=AXIS1_PLACEMENT('',#414,#352);
#33=AXIS1_PLACEMENT('',#422,#363);
#34=LINE('',#409,#35);
#35=VECTOR('',#345,5.00401190791157);
#36=PRESENTATION_LAYER_ASSIGNMENT('1','Layer 1',(#52,#24));
#37=STYLED_ITEM('',(#39),#52);
#38=STYLED_ITEM('',(#40),#24);
#39=PRESENTATION_STYLE_ASSIGNMENT((#41));
#40=PRESENTATION_STYLE_ASSIGNMENT((#42));
#41=SURFACE_STYLE_USAGE(.BOTH.,#43);
#42=SURFACE_STYLE_USAGE(.BOTH.,#44);
#43=SURFACE_SIDE_STYLE('',(#45));
#44=SURFACE_SIDE_STYLE('',(#46));
#45=SURFACE_STYLE_FILL_AREA(#47);
#46=SURFACE_STYLE_FILL_AREA(#48);
#47=FILL_AREA_STYLE('',(#49));
#48=FILL_AREA_STYLE('',(#50));
#49=FILL_AREA_STYLE_COLOUR('',#51);
#50=FILL_AREA_STYLE_COLOUR('',#23);
#51=COLOUR_RGB('light gray',0.8,0.8,0.8);
#52=MANIFOLD_SOLID_BREP('',#53);
#53=CLOSED_SHELL('',(#93,#94,#95,#96,#97,#98,#99,#100,#101,#102,#103,#104));
#54=CLOSED_SHELL('',(#105,#106,#107,#108,#109));
#55=CLOSED_SHELL('',(#110,#111,#112));
#56=CYLINDRICAL_SURFACE('',#256,4.5);
#57=CYLINDRICAL_SURFACE('',#262,8.);
#58=CYLINDRICAL_SURFACE('',#271,6.);
#59=CONICAL_SURFACE('',#254,4.5,2.99999999999964);
#60=TOROIDAL_SURFACE('',#252,3.98153355821401,0.4);
#61=TOROIDAL_SURFACE('',#258,8.,3.5);
#62=TOROIDAL_SURFACE('',#260,7.2,0.8);
#63=TOROIDAL_SURFACE('',#264,7.5,0.5);
#64=TOROIDAL_SURFACE('',#270,5.,1.);
#65=FACE_BOUND('',#127,.T.);
#66=FACE_BOUND('',#128,.T.);
#67=FACE_BOUND('',#129,.T.);
#68=FACE_BOUND('',#130,.T.);
#69=FACE_BOUND('',#131,.T.);
#70=FACE_BOUND('',#132,.T.);
#71=FACE_BOUND('',#133,.T.);
#72=FACE_BOUND('',#134,.T.);
#73=FACE_BOUND('',#135,.T.);
#74=FACE_BOUND('',#136,.T.);
#75=FACE_BOUND('',#137,.T.);
#76=FACE_BOUND('',#138,.T.);
#77=FACE_BOUND('',#139,.T.);
#78=FACE_BOUND('',#140,.T.);
#79=FACE_BOUND('',#141,.T.);
#80=FACE_BOUND('',#142,.T.);
#81=FACE_BOUND('',#144,.T.);
#82=FACE_BOUND('',#145,.T.);
#83=FACE_BOUND('',#146,.T.);
#84=FACE_BOUND('',#147,.T.);
#85=FACE_BOUND('',#150,.T.);
#86=FACE_BOUND('',#151,.T.);
#87=FACE_BOUND('',#152,.T.);
#88=FACE_BOUND('',#153,.T.);
#89=FACE_BOUND('',#154,.T.);
#90=FACE_BOUND('',#155,.T.);
#91=FACE_BOUND('',#158,.F.);
#92=FACE_BOUND('',#159,.F.);
#93=ADVANCED_FACE('',(#120),#113,.F.);
#94=ADVANCED_FACE('',(#65,#66),#60,.T.);
#95=ADVANCED_FACE('',(#67,#68),#59,.T.);
#96=ADVANCED_FACE('',(#69,#70),#56,.T.);
#97=ADVANCED_FACE('',(#71,#72),#61,.F.);
#98=ADVANCED_FACE('',(#73,#74),#62,.T.);
#99=ADVANCED_FACE('',(#75,#76),#57,.T.);
#100=ADVANCED_FACE('',(#77,#78),#63,.T.);
#101=ADVANCED_FACE('',(#79,#80),#114,.F.);
#102=ADVANCED_FACE('',(#121),#115,.F.);
#103=ADVANCED_FACE('',(#81,#82),#64,.T.);
#104=ADVANCED_FACE('',(#83,#84),#58,.T.);
#105=ADVANCED_FACE('',(#122),#116,.T.);
#106=ADVANCED_FACE('',(#123),#117,.F.);
#107=ADVANCED_FACE('',(#85,#86),#26,.T.);
#108=ADVANCED_FACE('',(#87,#88),#27,.T.);
#109=ADVANCED_FACE('',(#89,#90),#28,.T.);
#110=ADVANCED_FACE('',(#124),#118,.T.);
#111=ADVANCED_FACE('',(#125),#119,.F.);
#112=ADVANCED_FACE('',(#91,#92),#29,.F.);
#113=PLANE('',#250);
#114=PLANE('',#266);
#115=PLANE('',#268);
#116=PLANE('',#273);
#117=PLANE('',#275);
#118=PLANE('',#281);
#119=PLANE('',#283);
#120=FACE_OUTER_BOUND('',#126,.T.);
#121=FACE_OUTER_BOUND('',#143,.T.);
#122=FACE_OUTER_BOUND('',#148,.T.);
#123=FACE_OUTER_BOUND('',#149,.T.);
#124=FACE_OUTER_BOUND('',#156,.F.);
#125=FACE_OUTER_BOUND('',#157,.F.);
#126=EDGE_LOOP('',(#160));
#127=EDGE_LOOP('',(#161));
#128=EDGE_LOOP('',(#162));
#129=EDGE_LOOP('',(#163));
#130=EDGE_LOOP('',(#164));
#131=EDGE_LOOP('',(#165));
#132=EDGE_LOOP('',(#166));
#133=EDGE_LOOP('',(#167));
#134=EDGE_LOOP('',(#168));
#135=EDGE_LOOP('',(#169));
#136=EDGE_LOOP('',(#170));
#137=EDGE_LOOP('',(#171));
#138=EDGE_LOOP('',(#172));
#139=EDGE_LOOP('',(#173));
#140=EDGE_LOOP('',(#174));
#141=EDGE_LOOP('',(#175));
#142=EDGE_LOOP('',(#176));
#143=EDGE_LOOP('',(#177));
#144=EDGE_LOOP('',(#178));
#145=EDGE_LOOP('',(#179));
#146=EDGE_LOOP('',(#180));
#147=EDGE_LOOP('',(#181));
#148=EDGE_LOOP('',(#182));
#149=EDGE_LOOP('',(#183));
#150=EDGE_LOOP('',(#184));
#151=EDGE_LOOP('',(#185));
#152=EDGE_LOOP('',(#186));
#153=EDGE_LOOP('',(#187));
#154=EDGE_LOOP('',(#188));
#155=EDGE_LOOP('',(#189));
#156=EDGE_LOOP('',(#190));
#157=EDGE_LOOP('',(#191));
#158=EDGE_LOOP('',(#192));
#159=EDGE_LOOP('',(#193));
#160=ORIENTED_EDGE('',*,*,#211,.T.);
#161=ORIENTED_EDGE('',*,*,#211,.F.);
#162=ORIENTED_EDGE('',*,*,#212,.T.);
#163=ORIENTED_EDGE('',*,*,#212,.F.);
#164=ORIENTED_EDGE('',*,*,#213,.T.);
#165=ORIENTED_EDGE('',*,*,#213,.F.);
#166=ORIENTED_EDGE('',*,*,#214,.T.);
#167=ORIENTED_EDGE('',*,*,#214,.F.);
#168=ORIENTED_EDGE('',*,*,#215,.T.);
#169=ORIENTED_EDGE('',*,*,#215,.F.);
#170=ORIENTED_EDGE('',*,*,#216,.T.);
#171=ORIENTED_EDGE('',*,*,#216,.F.);
#172=ORIENTED_EDGE('',*,*,#217,.T.);
#173=ORIENTED_EDGE('',*,*,#217,.F.);
#174=ORIENTED_EDGE('',*,*,#218,.T.);
#175=ORIENTED_EDGE('',*,*,#219,.F.);
#176=ORIENTED_EDGE('',*,*,#218,.F.);
#177=ORIENTED_EDGE('',*,*,#220,.F.);
#178=ORIENTED_EDGE('',*,*,#221,.F.);
#179=ORIENTED_EDGE('',*,*,#220,.T.);
#180=ORIENTED_EDGE('',*,*,#221,.T.);
#181=ORIENTED_EDGE('',*,*,#219,.T.);
#182=ORIENTED_EDGE('',*,*,#222,.T.);
#183=ORIENTED_EDGE('',*,*,#223,.F.);
#184=ORIENTED_EDGE('',*,*,#224,.F.);
#185=ORIENTED_EDGE('',*,*,#225,.T.);
#186=ORIENTED_EDGE('',*,*,#222,.F.);
#187=ORIENTED_EDGE('',*,*,#224,.T.);
#188=ORIENTED_EDGE('',*,*,#225,.F.);
#189=ORIENTED_EDGE('',*,*,#223,.T.);
#190=ORIENTED_EDGE('',*,*,#226,.F.);
#191=ORIENTED_EDGE('',*,*,#227,.T.);
#192=ORIENTED_EDGE('',*,*,#227,.F.);
#193=ORIENTED_EDGE('',*,*,#226,.T.);
#194=VERTEX_POINT('',#366);
#195=VERTEX_POINT('',#369);
#196=VERTEX_POINT('',#372);
#197=VERTEX_POINT('',#375);
#198=VERTEX_POINT('',#378);
#199=VERTEX_POINT('',#381);
#200=VERTEX_POINT('',#384);
#201=VERTEX_POINT('',#387);
#202=VERTEX_POINT('',#390);
#203=VERTEX_POINT('',#393);
#204=VERTEX_POINT('',#396);
#205=VERTEX_POINT('',#400);
#206=VERTEX_POINT('',#403);
#207=VERTEX_POINT('',#406);
#208=VERTEX_POINT('',#408);
#209=VERTEX_POINT('',#416);
#210=VERTEX_POINT('',#419);
#211=EDGE_CURVE('',#194,#194,#228,.T.);
#212=EDGE_CURVE('',#195,#195,#229,.T.);
#213=EDGE_CURVE('',#196,#196,#230,.T.);
#214=EDGE_CURVE('',#197,#197,#231,.T.);
#215=EDGE_CURVE('',#198,#198,#232,.T.);
#216=EDGE_CURVE('',#199,#199,#233,.T.);
#217=EDGE_CURVE('',#200,#200,#234,.T.);
#218=EDGE_CURVE('',#201,#201,#235,.T.);
#219=EDGE_CURVE('',#202,#202,#236,.T.);
#220=EDGE_CURVE('',#203,#203,#237,.T.);
#221=EDGE_CURVE('',#204,#204,#238,.T.);
#222=EDGE_CURVE('',#205,#205,#239,.T.);
#223=EDGE_CURVE('',#206,#206,#240,.T.);
#224=EDGE_CURVE('',#207,#207,#241,.T.);
#225=EDGE_CURVE('',#208,#208,#242,.T.);
#226=EDGE_CURVE('',#209,#209,#245,.T.);
#227=EDGE_CURVE('',#210,#210,#246,.T.);
#228=CIRCLE('',#249,3.98153355821401);
#229=CIRCLE('',#251,4.38098537211583);
#230=CIRCLE('',#253,4.5);
#231=CIRCLE('',#255,4.5);
#232=CIRCLE('',#257,7.34883720930232);
#233=CIRCLE('',#259,8.);
#234=CIRCLE('',#261,8.);
#235=CIRCLE('',#263,7.5);
#236=CIRCLE('',#265,6.);
#237=CIRCLE('',#267,5.);
#238=CIRCLE('',#269,6.);
#239=CIRCLE('',#272,4.34329593461687);
#240=CIRCLE('',#274,4.61282383230896);
#241=CIRCLE('',#276,4.64485657000972);
#242=CIRCLE('',#277,4.99962972387699);
#243=CIRCLE('',#278,0.301772351277676);
#244=CIRCLE('',#279,0.4);
#245=CIRCLE('',#280,1.11975224799539);
#246=CIRCLE('',#282,0.935765141021658);
#247=CIRCLE('',#284,0.301772351277676);
#248=AXIS2_PLACEMENT_3D('',#364,#285,#286);
#249=AXIS2_PLACEMENT_3D('',#365,#287,#288);
#250=AXIS2_PLACEMENT_3D('',#367,#289,#290);
#251=AXIS2_PLACEMENT_3D('',#368,#291,#292);
#252=AXIS2_PLACEMENT_3D('',#370,#293,#294);
#253=AXIS2_PLACEMENT_3D('',#371,#295,#296);
#254=AXIS2_PLACEMENT_3D('',#373,#297,#298);
#255=AXIS2_PLACEMENT_3D('',#374,#299,#300);
#256=AXIS2_PLACEMENT_3D('',#376,#301,#302);
#257=AXIS2_PLACEMENT_3D('',#377,#303,#304);
#258=AXIS2_PLACEMENT_3D('',#379,#305,#306);
#259=AXIS2_PLACEMENT_3D('',#380,#307,#308);
#260=AXIS2_PLACEMENT_3D('',#382,#309,#310);
#261=AXIS2_PLACEMENT_3D('',#383,#311,#312);
#262=AXIS2_PLACEMENT_3D('',#385,#313,#314);
#263=AXIS2_PLACEMENT_3D('',#386,#315,#316);
#264=AXIS2_PLACEMENT_3D('',#388,#317,#318);
#265=AXIS2_PLACEMENT_3D('',#389,#319,#320);
#266=AXIS2_PLACEMENT_3D('',#391,#321,#322);
#267=AXIS2_PLACEMENT_3D('',#392,#323,#324);
#268=AXIS2_PLACEMENT_3D('',#394,#325,#326);
#269=AXIS2_PLACEMENT_3D('',#395,#327,#328);
#270=AXIS2_PLACEMENT_3D('',#397,#329,#330);
#271=AXIS2_PLACEMENT_3D('',#398,#331,#332);
#272=AXIS2_PLACEMENT_3D('',#399,#333,#334);
#273=AXIS2_PLACEMENT_3D('',#401,#335,#336);
#274=AXIS2_PLACEMENT_3D('',#402,#337,#338);
#275=AXIS2_PLACEMENT_3D('',#404,#339,#340);
#276=AXIS2_PLACEMENT_3D('',#405,#341,#342);
#277=AXIS2_PLACEMENT_3D('',#407,#343,#344);
#278=AXIS2_PLACEMENT_3D('',#411,#347,#348);
#279=AXIS2_PLACEMENT_3D('',#413,#350,#351);
#280=AXIS2_PLACEMENT_3D('',#415,#353,#354);
#281=AXIS2_PLACEMENT_3D('',#417,#355,#356);
#282=AXIS2_PLACEMENT_3D('',#418,#357,#358);
#283=AXIS2_PLACEMENT_3D('',#420,#359,#360);
#284=AXIS2_PLACEMENT_3D('',#421,#361,#362);
#285=DIRECTION('',(0.,0.,1.));
#286=DIRECTION('',(1.,0.,0.));
#287=DIRECTION('',(-1.,0.,0.));
#288=DIRECTION('',(0.,0.,1.));
#289=DIRECTION('',(1.,0.,0.));
#290=DIRECTION('',(0.,0.,-1.));
#291=DIRECTION('',(-1.,0.,0.));
#292=DIRECTION('',(0.,0.,1.));
#293=DIRECTION('',(-1.,0.,0.));
#294=DIRECTION('',(0.,0.,1.));
#295=DIRECTION('',(-1.,0.,0.));
#296=DIRECTION('',(0.,0.,1.));
#297=DIRECTION('',(1.,0.,0.));
#298=DIRECTION('',(-1.90519149779707E-15,0.,-1.));
#299=DIRECTION('',(-1.,0.,0.));
#300=DIRECTION('',(0.,0.,1.));
#301=DIRECTION('',(-1.,0.,0.));
#302=DIRECTION('',(0.,0.,1.));
#303=DIRECTION('',(-1.,0.,0.));
#304=DIRECTION('',(0.,0.,1.));
#305=DIRECTION('',(-1.,0.,0.));
#306=DIRECTION('',(0.,0.,1.));
#307=DIRECTION('',(-1.,0.,0.));
#308=DIRECTION('',(0.,0.,1.));
#309=DIRECTION('',(-1.,0.,0.));
#310=DIRECTION('',(0.,0.,1.));
#311=DIRECTION('',(-1.,0.,0.));
#312=DIRECTION('',(0.,0.,1.));
#313=DIRECTION('',(-1.,0.,0.));
#314=DIRECTION('',(0.,0.,1.));
#315=DIRECTION('',(-1.,0.,0.));
#316=DIRECTION('',(0.,0.,1.));
#317=DIRECTION('',(-1.,0.,0.));
#318=DIRECTION('',(0.,0.,1.));
#319=DIRECTION('',(1.,0.,0.));
#320=DIRECTION('',(0.,0.,1.));
#321=DIRECTION('',(-1.,0.,0.));
#322=DIRECTION('',(0.,0.,1.));
#323=DIRECTION('',(-1.,0.,0.));
#324=DIRECTION('',(0.,0.,1.));
#325=DIRECTION('',(-1.,0.,0.));
#326=DIRECTION('',(0.,0.,1.));
#327=DIRECTION('',(-1.,0.,0.));
#328=DIRECTION('',(0.,0.,1.));
#329=DIRECTION('',(-1.,0.,0.));
#330=DIRECTION('',(0.,0.,1.));
#331=DIRECTION('',(-1.,0.,0.));
#332=DIRECTION('',(0.,0.,1.));
#333=DIRECTION('',(1.,0.,0.));
#334=DIRECTION('',(0.,0.,-1.));
#335=DIRECTION('',(1.,0.,0.));
#336=DIRECTION('',(0.,0.,-1.));
#337=DIRECTION('',(1.,0.,0.));
#338=DIRECTION('',(0.,0.,-1.));
#339=DIRECTION('',(1.,0.,0.));
#340=DIRECTION('',(0.,0.,-1.));
#341=DIRECTION('',(1.,0.,0.));
#342=DIRECTION('',(0.,0.,-1.));
#343=DIRECTION('',(1.,0.,0.));
#344=DIRECTION('',(0.,0.,-1.));
#345=DIRECTION('',(0.997409772877263,0.0711933663283402,0.0102591208085528));
#346=DIRECTION('',(1.,0.,0.));
#347=DIRECTION('',(5.42101086242752E-20,-0.142628933705512,0.989776230907789));
#348=DIRECTION('',(0.,-0.989776230907789,-0.142628933705512));
#349=DIRECTION('',(1.,0.,0.));
#350=DIRECTION('',(-5.55111512312578E-17,-0.142628933705512,0.989776230907789));
#351=DIRECTION('',(-0.999847695156391,-0.0172739770637649,-0.00248921812074496));
#352=DIRECTION('',(1.,0.,0.));
#353=DIRECTION('',(1.,0.,0.));
#354=DIRECTION('',(0.,0.,-1.));
#355=DIRECTION('',(1.,0.,0.));
#356=DIRECTION('',(0.,0.,-1.));
#357=DIRECTION('',(1.,0.,0.));
#358=DIRECTION('',(0.,0.,-1.));
#359=DIRECTION('',(1.,0.,0.));
#360=DIRECTION('',(0.,0.,-1.));
#361=DIRECTION('',(5.42101086242752E-20,-0.142628933705512,0.989776230907789));
#362=DIRECTION('',(0.,-0.989776230907789,-0.142628933705512));
#363=DIRECTION('',(1.,0.,0.));
#364=CARTESIAN_POINT('',(0.,0.,0.));
#365=CARTESIAN_POINT('',(0.35,0.,0.));
#366=CARTESIAN_POINT('',(0.35,0.,3.98153355821401));
#367=CARTESIAN_POINT('',(0.35,0.,0.));
#368=CARTESIAN_POINT('',(0.729065617502825,0.,0.));
#369=CARTESIAN_POINT('',(0.729065617502825,0.,4.38098537211583));
#370=CARTESIAN_POINT('',(0.75,0.,0.));
#371=CARTESIAN_POINT('',(3.,0.,0.));
#372=CARTESIAN_POINT('',(3.,0.,4.5));
#373=CARTESIAN_POINT('',(3.,0.,0.));
#374=CARTESIAN_POINT('',(22.,0.,0.));
#375=CARTESIAN_POINT('',(22.,0.,4.5));
#376=CARTESIAN_POINT('',(0.,0.,0.));
#377=CARTESIAN_POINT('',(25.4388932841848,0.,0.));
#378=CARTESIAN_POINT('',(25.4388932841848,0.,7.34883720930232));
#379=CARTESIAN_POINT('',(22.,0.,0.));
#380=CARTESIAN_POINT('',(26.2249260348555,0.,0.));
#381=CARTESIAN_POINT('',(26.2249260348555,0.,8.));
#382=CARTESIAN_POINT('',(26.2249260348555,0.,0.));
#383=CARTESIAN_POINT('',(27.,0.,0.));
#384=CARTESIAN_POINT('',(27.,0.,8.));
#385=CARTESIAN_POINT('',(0.,0.,0.));
#386=CARTESIAN_POINT('',(27.5,0.,0.));
#387=CARTESIAN_POINT('',(27.5,0.,7.5));
#388=CARTESIAN_POINT('',(27.,0.,0.));
#389=CARTESIAN_POINT('',(27.5,0.,0.));
#390=CARTESIAN_POINT('',(27.5,0.,6.));
#391=CARTESIAN_POINT('',(27.5,7.5,0.));
#392=CARTESIAN_POINT('',(69.5,0.,0.));
#393=CARTESIAN_POINT('',(69.5,0.,5.));
#394=CARTESIAN_POINT('',(69.5,5.,0.));
#395=CARTESIAN_POINT('',(68.5,0.,0.));
#396=CARTESIAN_POINT('',(68.5,0.,6.));
#397=CARTESIAN_POINT('',(68.5,0.,0.));
#398=CARTESIAN_POINT('',(0.,0.,0.));
#399=CARTESIAN_POINT('',(5.69791760384516,0.,0.));
#400=CARTESIAN_POINT('',(5.69791760384516,0.,-4.34329593461687));
#401=CARTESIAN_POINT('',(5.69791760384516,0.,0.));
#402=CARTESIAN_POINT('',(6.09174250876871E-5,0.,0.));
#403=CARTESIAN_POINT('',(6.09174250876871E-5,0.,-4.61282383230896));
#404=CARTESIAN_POINT('',(6.09174250876871E-5,0.,0.));
#405=CARTESIAN_POINT('',(5.41198475853002,0.,0.));
#406=CARTESIAN_POINT('',(5.41198475853002,0.,-4.64485657000972));
#407=CARTESIAN_POINT('',(0.420934377984822,0.,0.));
#408=CARTESIAN_POINT('',(0.420934377984822,0.,-4.99962972387699));
#409=CARTESIAN_POINT('',(0.420934377984822,-4.99860812669003,0.101065185215976));
#410=CARTESIAN_POINT('',(0.,0.,0.));
#411=CARTESIAN_POINT('',(5.39619121395825,-4.34407791366931,0.195384429754274));
#412=CARTESIAN_POINT('',(0.,0.,0.));
#413=CARTESIAN_POINT('',(0.399999995487645,-4.603240215897,0.158038571499526));
#414=CARTESIAN_POINT('',(0.,0.,0.));
#415=CARTESIAN_POINT('',(0.296891227198615,0.,0.));
#416=CARTESIAN_POINT('',(0.296891227198615,0.,-1.11975224799539));
#417=CARTESIAN_POINT('',(0.296891227198615,0.,0.));
#418=CARTESIAN_POINT('',(0.0109583833400937,0.,0.));
#419=CARTESIAN_POINT('',(0.0109583833400937,0.,-0.935765141021658));
#420=CARTESIAN_POINT('',(0.0109583833400937,0.,0.));
#421=CARTESIAN_POINT('',(0.312684773227003,0.34790330292791,0.871509251700922));
#422=CARTESIAN_POINT('',(0.,0.,0.));
#423=(
GEOMETRIC_REPRESENTATION_CONTEXT(3)
GLOBAL_UNCERTAINTY_ASSIGNED_CONTEXT((#424))
GLOBAL_UNIT_ASSIGNED_CONTEXT((#430,#426,#425))
REPRESENTATION_CONTEXT('AEKR-D2.25X10 XC.','TOP_LEVEL_ASSEMBLY_PART')
);
#424=UNCERTAINTY_MEASURE_WITH_UNIT(LENGTH_MEASURE(2.E-5),#430,
'DISTANCE_ACCURACY_VALUE','Maximum Tolerance applied to model');
#425=(
NAMED_UNIT(*)
SI_UNIT($,.STERADIAN.)
SOLID_ANGLE_UNIT()
);
#426=(
CONVERSION_BASED_UNIT('DEGREE',#428)
NAMED_UNIT(#427)
PLANE_ANGLE_UNIT()
);
#427=DIMENSIONAL_EXPONENTS(0.,0.,0.,0.,0.,0.,0.);
#428=PLANE_ANGLE_MEASURE_WITH_UNIT(PLANE_ANGLE_MEASURE(0.0174532925),#429);
#429=(
NAMED_UNIT(*)
PLANE_ANGLE_UNIT()
SI_UNIT($,.RADIAN.)
);
#430=(
LENGTH_UNIT()
NAMED_UNIT(*)
SI_UNIT(.MILLI.,.METRE.)
);
ENDSEC;
END-ISO-10303-21;
