ISO-10303-21;
HEADER;
/* Generated by software containing ST-Developer
 * from STEP Tools, Inc. (www.steptools.com) 
 */
/* OPTION: using custom schema-name function */

FILE_DESCRIPTION(
/* description */ (''),
/* implementation_level */ '2;1');

FILE_NAME(
/* name */ 'AEM90-4N06-D16-W16-L160-Z02.stp',
/* time_stamp */ '2023-10-02T09:06:49+03:00',
/* author */ (''),
/* organization */ (''),
/* preprocessor_version */ 'ST-DEVELOPER v19.4',
/* originating_system */ 'SIEMENS PLM Software NX2306.3001',
/* authorisation */ '');

FILE_SCHEMA (('AUTOMOTIVE_DESIGN { 1 0 10303 214 3 1 1 1 }'));
ENDSEC;

DATA;
#10=SHAPE_REPRESENTATION_RELATIONSHIP('None',
'relationship between AEM90-4N06-D16-W16-L160-Z02-None and AEM90-4N06-
D16-W16-L160-Z02-None',#22,#11);
#11=ADVANCED_BREP_SHAPE_REPRESENTATION(
'AEM90-4N06-D16-W16-L160-Z02-None',(#170,#171),#628);
#12=SHAPE_DEFINITION_REPRESENTATION(#13,#22);
#13=PRODUCT_DEFINITION_SHAPE('','',#14);
#14=PRODUCT_DEFINITION(' ','',#16,#15);
#15=PRODUCT_DEFINITION_CONTEXT('part definition',#21,'design');
#16=PRODUCT_DEFINITION_FORMATION_WITH_SPECIFIED_SOURCE(' ',' ',#18,
 .NOT_KNOWN.);
#17=PRODUCT_RELATED_PRODUCT_CATEGORY('part','',(#18));
#18=PRODUCT('AEM90-4N06-D16-W16-L160-Z02','AEM90-4N06-D16-W16-L160-Z02',
' ',(#19));
#19=PRODUCT_CONTEXT(' ',#21,'mechanical');
#20=APPLICATION_PROTOCOL_DEFINITION('international standard',
'automotive_design',2010,#21);
#21=APPLICATION_CONTEXT(
'core data for automotive mechanical design processes');
#22=SHAPE_REPRESENTATION('AEM90-4N06-D16-W16-L160-Z02-None',(#414),#628);
#23=DRAUGHTING_PRE_DEFINED_COLOUR('yellow');
#24=LINE('',#604,#28);
#25=LINE('',#612,#29);
#26=LINE('',#620,#30);
#27=LINE('',#626,#31);
#28=VECTOR('',#525,5.46558239735216);
#29=VECTOR('',#534,5.46558239735218);
#30=VECTOR('',#543,5.46558239735219);
#31=VECTOR('',#550,5.46558239735218);
#32=SURFACE_OF_REVOLUTION('',#404,#40);
#33=SURFACE_OF_REVOLUTION('',#24,#41);
#34=SURFACE_OF_REVOLUTION('',#407,#42);
#35=SURFACE_OF_REVOLUTION('',#25,#43);
#36=SURFACE_OF_REVOLUTION('',#410,#44);
#37=SURFACE_OF_REVOLUTION('',#26,#45);
#38=SURFACE_OF_REVOLUTION('',#413,#46);
#39=SURFACE_OF_REVOLUTION('',#27,#47);
#40=AXIS1_PLACEMENT('',#601,#522);
#41=AXIS1_PLACEMENT('',#605,#526);
#42=AXIS1_PLACEMENT('',#609,#531);
#43=AXIS1_PLACEMENT('',#613,#535);
#44=AXIS1_PLACEMENT('',#617,#540);
#45=AXIS1_PLACEMENT('',#621,#544);
#46=AXIS1_PLACEMENT('',#625,#549);
#47=AXIS1_PLACEMENT('',#627,#551);
#48=OVER_RIDING_STYLED_ITEM('',(#67),#187,#64);
#49=OVER_RIDING_STYLED_ITEM('',(#68),#188,#64);
#50=OVER_RIDING_STYLED_ITEM('',(#69),#189,#64);
#51=OVER_RIDING_STYLED_ITEM('',(#70),#190,#64);
#52=OVER_RIDING_STYLED_ITEM('',(#71),#191,#64);
#53=OVER_RIDING_STYLED_ITEM('',(#72),#192,#64);
#54=OVER_RIDING_STYLED_ITEM('',(#73),#193,#64);
#55=OVER_RIDING_STYLED_ITEM('',(#74),#194,#64);
#56=OVER_RIDING_STYLED_ITEM('',(#75),#195,#64);
#57=OVER_RIDING_STYLED_ITEM('',(#76),#196,#64);
#58=OVER_RIDING_STYLED_ITEM('',(#77),#197,#64);
#59=OVER_RIDING_STYLED_ITEM('',(#78),#198,#64);
#60=OVER_RIDING_STYLED_ITEM('',(#79),#199,#64);
#61=OVER_RIDING_STYLED_ITEM('',(#80),#200,#64);
#62=OVER_RIDING_STYLED_ITEM('',(#81),#201,#64);
#63=PRESENTATION_LAYER_ASSIGNMENT('1','Layer 1',(#170,#171));
#64=STYLED_ITEM('',(#66),#170);
#65=STYLED_ITEM('',(#82),#171);
#66=PRESENTATION_STYLE_ASSIGNMENT((#83));
#67=PRESENTATION_STYLE_ASSIGNMENT((#84));
#68=PRESENTATION_STYLE_ASSIGNMENT((#85));
#69=PRESENTATION_STYLE_ASSIGNMENT((#86));
#70=PRESENTATION_STYLE_ASSIGNMENT((#87));
#71=PRESENTATION_STYLE_ASSIGNMENT((#88));
#72=PRESENTATION_STYLE_ASSIGNMENT((#89));
#73=PRESENTATION_STYLE_ASSIGNMENT((#90));
#74=PRESENTATION_STYLE_ASSIGNMENT((#91));
#75=PRESENTATION_STYLE_ASSIGNMENT((#92));
#76=PRESENTATION_STYLE_ASSIGNMENT((#93));
#77=PRESENTATION_STYLE_ASSIGNMENT((#94));
#78=PRESENTATION_STYLE_ASSIGNMENT((#95));
#79=PRESENTATION_STYLE_ASSIGNMENT((#96));
#80=PRESENTATION_STYLE_ASSIGNMENT((#97));
#81=PRESENTATION_STYLE_ASSIGNMENT((#98));
#82=PRESENTATION_STYLE_ASSIGNMENT((#99));
#83=SURFACE_STYLE_USAGE(.BOTH.,#100);
#84=SURFACE_STYLE_USAGE(.BOTH.,#101);
#85=SURFACE_STYLE_USAGE(.BOTH.,#102);
#86=SURFACE_STYLE_USAGE(.BOTH.,#103);
#87=SURFACE_STYLE_USAGE(.BOTH.,#104);
#88=SURFACE_STYLE_USAGE(.BOTH.,#105);
#89=SURFACE_STYLE_USAGE(.BOTH.,#106);
#90=SURFACE_STYLE_USAGE(.BOTH.,#107);
#91=SURFACE_STYLE_USAGE(.BOTH.,#108);
#92=SURFACE_STYLE_USAGE(.BOTH.,#109);
#93=SURFACE_STYLE_USAGE(.BOTH.,#110);
#94=SURFACE_STYLE_USAGE(.BOTH.,#111);
#95=SURFACE_STYLE_USAGE(.BOTH.,#112);
#96=SURFACE_STYLE_USAGE(.BOTH.,#113);
#97=SURFACE_STYLE_USAGE(.BOTH.,#114);
#98=SURFACE_STYLE_USAGE(.BOTH.,#115);
#99=SURFACE_STYLE_USAGE(.BOTH.,#116);
#100=SURFACE_SIDE_STYLE('',(#117));
#101=SURFACE_SIDE_STYLE('',(#118));
#102=SURFACE_SIDE_STYLE('',(#119));
#103=SURFACE_SIDE_STYLE('',(#120));
#104=SURFACE_SIDE_STYLE('',(#121));
#105=SURFACE_SIDE_STYLE('',(#122));
#106=SURFACE_SIDE_STYLE('',(#123));
#107=SURFACE_SIDE_STYLE('',(#124));
#108=SURFACE_SIDE_STYLE('',(#125));
#109=SURFACE_SIDE_STYLE('',(#126));
#110=SURFACE_SIDE_STYLE('',(#127));
#111=SURFACE_SIDE_STYLE('',(#128));
#112=SURFACE_SIDE_STYLE('',(#129));
#113=SURFACE_SIDE_STYLE('',(#130));
#114=SURFACE_SIDE_STYLE('',(#131));
#115=SURFACE_SIDE_STYLE('',(#132));
#116=SURFACE_SIDE_STYLE('',(#133));
#117=SURFACE_STYLE_FILL_AREA(#134);
#118=SURFACE_STYLE_FILL_AREA(#135);
#119=SURFACE_STYLE_FILL_AREA(#136);
#120=SURFACE_STYLE_FILL_AREA(#137);
#121=SURFACE_STYLE_FILL_AREA(#138);
#122=SURFACE_STYLE_FILL_AREA(#139);
#123=SURFACE_STYLE_FILL_AREA(#140);
#124=SURFACE_STYLE_FILL_AREA(#141);
#125=SURFACE_STYLE_FILL_AREA(#142);
#126=SURFACE_STYLE_FILL_AREA(#143);
#127=SURFACE_STYLE_FILL_AREA(#144);
#128=SURFACE_STYLE_FILL_AREA(#145);
#129=SURFACE_STYLE_FILL_AREA(#146);
#130=SURFACE_STYLE_FILL_AREA(#147);
#131=SURFACE_STYLE_FILL_AREA(#148);
#132=SURFACE_STYLE_FILL_AREA(#149);
#133=SURFACE_STYLE_FILL_AREA(#150);
#134=FILL_AREA_STYLE('',(#151));
#135=FILL_AREA_STYLE('',(#152));
#136=FILL_AREA_STYLE('',(#153));
#137=FILL_AREA_STYLE('',(#154));
#138=FILL_AREA_STYLE('',(#155));
#139=FILL_AREA_STYLE('',(#156));
#140=FILL_AREA_STYLE('',(#157));
#141=FILL_AREA_STYLE('',(#158));
#142=FILL_AREA_STYLE('',(#159));
#143=FILL_AREA_STYLE('',(#160));
#144=FILL_AREA_STYLE('',(#161));
#145=FILL_AREA_STYLE('',(#162));
#146=FILL_AREA_STYLE('',(#163));
#147=FILL_AREA_STYLE('',(#164));
#148=FILL_AREA_STYLE('',(#165));
#149=FILL_AREA_STYLE('',(#166));
#150=FILL_AREA_STYLE('',(#167));
#151=FILL_AREA_STYLE_COLOUR('',#168);
#152=FILL_AREA_STYLE_COLOUR('',#169);
#153=FILL_AREA_STYLE_COLOUR('',#169);
#154=FILL_AREA_STYLE_COLOUR('',#169);
#155=FILL_AREA_STYLE_COLOUR('',#169);
#156=FILL_AREA_STYLE_COLOUR('',#169);
#157=FILL_AREA_STYLE_COLOUR('',#169);
#158=FILL_AREA_STYLE_COLOUR('',#169);
#159=FILL_AREA_STYLE_COLOUR('',#169);
#160=FILL_AREA_STYLE_COLOUR('',#169);
#161=FILL_AREA_STYLE_COLOUR('',#169);
#162=FILL_AREA_STYLE_COLOUR('',#169);
#163=FILL_AREA_STYLE_COLOUR('',#169);
#164=FILL_AREA_STYLE_COLOUR('',#169);
#165=FILL_AREA_STYLE_COLOUR('',#169);
#166=FILL_AREA_STYLE_COLOUR('',#169);
#167=FILL_AREA_STYLE_COLOUR('',#23);
#168=COLOUR_RGB('Medium Steel',0.611764705882353,0.658823529411765,0.670588235294118);
#169=COLOUR_RGB('silver gray',0.6,0.6,0.6);
#170=MANIFOLD_SOLID_BREP('',#172);
#171=MANIFOLD_SOLID_BREP('',#173);
#172=CLOSED_SHELL('',(#187,#188,#189,#190,#191,#192,#193,#194,#195,#196,
#197,#198,#199,#200,#201));
#173=CLOSED_SHELL('',(#202,#203,#204,#205,#206,#207,#208,#209));
#174=FACE_OUTER_BOUND('',#274,.T.);
#175=FACE_OUTER_BOUND('',#275,.T.);
#176=PLANE('',#427);
#177=PLANE('',#434);
#178=PLANE('',#436);
#179=CYLINDRICAL_SURFACE('',#421,7.4);
#180=CYLINDRICAL_SURFACE('',#440,7.75);
#181=CYLINDRICAL_SURFACE('',#443,8.);
#182=TOROIDAL_SURFACE('',#419,10.4,3.);
#183=TOROIDAL_SURFACE('',#425,6.50384218950744,0.8);
#184=TOROIDAL_SURFACE('',#429,5.99468623971262,0.8);
#185=TOROIDAL_SURFACE('',#433,1.61634243026883,1.);
#186=TOROIDAL_SURFACE('',#438,6.75,1.);
#187=ADVANCED_FACE('',(#214,#215),#210,.T.);
#188=ADVANCED_FACE('',(#216,#217),#182,.F.);
#189=ADVANCED_FACE('',(#218,#219),#179,.T.);
#190=ADVANCED_FACE('',(#220,#221),#211,.T.);
#191=ADVANCED_FACE('',(#222,#223),#183,.T.);
#192=ADVANCED_FACE('',(#224,#225),#176,.F.);
#193=ADVANCED_FACE('',(#226,#227),#184,.T.);
#194=ADVANCED_FACE('',(#228,#229),#212,.F.);
#195=ADVANCED_FACE('',(#230,#231),#185,.F.);
#196=ADVANCED_FACE('',(#174),#177,.F.);
#197=ADVANCED_FACE('',(#175),#178,.F.);
#198=ADVANCED_FACE('',(#232,#233),#186,.T.);
#199=ADVANCED_FACE('',(#234,#235),#180,.T.);
#200=ADVANCED_FACE('',(#236,#237),#213,.T.);
#201=ADVANCED_FACE('',(#238,#239),#181,.T.);
#202=ADVANCED_FACE('',(#240,#241),#32,.T.);
#203=ADVANCED_FACE('',(#242,#243),#33,.T.);
#204=ADVANCED_FACE('',(#244,#245),#34,.T.);
#205=ADVANCED_FACE('',(#246,#247),#35,.T.);
#206=ADVANCED_FACE('',(#248,#249),#36,.T.);
#207=ADVANCED_FACE('',(#250,#251),#37,.T.);
#208=ADVANCED_FACE('',(#252,#253),#38,.T.);
#209=ADVANCED_FACE('',(#254,#255),#39,.T.);
#210=CONICAL_SURFACE('',#417,8.,29.9999999999993);
#211=CONICAL_SURFACE('',#423,7.4,0.999999999999619);
#212=CONICAL_SURFACE('',#431,5.80792994862789,76.5);
#213=CONICAL_SURFACE('',#442,7.75,10.0000000000001);
#214=FACE_BOUND('',#256,.T.);
#215=FACE_BOUND('',#257,.T.);
#216=FACE_BOUND('',#258,.T.);
#217=FACE_BOUND('',#259,.T.);
#218=FACE_BOUND('',#260,.T.);
#219=FACE_BOUND('',#261,.T.);
#220=FACE_BOUND('',#262,.T.);
#221=FACE_BOUND('',#263,.T.);
#222=FACE_BOUND('',#264,.T.);
#223=FACE_BOUND('',#265,.T.);
#224=FACE_BOUND('',#266,.T.);
#225=FACE_BOUND('',#267,.T.);
#226=FACE_BOUND('',#268,.T.);
#227=FACE_BOUND('',#269,.T.);
#228=FACE_BOUND('',#270,.T.);
#229=FACE_BOUND('',#271,.T.);
#230=FACE_BOUND('',#272,.T.);
#231=FACE_BOUND('',#273,.T.);
#232=FACE_BOUND('',#276,.T.);
#233=FACE_BOUND('',#277,.T.);
#234=FACE_BOUND('',#278,.T.);
#235=FACE_BOUND('',#279,.T.);
#236=FACE_BOUND('',#280,.T.);
#237=FACE_BOUND('',#281,.T.);
#238=FACE_BOUND('',#282,.T.);
#239=FACE_BOUND('',#283,.T.);
#240=FACE_BOUND('',#284,.T.);
#241=FACE_BOUND('',#285,.T.);
#242=FACE_BOUND('',#286,.T.);
#243=FACE_BOUND('',#287,.T.);
#244=FACE_BOUND('',#288,.T.);
#245=FACE_BOUND('',#289,.T.);
#246=FACE_BOUND('',#290,.T.);
#247=FACE_BOUND('',#291,.T.);
#248=FACE_BOUND('',#292,.T.);
#249=FACE_BOUND('',#293,.T.);
#250=FACE_BOUND('',#294,.T.);
#251=FACE_BOUND('',#295,.T.);
#252=FACE_BOUND('',#296,.T.);
#253=FACE_BOUND('',#297,.T.);
#254=FACE_BOUND('',#298,.T.);
#255=FACE_BOUND('',#299,.T.);
#256=EDGE_LOOP('',(#300));
#257=EDGE_LOOP('',(#301));
#258=EDGE_LOOP('',(#302));
#259=EDGE_LOOP('',(#303));
#260=EDGE_LOOP('',(#304));
#261=EDGE_LOOP('',(#305));
#262=EDGE_LOOP('',(#306));
#263=EDGE_LOOP('',(#307));
#264=EDGE_LOOP('',(#308));
#265=EDGE_LOOP('',(#309));
#266=EDGE_LOOP('',(#310));
#267=EDGE_LOOP('',(#311));
#268=EDGE_LOOP('',(#312));
#269=EDGE_LOOP('',(#313));
#270=EDGE_LOOP('',(#314));
#271=EDGE_LOOP('',(#315));
#272=EDGE_LOOP('',(#316));
#273=EDGE_LOOP('',(#317));
#274=EDGE_LOOP('',(#318));
#275=EDGE_LOOP('',(#319));
#276=EDGE_LOOP('',(#320));
#277=EDGE_LOOP('',(#321));
#278=EDGE_LOOP('',(#322));
#279=EDGE_LOOP('',(#323));
#280=EDGE_LOOP('',(#324));
#281=EDGE_LOOP('',(#325));
#282=EDGE_LOOP('',(#326));
#283=EDGE_LOOP('',(#327));
#284=EDGE_LOOP('',(#328));
#285=EDGE_LOOP('',(#329));
#286=EDGE_LOOP('',(#330));
#287=EDGE_LOOP('',(#331));
#288=EDGE_LOOP('',(#332));
#289=EDGE_LOOP('',(#333));
#290=EDGE_LOOP('',(#334));
#291=EDGE_LOOP('',(#335));
#292=EDGE_LOOP('',(#336));
#293=EDGE_LOOP('',(#337));
#294=EDGE_LOOP('',(#338));
#295=EDGE_LOOP('',(#339));
#296=EDGE_LOOP('',(#340));
#297=EDGE_LOOP('',(#341));
#298=EDGE_LOOP('',(#342));
#299=EDGE_LOOP('',(#343));
#300=ORIENTED_EDGE('',*,*,#366,.F.);
#301=ORIENTED_EDGE('',*,*,#367,.T.);
#302=ORIENTED_EDGE('',*,*,#368,.F.);
#303=ORIENTED_EDGE('',*,*,#366,.T.);
#304=ORIENTED_EDGE('',*,*,#369,.F.);
#305=ORIENTED_EDGE('',*,*,#368,.T.);
#306=ORIENTED_EDGE('',*,*,#370,.F.);
#307=ORIENTED_EDGE('',*,*,#369,.T.);
#308=ORIENTED_EDGE('',*,*,#371,.F.);
#309=ORIENTED_EDGE('',*,*,#370,.T.);
#310=ORIENTED_EDGE('',*,*,#372,.F.);
#311=ORIENTED_EDGE('',*,*,#371,.T.);
#312=ORIENTED_EDGE('',*,*,#373,.F.);
#313=ORIENTED_EDGE('',*,*,#372,.T.);
#314=ORIENTED_EDGE('',*,*,#374,.F.);
#315=ORIENTED_EDGE('',*,*,#373,.T.);
#316=ORIENTED_EDGE('',*,*,#375,.F.);
#317=ORIENTED_EDGE('',*,*,#374,.T.);
#318=ORIENTED_EDGE('',*,*,#375,.T.);
#319=ORIENTED_EDGE('',*,*,#376,.F.);
#320=ORIENTED_EDGE('',*,*,#377,.F.);
#321=ORIENTED_EDGE('',*,*,#376,.T.);
#322=ORIENTED_EDGE('',*,*,#378,.F.);
#323=ORIENTED_EDGE('',*,*,#377,.T.);
#324=ORIENTED_EDGE('',*,*,#379,.F.);
#325=ORIENTED_EDGE('',*,*,#378,.T.);
#326=ORIENTED_EDGE('',*,*,#367,.F.);
#327=ORIENTED_EDGE('',*,*,#379,.T.);
#328=ORIENTED_EDGE('',*,*,#380,.F.);
#329=ORIENTED_EDGE('',*,*,#381,.T.);
#330=ORIENTED_EDGE('',*,*,#382,.F.);
#331=ORIENTED_EDGE('',*,*,#380,.T.);
#332=ORIENTED_EDGE('',*,*,#383,.F.);
#333=ORIENTED_EDGE('',*,*,#382,.T.);
#334=ORIENTED_EDGE('',*,*,#384,.F.);
#335=ORIENTED_EDGE('',*,*,#383,.T.);
#336=ORIENTED_EDGE('',*,*,#385,.F.);
#337=ORIENTED_EDGE('',*,*,#384,.T.);
#338=ORIENTED_EDGE('',*,*,#386,.F.);
#339=ORIENTED_EDGE('',*,*,#385,.T.);
#340=ORIENTED_EDGE('',*,*,#387,.F.);
#341=ORIENTED_EDGE('',*,*,#386,.T.);
#342=ORIENTED_EDGE('',*,*,#381,.F.);
#343=ORIENTED_EDGE('',*,*,#387,.T.);
#344=VERTEX_POINT('',#554);
#345=VERTEX_POINT('',#556);
#346=VERTEX_POINT('',#559);
#347=VERTEX_POINT('',#562);
#348=VERTEX_POINT('',#565);
#349=VERTEX_POINT('',#568);
#350=VERTEX_POINT('',#571);
#351=VERTEX_POINT('',#574);
#352=VERTEX_POINT('',#577);
#353=VERTEX_POINT('',#580);
#354=VERTEX_POINT('',#584);
#355=VERTEX_POINT('',#587);
#356=VERTEX_POINT('',#590);
#357=VERTEX_POINT('',#593);
#358=VERTEX_POINT('',#597);
#359=VERTEX_POINT('',#599);
#360=VERTEX_POINT('',#603);
#361=VERTEX_POINT('',#607);
#362=VERTEX_POINT('',#611);
#363=VERTEX_POINT('',#615);
#364=VERTEX_POINT('',#619);
#365=VERTEX_POINT('',#623);
#366=EDGE_CURVE('',#344,#344,#388,.T.);
#367=EDGE_CURVE('',#345,#345,#389,.T.);
#368=EDGE_CURVE('',#346,#346,#390,.T.);
#369=EDGE_CURVE('',#347,#347,#391,.T.);
#370=EDGE_CURVE('',#348,#348,#392,.T.);
#371=EDGE_CURVE('',#349,#349,#393,.T.);
#372=EDGE_CURVE('',#350,#350,#394,.T.);
#373=EDGE_CURVE('',#351,#351,#395,.T.);
#374=EDGE_CURVE('',#352,#352,#396,.T.);
#375=EDGE_CURVE('',#353,#353,#397,.T.);
#376=EDGE_CURVE('',#354,#354,#398,.T.);
#377=EDGE_CURVE('',#355,#355,#399,.T.);
#378=EDGE_CURVE('',#356,#356,#400,.T.);
#379=EDGE_CURVE('',#357,#357,#401,.T.);
#380=EDGE_CURVE('',#358,#358,#402,.T.);
#381=EDGE_CURVE('',#359,#359,#403,.T.);
#382=EDGE_CURVE('',#360,#360,#405,.T.);
#383=EDGE_CURVE('',#361,#361,#406,.T.);
#384=EDGE_CURVE('',#362,#362,#408,.T.);
#385=EDGE_CURVE('',#363,#363,#409,.T.);
#386=EDGE_CURVE('',#364,#364,#411,.T.);
#387=EDGE_CURVE('',#365,#365,#412,.T.);
#388=CIRCLE('',#415,7.80192378864668);
#389=CIRCLE('',#416,8.);
#390=CIRCLE('',#418,7.4);
#391=CIRCLE('',#420,7.4);
#392=CIRCLE('',#422,7.30372034563255);
#393=CIRCLE('',#424,6.50384218950744);
#394=CIRCLE('',#426,5.99468623971262);
#395=CIRCLE('',#428,5.80792994862789);
#396=CIRCLE('',#430,1.84978779412474);
#397=CIRCLE('',#432,1.61634243026883);
#398=CIRCLE('',#435,6.75);
#399=CIRCLE('',#437,7.75);
#400=CIRCLE('',#439,7.75);
#401=CIRCLE('',#441,8.);
#402=CIRCLE('',#444,8.00481118499663);
#403=CIRCLE('',#445,7.04844611497851);
#404=CIRCLE('',#446,0.8);
#405=CIRCLE('',#447,8.3519307606955);
#406=CIRCLE('',#448,8.10910306253801);
#407=CIRCLE('',#449,0.4);
#408=CIRCLE('',#450,4.38725951036493);
#409=CIRCLE('',#451,3.96811736617735);
#410=CIRCLE('',#452,0.8);
#411=CIRCLE('',#453,3.30255149088904);
#412=CIRCLE('',#454,3.34210422882615);
#413=CIRCLE('',#455,0.4);
#414=AXIS2_PLACEMENT_3D('',#552,#456,#457);
#415=AXIS2_PLACEMENT_3D('',#553,#458,#459);
#416=AXIS2_PLACEMENT_3D('',#555,#460,#461);
#417=AXIS2_PLACEMENT_3D('',#557,#462,#463);
#418=AXIS2_PLACEMENT_3D('',#558,#464,#465);
#419=AXIS2_PLACEMENT_3D('',#560,#466,#467);
#420=AXIS2_PLACEMENT_3D('',#561,#468,#469);
#421=AXIS2_PLACEMENT_3D('',#563,#470,#471);
#422=AXIS2_PLACEMENT_3D('',#564,#472,#473);
#423=AXIS2_PLACEMENT_3D('',#566,#474,#475);
#424=AXIS2_PLACEMENT_3D('',#567,#476,#477);
#425=AXIS2_PLACEMENT_3D('',#569,#478,#479);
#426=AXIS2_PLACEMENT_3D('',#570,#480,#481);
#427=AXIS2_PLACEMENT_3D('',#572,#482,#483);
#428=AXIS2_PLACEMENT_3D('',#573,#484,#485);
#429=AXIS2_PLACEMENT_3D('',#575,#486,#487);
#430=AXIS2_PLACEMENT_3D('',#576,#488,#489);
#431=AXIS2_PLACEMENT_3D('',#578,#490,#491);
#432=AXIS2_PLACEMENT_3D('',#579,#492,#493);
#433=AXIS2_PLACEMENT_3D('',#581,#494,#495);
#434=AXIS2_PLACEMENT_3D('',#582,#496,#497);
#435=AXIS2_PLACEMENT_3D('',#583,#498,#499);
#436=AXIS2_PLACEMENT_3D('',#585,#500,#501);
#437=AXIS2_PLACEMENT_3D('',#586,#502,#503);
#438=AXIS2_PLACEMENT_3D('',#588,#504,#505);
#439=AXIS2_PLACEMENT_3D('',#589,#506,#507);
#440=AXIS2_PLACEMENT_3D('',#591,#508,#509);
#441=AXIS2_PLACEMENT_3D('',#592,#510,#511);
#442=AXIS2_PLACEMENT_3D('',#594,#512,#513);
#443=AXIS2_PLACEMENT_3D('',#595,#514,#515);
#444=AXIS2_PLACEMENT_3D('',#596,#516,#517);
#445=AXIS2_PLACEMENT_3D('',#598,#518,#519);
#446=AXIS2_PLACEMENT_3D('',#600,#520,#521);
#447=AXIS2_PLACEMENT_3D('',#602,#523,#524);
#448=AXIS2_PLACEMENT_3D('',#606,#527,#528);
#449=AXIS2_PLACEMENT_3D('',#608,#529,#530);
#450=AXIS2_PLACEMENT_3D('',#610,#532,#533);
#451=AXIS2_PLACEMENT_3D('',#614,#536,#537);
#452=AXIS2_PLACEMENT_3D('',#616,#538,#539);
#453=AXIS2_PLACEMENT_3D('',#618,#541,#542);
#454=AXIS2_PLACEMENT_3D('',#622,#545,#546);
#455=AXIS2_PLACEMENT_3D('',#624,#547,#548);
#456=DIRECTION('',(0.,0.,1.));
#457=DIRECTION('',(1.,0.,0.));
#458=DIRECTION('',(-1.,0.,0.));
#459=DIRECTION('',(0.,0.,1.));
#460=DIRECTION('',(-1.,0.,0.));
#461=DIRECTION('',(0.,0.,1.));
#462=DIRECTION('',(1.,0.,0.));
#463=DIRECTION('',(-1.54105371601997E-16,0.,-1.));
#464=DIRECTION('',(-1.,0.,0.));
#465=DIRECTION('',(0.,0.,1.));
#466=DIRECTION('',(-1.,0.,0.));
#467=DIRECTION('',(0.,0.,1.));
#468=DIRECTION('',(-1.,0.,0.));
#469=DIRECTION('',(0.,0.,1.));
#470=DIRECTION('',(-1.,0.,0.));
#471=DIRECTION('',(0.,0.,1.));
#472=DIRECTION('',(-1.,0.,0.));
#473=DIRECTION('',(0.,0.,1.));
#474=DIRECTION('',(1.,0.,0.));
#475=DIRECTION('',(1.01200662618725E-15,0.,-1.));
#476=DIRECTION('',(-1.,0.,0.));
#477=DIRECTION('',(0.,0.,1.));
#478=DIRECTION('',(-1.,0.,0.));
#479=DIRECTION('',(0.,0.,1.));
#480=DIRECTION('',(-1.,0.,0.));
#481=DIRECTION('',(0.,0.,1.));
#482=DIRECTION('',(1.,0.,0.));
#483=DIRECTION('',(0.,0.,-1.));
#484=DIRECTION('',(-1.,0.,0.));
#485=DIRECTION('',(0.,0.,1.));
#486=DIRECTION('',(-1.,0.,0.));
#487=DIRECTION('',(0.,0.,1.));
#488=DIRECTION('',(-1.,0.,0.));
#489=DIRECTION('',(0.,0.,1.));
#490=DIRECTION('',(-1.,0.,0.));
#491=DIRECTION('',(5.82246501653459E-18,0.,1.));
#492=DIRECTION('',(-1.,0.,0.));
#493=DIRECTION('',(0.,0.,1.));
#494=DIRECTION('',(-1.,0.,0.));
#495=DIRECTION('',(0.,0.,1.));
#496=DIRECTION('',(1.,0.,0.));
#497=DIRECTION('',(0.,0.,-1.));
#498=DIRECTION('',(-1.,0.,0.));
#499=DIRECTION('',(0.,0.,1.));
#500=DIRECTION('',(-1.,0.,0.));
#501=DIRECTION('',(0.,0.,1.));
#502=DIRECTION('',(-1.,0.,0.));
#503=DIRECTION('',(0.,0.,1.));
#504=DIRECTION('',(-1.,0.,0.));
#505=DIRECTION('',(0.,0.,1.));
#506=DIRECTION('',(-1.,0.,0.));
#507=DIRECTION('',(0.,0.,1.));
#508=DIRECTION('',(-1.,0.,0.));
#509=DIRECTION('',(0.,0.,1.));
#510=DIRECTION('',(-1.,0.,0.));
#511=DIRECTION('',(0.,0.,1.));
#512=DIRECTION('',(-1.,0.,0.));
#513=DIRECTION('',(-7.53912181436393E-17,0.,1.));
#514=DIRECTION('',(-1.,0.,0.));
#515=DIRECTION('',(0.,0.,1.));
#516=DIRECTION('',(1.,0.,0.));
#517=DIRECTION('',(0.,0.,-1.));
#518=DIRECTION('',(1.,0.,0.));
#519=DIRECTION('',(0.,0.,-1.));
#520=DIRECTION('',(-0.121869343405147,-0.371814332674428,0.920272766714232));
#521=DIRECTION('',(0.253541703992262,0.884761155726426,0.391042582916923));
#522=DIRECTION('',(1.,0.,0.));
#523=DIRECTION('',(1.,0.,0.));
#524=DIRECTION('',(0.,0.,-1.));
#525=DIRECTION('',(0.992449402221879,-0.0585941176826311,0.107753948430802));
#526=DIRECTION('',(1.,0.,0.));
#527=DIRECTION('',(1.,0.,0.));
#528=DIRECTION('',(0.,0.,-1.));
#529=DIRECTION('',(-0.121869343405147,-0.371814332674429,0.920272766714232));
#530=DIRECTION('',(0.,-0.927183854566787,-0.374606593415912));
#531=DIRECTION('',(1.,0.,0.));
#532=DIRECTION('',(1.,0.,0.));
#533=DIRECTION('',(0.,0.,-1.));
#534=DIRECTION('',(0.253541703992262,0.884761155726426,0.391042582916923));
#535=DIRECTION('',(1.,0.,0.));
#536=DIRECTION('',(1.,0.,0.));
#537=DIRECTION('',(0.,0.,-1.));
#538=DIRECTION('',(-0.121869343405148,-0.371814332674429,0.920272766714232));
#539=DIRECTION('',(-0.253541703992263,-0.884761155726426,-0.391042582916924));
#540=DIRECTION('',(1.,0.,0.));
#541=DIRECTION('',(1.,0.,0.));
#542=DIRECTION('',(0.,0.,-1.));
#543=DIRECTION('',(-0.992449402221879,0.0585941176826312,-0.107753948430802));
#544=DIRECTION('',(1.,0.,0.));
#545=DIRECTION('',(1.,0.,0.));
#546=DIRECTION('',(0.,0.,-1.));
#547=DIRECTION('',(-0.121869343405147,-0.371814332674429,0.920272766714232));
#548=DIRECTION('',(0.,-0.927183854566787,-0.374606593415912));
#549=DIRECTION('',(1.,0.,0.));
#550=DIRECTION('',(-0.253541703992263,-0.884761155726426,-0.391042582916923));
#551=DIRECTION('',(1.,0.,0.));
#552=CARTESIAN_POINT('',(0.,0.,0.));
#553=CARTESIAN_POINT('',(24.6569219381653,0.,0.));
#554=CARTESIAN_POINT('',(24.6569219381653,0.,7.80192378864668));
#555=CARTESIAN_POINT('',(25.,0.,0.));
#556=CARTESIAN_POINT('',(25.,0.,8.));
#557=CARTESIAN_POINT('',(25.,0.,0.));
#558=CARTESIAN_POINT('',(23.1569219381653,0.,0.));
#559=CARTESIAN_POINT('',(23.1569219381653,0.,7.4));
#560=CARTESIAN_POINT('',(23.1569219381653,0.,0.));
#561=CARTESIAN_POINT('',(7.101895779386,0.,0.));
#562=CARTESIAN_POINT('',(7.101895779386,0.,7.4));
#563=CARTESIAN_POINT('',(0.,0.,0.));
#564=CARTESIAN_POINT('',(1.58603807485018,0.,0.));
#565=CARTESIAN_POINT('',(1.58603807485018,0.,7.30372034563255));
#566=CARTESIAN_POINT('',(7.101895779386,0.,0.));
#567=CARTESIAN_POINT('',(0.8,0.,0.));
#568=CARTESIAN_POINT('',(0.8,0.,6.50384218950744));
#569=CARTESIAN_POINT('',(1.6,0.,0.));
#570=CARTESIAN_POINT('',(0.8,0.,0.));
#571=CARTESIAN_POINT('',(0.8,0.,5.99468623971262));
#572=CARTESIAN_POINT('',(0.8,6.50384218950744,0.));
#573=CARTESIAN_POINT('',(0.822104063681859,0.,0.));
#574=CARTESIAN_POINT('',(0.822104063681859,0.,5.80792994862789));
#575=CARTESIAN_POINT('',(1.6,0.,0.));
#576=CARTESIAN_POINT('',(1.77236992039768,0.,0.));
#577=CARTESIAN_POINT('',(1.77236992039768,0.,1.84978779412474));
#578=CARTESIAN_POINT('',(0.822104063681859,0.,0.));
#579=CARTESIAN_POINT('',(1.8,0.,0.));
#580=CARTESIAN_POINT('',(1.8,0.,1.61634243026883));
#581=CARTESIAN_POINT('',(0.8,0.,0.));
#582=CARTESIAN_POINT('',(1.8,1.61634243026883,0.));
#583=CARTESIAN_POINT('',(120.,0.,0.));
#584=CARTESIAN_POINT('',(120.,0.,6.75));
#585=CARTESIAN_POINT('',(120.,6.75,0.));
#586=CARTESIAN_POINT('',(119.,0.,0.));
#587=CARTESIAN_POINT('',(119.,0.,7.75));
#588=CARTESIAN_POINT('',(119.,0.,0.));
#589=CARTESIAN_POINT('',(116.,0.,0.));
#590=CARTESIAN_POINT('',(116.,0.,7.75));
#591=CARTESIAN_POINT('',(0.,0.,0.));
#592=CARTESIAN_POINT('',(114.582179545096,0.,0.));
#593=CARTESIAN_POINT('',(114.582179545096,0.,8.));
#594=CARTESIAN_POINT('',(116.,0.,0.));
#595=CARTESIAN_POINT('',(0.,0.,0.));
#596=CARTESIAN_POINT('',(0.75020296177751,0.,0.));
#597=CARTESIAN_POINT('',(0.75020296177751,0.,-8.00481118499663));
#598=CARTESIAN_POINT('',(-0.0064040184721316,0.,0.));
#599=CARTESIAN_POINT('',(-0.0064040184721316,0.,-7.04844611497851));
#600=CARTESIAN_POINT('',(0.761289448468823,-7.26318216602515,0.387121349824366));
#601=CARTESIAN_POINT('',(25.,0.,0.));
#602=CARTESIAN_POINT('',(6.17451694482409,0.,0.));
#603=CARTESIAN_POINT('',(6.17451694482409,0.,-8.3519307606955));
#604=CARTESIAN_POINT('',(0.750202961777509,-8.0043470141461,0.0862031587446442));
#605=CARTESIAN_POINT('',(25.,0.,0.));
#606=CARTESIAN_POINT('',(6.56390692164023,0.,0.));
#607=CARTESIAN_POINT('',(6.56390692164023,0.,-8.10910306253801));
#608=CARTESIAN_POINT('',(6.18006018816976,-7.9540155682802,0.825600338073087));
#609=CARTESIAN_POINT('',(25.,0.,0.));
#610=CARTESIAN_POINT('',(7.94965999597501,0.,0.));
#611=CARTESIAN_POINT('',(7.94965999597501,0.,-4.38725951036493));
#612=CARTESIAN_POINT('',(6.56390692164023,-8.06640901957378,0.831022266730581));
#613=CARTESIAN_POINT('',(25.,0.,0.));
#614=CARTESIAN_POINT('',(7.1930530157254,0.,0.));
#615=CARTESIAN_POINT('',(7.1930530157254,0.,-3.96811736617735));
#616=CARTESIAN_POINT('',(7.18196652903409,-3.00588711838731,2.95745386722146));
#617=CARTESIAN_POINT('',(25.,0.,0.));
#618=CARTESIAN_POINT('',(1.76873903267879,0.,0.));
#619=CARTESIAN_POINT('',(1.76873903267879,0.,-3.30255149088904));
#620=CARTESIAN_POINT('',(7.1930530157254,-2.26472227026636,3.25837205830118));
#621=CARTESIAN_POINT('',(25.,0.,0.));
#622=CARTESIAN_POINT('',(1.37934905586266,0.,0.));
#623=CARTESIAN_POINT('',(1.37934905586266,0.,-3.34210422882615));
#624=CARTESIAN_POINT('',(1.76319578933314,-2.31505371613227,2.51897487897273));
#625=CARTESIAN_POINT('',(25.,0.,0.));
#626=CARTESIAN_POINT('',(1.37934905586266,-2.20266026483868,2.51355295031523));
#627=CARTESIAN_POINT('',(25.,0.,0.));
#628=(
GEOMETRIC_REPRESENTATION_CONTEXT(3)
GLOBAL_UNCERTAINTY_ASSIGNED_CONTEXT((#629))
GLOBAL_UNIT_ASSIGNED_CONTEXT((#635,#631,#630))
REPRESENTATION_CONTEXT('AEM90-4N06-D16-W16-L160-Z02',
'TOP_LEVEL_ASSEMBLY_PART')
);
#629=UNCERTAINTY_MEASURE_WITH_UNIT(LENGTH_MEASURE(2.E-5),#635,
'DISTANCE_ACCURACY_VALUE','Maximum Tolerance applied to model');
#630=(
NAMED_UNIT(*)
SI_UNIT($,.STERADIAN.)
SOLID_ANGLE_UNIT()
);
#631=(
CONVERSION_BASED_UNIT('DEGREE',#633)
NAMED_UNIT(#632)
PLANE_ANGLE_UNIT()
);
#632=DIMENSIONAL_EXPONENTS(0.,0.,0.,0.,0.,0.,0.);
#633=PLANE_ANGLE_MEASURE_WITH_UNIT(PLANE_ANGLE_MEASURE(0.0174532925),#634);
#634=(
NAMED_UNIT(*)
PLANE_ANGLE_UNIT()
SI_UNIT($,.RADIAN.)
);
#635=(
LENGTH_UNIT()
NAMED_UNIT(*)
SI_UNIT(.MILLI.,.METRE.)
);
ENDSEC;
END-ISO-10303-21;
