ISO-10303-21;
HEADER;
/* Generated by software containing ST-Developer
 * from STEP Tools, Inc. (www.steptools.com) 
 */
/* OPTION: using custom schema-name function */

FILE_DESCRIPTION(
/* description */ (''),
/* implementation_level */ '2;1');

FILE_NAME(
/* name */ 'AEM90-AD1003-D26-C25-L200-Z03.stp',
/* time_stamp */ '2023-10-02T19:47:49+03:00',
/* author */ (''),
/* organization */ (''),
/* preprocessor_version */ 'ST-DEVELOPER v19.4',
/* originating_system */ 'SIEMENS PLM Software NX2306.3001',
/* authorisation */ '');

FILE_SCHEMA (('AUTOMOTIVE_DESIGN { 1 0 10303 214 3 1 1 1 }'));
ENDSEC;

DATA;
#10=SHAPE_REPRESENTATION_RELATIONSHIP('None',
'relationship between AEM90-AD1003-D26-C25-L200-Z03-None and AEM90-AD1
003-D26-C25-L200-Z03-None',#22,#11);
#11=ADVANCED_BREP_SHAPE_REPRESENTATION(
'AEM90-AD1003-D26-C25-L200-Z03-None',(#181,#182),#695);
#12=SHAPE_DEFINITION_REPRESENTATION(#13,#22);
#13=PRODUCT_DEFINITION_SHAPE('','',#14);
#14=PRODUCT_DEFINITION(' ','',#16,#15);
#15=PRODUCT_DEFINITION_CONTEXT('part definition',#21,'design');
#16=PRODUCT_DEFINITION_FORMATION_WITH_SPECIFIED_SOURCE(' ',' ',#18,
 .NOT_KNOWN.);
#17=PRODUCT_RELATED_PRODUCT_CATEGORY('part','',(#18));
#18=PRODUCT('AEM90-AD1003-D26-C25-L200-Z03',
'AEM90-AD1003-D26-C25-L200-Z03',' ',(#19));
#19=PRODUCT_CONTEXT(' ',#21,'mechanical');
#20=APPLICATION_PROTOCOL_DEFINITION('international standard',
'automotive_design',2010,#21);
#21=APPLICATION_CONTEXT(
'core data for automotive mechanical design processes');
#22=SHAPE_REPRESENTATION('AEM90-AD1003-D26-C25-L200-Z03-None',(#450),#695);
#23=DRAUGHTING_PRE_DEFINED_COLOUR('yellow');
#24=ELLIPSE('',#483,0.859397809338425,0.788806394886141);
#25=ELLIPSE('',#490,0.859397809338425,0.788806394886141);
#26=LINE('',#653,#32);
#27=LINE('',#661,#33);
#28=LINE('',#665,#34);
#29=LINE('',#683,#35);
#30=LINE('',#691,#36);
#31=LINE('',#693,#37);
#32=VECTOR('',#558,7.96082932240336);
#33=VECTOR('',#567,0.742839072121891);
#34=VECTOR('',#571,3.67183199226206);
#35=VECTOR('',#581,7.96082932240336);
#36=VECTOR('',#590,0.742839072121897);
#37=VECTOR('',#592,3.67183199226206);
#38=(
BOUNDED_CURVE()
B_SPLINE_CURVE(3,(#646,#647,#648,#649),.UNSPECIFIED.,.F.,.F.)
B_SPLINE_CURVE_WITH_KNOTS((4,4),(0.,1.),.UNSPECIFIED.)
CURVE()
GEOMETRIC_REPRESENTATION_ITEM()
RATIONAL_B_SPLINE_CURVE((0.589203061498711,0.470265646167096,0.470265646167096,
0.589203061498711))
REPRESENTATION_ITEM('')
);
#39=(
BOUNDED_CURVE()
B_SPLINE_CURVE(3,(#676,#677,#678,#679),.UNSPECIFIED.,.F.,.F.)
B_SPLINE_CURVE_WITH_KNOTS((4,4),(0.,1.),.UNSPECIFIED.)
CURVE()
GEOMETRIC_REPRESENTATION_ITEM()
RATIONAL_B_SPLINE_CURVE((0.589203061498713,0.470265646167096,0.470265646167096,
0.589203061498713))
REPRESENTATION_ITEM('')
);
#40=SURFACE_OF_REVOLUTION('',#64,#52);
#41=SURFACE_OF_REVOLUTION('',#38,#53);
#42=SURFACE_OF_REVOLUTION('',#26,#54);
#43=SURFACE_OF_REVOLUTION('',#24,#55);
#44=SURFACE_OF_REVOLUTION('',#27,#56);
#45=SURFACE_OF_REVOLUTION('',#28,#57);
#46=SURFACE_OF_REVOLUTION('',#65,#58);
#47=SURFACE_OF_REVOLUTION('',#39,#59);
#48=SURFACE_OF_REVOLUTION('',#29,#60);
#49=SURFACE_OF_REVOLUTION('',#25,#61);
#50=SURFACE_OF_REVOLUTION('',#30,#62);
#51=SURFACE_OF_REVOLUTION('',#31,#63);
#52=AXIS1_PLACEMENT('',#643,#552);
#53=AXIS1_PLACEMENT('',#650,#555);
#54=AXIS1_PLACEMENT('',#654,#559);
#55=AXIS1_PLACEMENT('',#658,#564);
#56=AXIS1_PLACEMENT('',#662,#568);
#57=AXIS1_PLACEMENT('',#666,#572);
#58=AXIS1_PLACEMENT('',#673,#575);
#59=AXIS1_PLACEMENT('',#680,#578);
#60=AXIS1_PLACEMENT('',#684,#582);
#61=AXIS1_PLACEMENT('',#688,#587);
#62=AXIS1_PLACEMENT('',#692,#591);
#63=AXIS1_PLACEMENT('',#694,#593);
#64=B_SPLINE_CURVE_WITH_KNOTS('',3,(#639,#640,#641,#642),.UNSPECIFIED.,
 .F.,.F.,(4,4),(0.,1.),.UNSPECIFIED.);
#65=B_SPLINE_CURVE_WITH_KNOTS('',3,(#669,#670,#671,#672),.UNSPECIFIED.,
 .F.,.F.,(4,4),(0.,1.),.UNSPECIFIED.);
#66=OVER_RIDING_STYLED_ITEM('',(#84),#197,#81);
#67=OVER_RIDING_STYLED_ITEM('',(#85),#198,#81);
#68=OVER_RIDING_STYLED_ITEM('',(#86),#199,#81);
#69=OVER_RIDING_STYLED_ITEM('',(#87),#200,#81);
#70=OVER_RIDING_STYLED_ITEM('',(#88),#201,#81);
#71=OVER_RIDING_STYLED_ITEM('',(#89),#202,#81);
#72=OVER_RIDING_STYLED_ITEM('',(#90),#203,#81);
#73=OVER_RIDING_STYLED_ITEM('',(#91),#204,#81);
#74=OVER_RIDING_STYLED_ITEM('',(#92),#205,#81);
#75=OVER_RIDING_STYLED_ITEM('',(#93),#206,#81);
#76=OVER_RIDING_STYLED_ITEM('',(#94),#207,#81);
#77=OVER_RIDING_STYLED_ITEM('',(#95),#208,#81);
#78=OVER_RIDING_STYLED_ITEM('',(#96),#209,#81);
#79=OVER_RIDING_STYLED_ITEM('',(#97),#210,#81);
#80=PRESENTATION_LAYER_ASSIGNMENT('1','Layer 1',(#181,#182));
#81=STYLED_ITEM('',(#83),#181);
#82=STYLED_ITEM('',(#98),#182);
#83=PRESENTATION_STYLE_ASSIGNMENT((#99));
#84=PRESENTATION_STYLE_ASSIGNMENT((#100));
#85=PRESENTATION_STYLE_ASSIGNMENT((#101));
#86=PRESENTATION_STYLE_ASSIGNMENT((#102));
#87=PRESENTATION_STYLE_ASSIGNMENT((#103));
#88=PRESENTATION_STYLE_ASSIGNMENT((#104));
#89=PRESENTATION_STYLE_ASSIGNMENT((#105));
#90=PRESENTATION_STYLE_ASSIGNMENT((#106));
#91=PRESENTATION_STYLE_ASSIGNMENT((#107));
#92=PRESENTATION_STYLE_ASSIGNMENT((#108));
#93=PRESENTATION_STYLE_ASSIGNMENT((#109));
#94=PRESENTATION_STYLE_ASSIGNMENT((#110));
#95=PRESENTATION_STYLE_ASSIGNMENT((#111));
#96=PRESENTATION_STYLE_ASSIGNMENT((#112));
#97=PRESENTATION_STYLE_ASSIGNMENT((#113));
#98=PRESENTATION_STYLE_ASSIGNMENT((#114));
#99=SURFACE_STYLE_USAGE(.BOTH.,#115);
#100=SURFACE_STYLE_USAGE(.BOTH.,#116);
#101=SURFACE_STYLE_USAGE(.BOTH.,#117);
#102=SURFACE_STYLE_USAGE(.BOTH.,#118);
#103=SURFACE_STYLE_USAGE(.BOTH.,#119);
#104=SURFACE_STYLE_USAGE(.BOTH.,#120);
#105=SURFACE_STYLE_USAGE(.BOTH.,#121);
#106=SURFACE_STYLE_USAGE(.BOTH.,#122);
#107=SURFACE_STYLE_USAGE(.BOTH.,#123);
#108=SURFACE_STYLE_USAGE(.BOTH.,#124);
#109=SURFACE_STYLE_USAGE(.BOTH.,#125);
#110=SURFACE_STYLE_USAGE(.BOTH.,#126);
#111=SURFACE_STYLE_USAGE(.BOTH.,#127);
#112=SURFACE_STYLE_USAGE(.BOTH.,#128);
#113=SURFACE_STYLE_USAGE(.BOTH.,#129);
#114=SURFACE_STYLE_USAGE(.BOTH.,#130);
#115=SURFACE_SIDE_STYLE('',(#131));
#116=SURFACE_SIDE_STYLE('',(#132));
#117=SURFACE_SIDE_STYLE('',(#133));
#118=SURFACE_SIDE_STYLE('',(#134));
#119=SURFACE_SIDE_STYLE('',(#135));
#120=SURFACE_SIDE_STYLE('',(#136));
#121=SURFACE_SIDE_STYLE('',(#137));
#122=SURFACE_SIDE_STYLE('',(#138));
#123=SURFACE_SIDE_STYLE('',(#139));
#124=SURFACE_SIDE_STYLE('',(#140));
#125=SURFACE_SIDE_STYLE('',(#141));
#126=SURFACE_SIDE_STYLE('',(#142));
#127=SURFACE_SIDE_STYLE('',(#143));
#128=SURFACE_SIDE_STYLE('',(#144));
#129=SURFACE_SIDE_STYLE('',(#145));
#130=SURFACE_SIDE_STYLE('',(#146));
#131=SURFACE_STYLE_FILL_AREA(#147);
#132=SURFACE_STYLE_FILL_AREA(#148);
#133=SURFACE_STYLE_FILL_AREA(#149);
#134=SURFACE_STYLE_FILL_AREA(#150);
#135=SURFACE_STYLE_FILL_AREA(#151);
#136=SURFACE_STYLE_FILL_AREA(#152);
#137=SURFACE_STYLE_FILL_AREA(#153);
#138=SURFACE_STYLE_FILL_AREA(#154);
#139=SURFACE_STYLE_FILL_AREA(#155);
#140=SURFACE_STYLE_FILL_AREA(#156);
#141=SURFACE_STYLE_FILL_AREA(#157);
#142=SURFACE_STYLE_FILL_AREA(#158);
#143=SURFACE_STYLE_FILL_AREA(#159);
#144=SURFACE_STYLE_FILL_AREA(#160);
#145=SURFACE_STYLE_FILL_AREA(#161);
#146=SURFACE_STYLE_FILL_AREA(#162);
#147=FILL_AREA_STYLE('',(#163));
#148=FILL_AREA_STYLE('',(#164));
#149=FILL_AREA_STYLE('',(#165));
#150=FILL_AREA_STYLE('',(#166));
#151=FILL_AREA_STYLE('',(#167));
#152=FILL_AREA_STYLE('',(#168));
#153=FILL_AREA_STYLE('',(#169));
#154=FILL_AREA_STYLE('',(#170));
#155=FILL_AREA_STYLE('',(#171));
#156=FILL_AREA_STYLE('',(#172));
#157=FILL_AREA_STYLE('',(#173));
#158=FILL_AREA_STYLE('',(#174));
#159=FILL_AREA_STYLE('',(#175));
#160=FILL_AREA_STYLE('',(#176));
#161=FILL_AREA_STYLE('',(#177));
#162=FILL_AREA_STYLE('',(#178));
#163=FILL_AREA_STYLE_COLOUR('',#179);
#164=FILL_AREA_STYLE_COLOUR('',#180);
#165=FILL_AREA_STYLE_COLOUR('',#180);
#166=FILL_AREA_STYLE_COLOUR('',#180);
#167=FILL_AREA_STYLE_COLOUR('',#180);
#168=FILL_AREA_STYLE_COLOUR('',#180);
#169=FILL_AREA_STYLE_COLOUR('',#180);
#170=FILL_AREA_STYLE_COLOUR('',#180);
#171=FILL_AREA_STYLE_COLOUR('',#180);
#172=FILL_AREA_STYLE_COLOUR('',#180);
#173=FILL_AREA_STYLE_COLOUR('',#180);
#174=FILL_AREA_STYLE_COLOUR('',#180);
#175=FILL_AREA_STYLE_COLOUR('',#180);
#176=FILL_AREA_STYLE_COLOUR('',#180);
#177=FILL_AREA_STYLE_COLOUR('',#180);
#178=FILL_AREA_STYLE_COLOUR('',#23);
#179=COLOUR_RGB('Medium Steel',0.611764705882353,0.658823529411765,0.670588235294118);
#180=COLOUR_RGB('silver gray',0.6,0.6,0.6);
#181=MANIFOLD_SOLID_BREP('',#183);
#182=MANIFOLD_SOLID_BREP('',#184);
#183=CLOSED_SHELL('',(#197,#198,#199,#200,#201,#202,#203,#204,#205,#206,
#207,#208,#209,#210));
#184=CLOSED_SHELL('',(#211,#212,#213,#214,#215,#216,#217,#218,#219,#220,
#221,#222));
#185=FACE_OUTER_BOUND('',#291,.T.);
#186=FACE_OUTER_BOUND('',#292,.T.);
#187=PLANE('',#461);
#188=PLANE('',#468);
#189=PLANE('',#470);
#190=TOROIDAL_SURFACE('',#459,11.374746066245,0.8);
#191=TOROIDAL_SURFACE('',#463,11.2340833882125,0.8);
#192=TOROIDAL_SURFACE('',#467,7.3022125242047,0.8);
#193=TOROIDAL_SURFACE('',#472,11.25,0.999999999999987);
#194=CYLINDRICAL_SURFACE('',#455,12.35);
#195=CYLINDRICAL_SURFACE('',#474,12.25);
#196=CYLINDRICAL_SURFACE('',#477,12.5);
#197=ADVANCED_FACE('',(#227,#228),#223,.T.);
#198=ADVANCED_FACE('',(#229,#230),#194,.T.);
#199=ADVANCED_FACE('',(#231,#232),#224,.T.);
#200=ADVANCED_FACE('',(#233,#234),#190,.T.);
#201=ADVANCED_FACE('',(#235,#236),#187,.F.);
#202=ADVANCED_FACE('',(#237,#238),#191,.T.);
#203=ADVANCED_FACE('',(#239,#240),#225,.F.);
#204=ADVANCED_FACE('',(#241,#242),#192,.F.);
#205=ADVANCED_FACE('',(#185),#188,.F.);
#206=ADVANCED_FACE('',(#186),#189,.F.);
#207=ADVANCED_FACE('',(#243,#244),#193,.T.);
#208=ADVANCED_FACE('',(#245,#246),#195,.T.);
#209=ADVANCED_FACE('',(#247,#248),#226,.T.);
#210=ADVANCED_FACE('',(#249,#250),#196,.T.);
#211=ADVANCED_FACE('',(#251,#252),#40,.T.);
#212=ADVANCED_FACE('',(#253,#254),#41,.T.);
#213=ADVANCED_FACE('',(#255,#256),#42,.T.);
#214=ADVANCED_FACE('',(#257,#258),#43,.T.);
#215=ADVANCED_FACE('',(#259,#260),#44,.T.);
#216=ADVANCED_FACE('',(#261,#262),#45,.T.);
#217=ADVANCED_FACE('',(#263,#264),#46,.T.);
#218=ADVANCED_FACE('',(#265,#266),#47,.T.);
#219=ADVANCED_FACE('',(#267,#268),#48,.T.);
#220=ADVANCED_FACE('',(#269,#270),#49,.T.);
#221=ADVANCED_FACE('',(#271,#272),#50,.T.);
#222=ADVANCED_FACE('',(#273,#274),#51,.T.);
#223=CONICAL_SURFACE('',#453,12.5,29.9999999999999);
#224=CONICAL_SURFACE('',#457,12.35,1.8);
#225=CONICAL_SURFACE('',#465,11.0677540355583,78.);
#226=CONICAL_SURFACE('',#476,12.25,9.99999999999998);
#227=FACE_BOUND('',#275,.T.);
#228=FACE_BOUND('',#276,.T.);
#229=FACE_BOUND('',#277,.T.);
#230=FACE_BOUND('',#278,.T.);
#231=FACE_BOUND('',#279,.T.);
#232=FACE_BOUND('',#280,.T.);
#233=FACE_BOUND('',#281,.T.);
#234=FACE_BOUND('',#282,.T.);
#235=FACE_BOUND('',#283,.T.);
#236=FACE_BOUND('',#284,.T.);
#237=FACE_BOUND('',#285,.T.);
#238=FACE_BOUND('',#286,.T.);
#239=FACE_BOUND('',#287,.T.);
#240=FACE_BOUND('',#288,.T.);
#241=FACE_BOUND('',#289,.T.);
#242=FACE_BOUND('',#290,.T.);
#243=FACE_BOUND('',#293,.T.);
#244=FACE_BOUND('',#294,.T.);
#245=FACE_BOUND('',#295,.T.);
#246=FACE_BOUND('',#296,.T.);
#247=FACE_BOUND('',#297,.T.);
#248=FACE_BOUND('',#298,.T.);
#249=FACE_BOUND('',#299,.T.);
#250=FACE_BOUND('',#300,.T.);
#251=FACE_BOUND('',#301,.T.);
#252=FACE_BOUND('',#302,.T.);
#253=FACE_BOUND('',#303,.T.);
#254=FACE_BOUND('',#304,.T.);
#255=FACE_BOUND('',#305,.T.);
#256=FACE_BOUND('',#306,.T.);
#257=FACE_BOUND('',#307,.T.);
#258=FACE_BOUND('',#308,.T.);
#259=FACE_BOUND('',#309,.T.);
#260=FACE_BOUND('',#310,.T.);
#261=FACE_BOUND('',#311,.T.);
#262=FACE_BOUND('',#312,.T.);
#263=FACE_BOUND('',#313,.T.);
#264=FACE_BOUND('',#314,.T.);
#265=FACE_BOUND('',#315,.T.);
#266=FACE_BOUND('',#316,.T.);
#267=FACE_BOUND('',#317,.T.);
#268=FACE_BOUND('',#318,.T.);
#269=FACE_BOUND('',#319,.T.);
#270=FACE_BOUND('',#320,.T.);
#271=FACE_BOUND('',#321,.T.);
#272=FACE_BOUND('',#322,.T.);
#273=FACE_BOUND('',#323,.T.);
#274=FACE_BOUND('',#324,.T.);
#275=EDGE_LOOP('',(#325));
#276=EDGE_LOOP('',(#326));
#277=EDGE_LOOP('',(#327));
#278=EDGE_LOOP('',(#328));
#279=EDGE_LOOP('',(#329));
#280=EDGE_LOOP('',(#330));
#281=EDGE_LOOP('',(#331));
#282=EDGE_LOOP('',(#332));
#283=EDGE_LOOP('',(#333));
#284=EDGE_LOOP('',(#334));
#285=EDGE_LOOP('',(#335));
#286=EDGE_LOOP('',(#336));
#287=EDGE_LOOP('',(#337));
#288=EDGE_LOOP('',(#338));
#289=EDGE_LOOP('',(#339));
#290=EDGE_LOOP('',(#340));
#291=EDGE_LOOP('',(#341));
#292=EDGE_LOOP('',(#342));
#293=EDGE_LOOP('',(#343));
#294=EDGE_LOOP('',(#344));
#295=EDGE_LOOP('',(#345));
#296=EDGE_LOOP('',(#346));
#297=EDGE_LOOP('',(#347));
#298=EDGE_LOOP('',(#348));
#299=EDGE_LOOP('',(#349));
#300=EDGE_LOOP('',(#350));
#301=EDGE_LOOP('',(#351));
#302=EDGE_LOOP('',(#352));
#303=EDGE_LOOP('',(#353));
#304=EDGE_LOOP('',(#354));
#305=EDGE_LOOP('',(#355));
#306=EDGE_LOOP('',(#356));
#307=EDGE_LOOP('',(#357));
#308=EDGE_LOOP('',(#358));
#309=EDGE_LOOP('',(#359));
#310=EDGE_LOOP('',(#360));
#311=EDGE_LOOP('',(#361));
#312=EDGE_LOOP('',(#362));
#313=EDGE_LOOP('',(#363));
#314=EDGE_LOOP('',(#364));
#315=EDGE_LOOP('',(#365));
#316=EDGE_LOOP('',(#366));
#317=EDGE_LOOP('',(#367));
#318=EDGE_LOOP('',(#368));
#319=EDGE_LOOP('',(#369));
#320=EDGE_LOOP('',(#370));
#321=EDGE_LOOP('',(#371));
#322=EDGE_LOOP('',(#372));
#323=EDGE_LOOP('',(#373));
#324=EDGE_LOOP('',(#374));
#325=ORIENTED_EDGE('',*,*,#400,.F.);
#326=ORIENTED_EDGE('',*,*,#401,.T.);
#327=ORIENTED_EDGE('',*,*,#402,.F.);
#328=ORIENTED_EDGE('',*,*,#400,.T.);
#329=ORIENTED_EDGE('',*,*,#403,.F.);
#330=ORIENTED_EDGE('',*,*,#402,.T.);
#331=ORIENTED_EDGE('',*,*,#404,.F.);
#332=ORIENTED_EDGE('',*,*,#403,.T.);
#333=ORIENTED_EDGE('',*,*,#405,.F.);
#334=ORIENTED_EDGE('',*,*,#404,.T.);
#335=ORIENTED_EDGE('',*,*,#406,.F.);
#336=ORIENTED_EDGE('',*,*,#405,.T.);
#337=ORIENTED_EDGE('',*,*,#407,.F.);
#338=ORIENTED_EDGE('',*,*,#406,.T.);
#339=ORIENTED_EDGE('',*,*,#408,.F.);
#340=ORIENTED_EDGE('',*,*,#407,.T.);
#341=ORIENTED_EDGE('',*,*,#408,.T.);
#342=ORIENTED_EDGE('',*,*,#409,.F.);
#343=ORIENTED_EDGE('',*,*,#410,.F.);
#344=ORIENTED_EDGE('',*,*,#409,.T.);
#345=ORIENTED_EDGE('',*,*,#411,.F.);
#346=ORIENTED_EDGE('',*,*,#410,.T.);
#347=ORIENTED_EDGE('',*,*,#412,.F.);
#348=ORIENTED_EDGE('',*,*,#411,.T.);
#349=ORIENTED_EDGE('',*,*,#401,.F.);
#350=ORIENTED_EDGE('',*,*,#412,.T.);
#351=ORIENTED_EDGE('',*,*,#413,.F.);
#352=ORIENTED_EDGE('',*,*,#414,.T.);
#353=ORIENTED_EDGE('',*,*,#415,.F.);
#354=ORIENTED_EDGE('',*,*,#413,.T.);
#355=ORIENTED_EDGE('',*,*,#416,.F.);
#356=ORIENTED_EDGE('',*,*,#415,.T.);
#357=ORIENTED_EDGE('',*,*,#417,.F.);
#358=ORIENTED_EDGE('',*,*,#416,.T.);
#359=ORIENTED_EDGE('',*,*,#418,.F.);
#360=ORIENTED_EDGE('',*,*,#417,.T.);
#361=ORIENTED_EDGE('',*,*,#419,.F.);
#362=ORIENTED_EDGE('',*,*,#418,.T.);
#363=ORIENTED_EDGE('',*,*,#420,.F.);
#364=ORIENTED_EDGE('',*,*,#419,.T.);
#365=ORIENTED_EDGE('',*,*,#421,.F.);
#366=ORIENTED_EDGE('',*,*,#420,.T.);
#367=ORIENTED_EDGE('',*,*,#422,.F.);
#368=ORIENTED_EDGE('',*,*,#421,.T.);
#369=ORIENTED_EDGE('',*,*,#423,.F.);
#370=ORIENTED_EDGE('',*,*,#422,.T.);
#371=ORIENTED_EDGE('',*,*,#424,.F.);
#372=ORIENTED_EDGE('',*,*,#423,.T.);
#373=ORIENTED_EDGE('',*,*,#414,.F.);
#374=ORIENTED_EDGE('',*,*,#424,.T.);
#375=VERTEX_POINT('',#596);
#376=VERTEX_POINT('',#598);
#377=VERTEX_POINT('',#601);
#378=VERTEX_POINT('',#604);
#379=VERTEX_POINT('',#607);
#380=VERTEX_POINT('',#610);
#381=VERTEX_POINT('',#613);
#382=VERTEX_POINT('',#616);
#383=VERTEX_POINT('',#619);
#384=VERTEX_POINT('',#623);
#385=VERTEX_POINT('',#626);
#386=VERTEX_POINT('',#629);
#387=VERTEX_POINT('',#632);
#388=VERTEX_POINT('',#636);
#389=VERTEX_POINT('',#638);
#390=VERTEX_POINT('',#645);
#391=VERTEX_POINT('',#652);
#392=VERTEX_POINT('',#656);
#393=VERTEX_POINT('',#660);
#394=VERTEX_POINT('',#664);
#395=VERTEX_POINT('',#668);
#396=VERTEX_POINT('',#675);
#397=VERTEX_POINT('',#682);
#398=VERTEX_POINT('',#686);
#399=VERTEX_POINT('',#690);
#400=EDGE_CURVE('',#375,#375,#425,.T.);
#401=EDGE_CURVE('',#376,#376,#426,.T.);
#402=EDGE_CURVE('',#377,#377,#427,.T.);
#403=EDGE_CURVE('',#378,#378,#428,.T.);
#404=EDGE_CURVE('',#379,#379,#429,.T.);
#405=EDGE_CURVE('',#380,#380,#430,.T.);
#406=EDGE_CURVE('',#381,#381,#431,.T.);
#407=EDGE_CURVE('',#382,#382,#432,.T.);
#408=EDGE_CURVE('',#383,#383,#433,.T.);
#409=EDGE_CURVE('',#384,#384,#434,.T.);
#410=EDGE_CURVE('',#385,#385,#435,.T.);
#411=EDGE_CURVE('',#386,#386,#436,.T.);
#412=EDGE_CURVE('',#387,#387,#437,.T.);
#413=EDGE_CURVE('',#388,#388,#438,.T.);
#414=EDGE_CURVE('',#389,#389,#439,.T.);
#415=EDGE_CURVE('',#390,#390,#440,.T.);
#416=EDGE_CURVE('',#391,#391,#441,.T.);
#417=EDGE_CURVE('',#392,#392,#442,.T.);
#418=EDGE_CURVE('',#393,#393,#443,.T.);
#419=EDGE_CURVE('',#394,#394,#444,.T.);
#420=EDGE_CURVE('',#395,#395,#445,.T.);
#421=EDGE_CURVE('',#396,#396,#446,.T.);
#422=EDGE_CURVE('',#397,#397,#447,.T.);
#423=EDGE_CURVE('',#398,#398,#448,.T.);
#424=EDGE_CURVE('',#399,#399,#449,.T.);
#425=CIRCLE('',#451,12.35);
#426=CIRCLE('',#452,12.5);
#427=CIRCLE('',#454,12.35);
#428=CIRCLE('',#456,12.1743513145375);
#429=CIRCLE('',#458,11.374746066245);
#430=CIRCLE('',#460,11.2340833882125);
#431=CIRCLE('',#462,11.0677540355583);
#432=CIRCLE('',#464,7.46854187685891);
#433=CIRCLE('',#466,7.3022125242047);
#434=CIRCLE('',#469,11.25);
#435=CIRCLE('',#471,12.25);
#436=CIRCLE('',#473,12.25);
#437=CIRCLE('',#475,12.5);
#438=CIRCLE('',#478,12.1733588105824);
#439=CIRCLE('',#479,11.6198181350673);
#440=CIRCLE('',#480,12.9999738455841);
#441=CIRCLE('',#481,12.9768345652507);
#442=CIRCLE('',#482,12.3149239038038);
#443=CIRCLE('',#484,11.5798469327926);
#444=CIRCLE('',#485,7.98630304857185);
#445=CIRCLE('',#486,7.4293668500434);
#446=CIRCLE('',#487,6.60074929862172);
#447=CIRCLE('',#488,6.71510945790207);
#448=CIRCLE('',#489,7.36763935462917);
#449=CIRCLE('',#491,8.08088468610964);
#450=AXIS2_PLACEMENT_3D('',#594,#492,#493);
#451=AXIS2_PLACEMENT_3D('',#595,#494,#495);
#452=AXIS2_PLACEMENT_3D('',#597,#496,#497);
#453=AXIS2_PLACEMENT_3D('',#599,#498,#499);
#454=AXIS2_PLACEMENT_3D('',#600,#500,#501);
#455=AXIS2_PLACEMENT_3D('',#602,#502,#503);
#456=AXIS2_PLACEMENT_3D('',#603,#504,#505);
#457=AXIS2_PLACEMENT_3D('',#605,#506,#507);
#458=AXIS2_PLACEMENT_3D('',#606,#508,#509);
#459=AXIS2_PLACEMENT_3D('',#608,#510,#511);
#460=AXIS2_PLACEMENT_3D('',#609,#512,#513);
#461=AXIS2_PLACEMENT_3D('',#611,#514,#515);
#462=AXIS2_PLACEMENT_3D('',#612,#516,#517);
#463=AXIS2_PLACEMENT_3D('',#614,#518,#519);
#464=AXIS2_PLACEMENT_3D('',#615,#520,#521);
#465=AXIS2_PLACEMENT_3D('',#617,#522,#523);
#466=AXIS2_PLACEMENT_3D('',#618,#524,#525);
#467=AXIS2_PLACEMENT_3D('',#620,#526,#527);
#468=AXIS2_PLACEMENT_3D('',#621,#528,#529);
#469=AXIS2_PLACEMENT_3D('',#622,#530,#531);
#470=AXIS2_PLACEMENT_3D('',#624,#532,#533);
#471=AXIS2_PLACEMENT_3D('',#625,#534,#535);
#472=AXIS2_PLACEMENT_3D('',#627,#536,#537);
#473=AXIS2_PLACEMENT_3D('',#628,#538,#539);
#474=AXIS2_PLACEMENT_3D('',#630,#540,#541);
#475=AXIS2_PLACEMENT_3D('',#631,#542,#543);
#476=AXIS2_PLACEMENT_3D('',#633,#544,#545);
#477=AXIS2_PLACEMENT_3D('',#634,#546,#547);
#478=AXIS2_PLACEMENT_3D('',#635,#548,#549);
#479=AXIS2_PLACEMENT_3D('',#637,#550,#551);
#480=AXIS2_PLACEMENT_3D('',#644,#553,#554);
#481=AXIS2_PLACEMENT_3D('',#651,#556,#557);
#482=AXIS2_PLACEMENT_3D('',#655,#560,#561);
#483=AXIS2_PLACEMENT_3D('',#657,#562,#563);
#484=AXIS2_PLACEMENT_3D('',#659,#565,#566);
#485=AXIS2_PLACEMENT_3D('',#663,#569,#570);
#486=AXIS2_PLACEMENT_3D('',#667,#573,#574);
#487=AXIS2_PLACEMENT_3D('',#674,#576,#577);
#488=AXIS2_PLACEMENT_3D('',#681,#579,#580);
#489=AXIS2_PLACEMENT_3D('',#685,#583,#584);
#490=AXIS2_PLACEMENT_3D('',#687,#585,#586);
#491=AXIS2_PLACEMENT_3D('',#689,#588,#589);
#492=DIRECTION('',(0.,0.,1.));
#493=DIRECTION('',(1.,0.,0.));
#494=DIRECTION('',(-1.,0.,0.));
#495=DIRECTION('',(0.,0.,1.));
#496=DIRECTION('',(-1.,0.,0.));
#497=DIRECTION('',(0.,0.,1.));
#498=DIRECTION('',(1.,0.,0.));
#499=DIRECTION('',(4.70552902413038E-17,0.,-1.));
#500=DIRECTION('',(-1.,0.,0.));
#501=DIRECTION('',(0.,0.,1.));
#502=DIRECTION('',(-1.,0.,0.));
#503=DIRECTION('',(0.,0.,1.));
#504=DIRECTION('',(-1.,0.,0.));
#505=DIRECTION('',(0.,0.,1.));
#506=DIRECTION('',(1.,0.,0.));
#507=DIRECTION('',(-4.75524378692033E-16,0.,-1.));
#508=DIRECTION('',(-1.,0.,0.));
#509=DIRECTION('',(0.,0.,1.));
#510=DIRECTION('',(-1.,0.,0.));
#511=DIRECTION('',(0.,0.,1.));
#512=DIRECTION('',(-1.,0.,0.));
#513=DIRECTION('',(0.,0.,1.));
#514=DIRECTION('',(1.,0.,0.));
#515=DIRECTION('',(0.,0.,-1.));
#516=DIRECTION('',(-1.,0.,0.));
#517=DIRECTION('',(0.,0.,1.));
#518=DIRECTION('',(-1.,0.,0.));
#519=DIRECTION('',(0.,0.,1.));
#520=DIRECTION('',(-1.,0.,0.));
#521=DIRECTION('',(0.,0.,1.));
#522=DIRECTION('',(-1.,0.,0.));
#523=DIRECTION('',(1.16566098456642E-17,0.,1.));
#524=DIRECTION('',(-1.,0.,0.));
#525=DIRECTION('',(0.,0.,1.));
#526=DIRECTION('',(-1.,0.,0.));
#527=DIRECTION('',(0.,0.,1.));
#528=DIRECTION('',(1.,0.,0.));
#529=DIRECTION('',(0.,0.,-1.));
#530=DIRECTION('',(-1.,0.,0.));
#531=DIRECTION('',(0.,0.,1.));
#532=DIRECTION('',(-1.,0.,0.));
#533=DIRECTION('',(0.,0.,1.));
#534=DIRECTION('',(-1.,0.,0.));
#535=DIRECTION('',(0.,0.,1.));
#536=DIRECTION('',(-1.,0.,0.));
#537=DIRECTION('',(0.,0.,1.));
#538=DIRECTION('',(-1.,0.,0.));
#539=DIRECTION('',(0.,0.,1.));
#540=DIRECTION('',(-1.,0.,0.));
#541=DIRECTION('',(0.,0.,1.));
#542=DIRECTION('',(-1.,0.,0.));
#543=DIRECTION('',(0.,0.,1.));
#544=DIRECTION('',(-1.,0.,0.));
#545=DIRECTION('',(-2.94368649994862E-16,0.,1.));
#546=DIRECTION('',(-1.,0.,0.));
#547=DIRECTION('',(0.,0.,1.));
#548=DIRECTION('',(1.,0.,0.));
#549=DIRECTION('',(0.,0.,-1.));
#550=DIRECTION('',(1.,0.,0.));
#551=DIRECTION('',(0.,0.,-1.));
#552=DIRECTION('',(1.,0.,0.));
#553=DIRECTION('',(1.,0.,0.));
#554=DIRECTION('',(0.,0.,-1.));
#555=DIRECTION('',(1.,0.,0.));
#556=DIRECTION('',(1.,0.,0.));
#557=DIRECTION('',(0.,0.,-1.));
#558=DIRECTION('',(0.994467365101738,0.00692305676279224,-0.104817608409395));
#559=DIRECTION('',(1.,0.,0.));
#560=DIRECTION('',(1.,0.,0.));
#561=DIRECTION('',(0.,0.,-1.));
#562=DIRECTION('',(0.104528463267653,-0.164143457806557,0.980882625815245));
#563=DIRECTION('',(0.733967614883504,-0.65280259986147,-0.187457477621796));
#564=DIRECTION('',(1.,0.,0.));
#565=DIRECTION('',(1.,0.,0.));
#566=DIRECTION('',(0.,0.,-1.));
#567=DIRECTION('',(0.11761319957801,0.981404641888153,0.151697278042187));
#568=DIRECTION('',(1.,0.,0.));
#569=DIRECTION('',(1.,0.,0.));
#570=DIRECTION('',(0.,0.,-1.));
#571=DIRECTION('',(0.182509494240403,0.972701488683519,0.143325149310854));
#572=DIRECTION('',(1.,0.,0.));
#573=DIRECTION('',(1.,0.,0.));
#574=DIRECTION('',(0.,0.,-1.));
#575=DIRECTION('',(1.,0.,0.));
#576=DIRECTION('',(1.,0.,0.));
#577=DIRECTION('',(0.,0.,-1.));
#578=DIRECTION('',(1.,0.,0.));
#579=DIRECTION('',(1.,0.,0.));
#580=DIRECTION('',(0.,0.,-1.));
#581=DIRECTION('',(-0.994467365101738,-0.00692305676279214,0.104817608409395));
#582=DIRECTION('',(1.,0.,0.));
#583=DIRECTION('',(1.,0.,0.));
#584=DIRECTION('',(0.,0.,-1.));
#585=DIRECTION('',(0.104528463267653,-0.164143457806557,0.980882625815245));
#586=DIRECTION('',(-0.733967614883505,0.652802599861468,0.187457477621795));
#587=DIRECTION('',(1.,0.,0.));
#588=DIRECTION('',(1.,0.,0.));
#589=DIRECTION('',(0.,0.,-1.));
#590=DIRECTION('',(-0.117613199578008,-0.981404641888154,-0.151697278042187));
#591=DIRECTION('',(1.,0.,0.));
#592=DIRECTION('',(-0.182509494240403,-0.972701488683519,-0.143325149310854));
#593=DIRECTION('',(1.,0.,0.));
#594=CARTESIAN_POINT('',(0.,0.,0.));
#595=CARTESIAN_POINT('',(29.7401923788646,0.,0.));
#596=CARTESIAN_POINT('',(29.7401923788646,0.,12.35));
#597=CARTESIAN_POINT('',(30.,0.,0.));
#598=CARTESIAN_POINT('',(30.,0.,12.5));
#599=CARTESIAN_POINT('',(30.,0.,0.));
#600=CARTESIAN_POINT('',(7.06410319075481,0.,0.));
#601=CARTESIAN_POINT('',(7.06410319075481,0.,12.35));
#602=CARTESIAN_POINT('',(0.,0.,0.));
#603=CARTESIAN_POINT('',(1.4748713927375,0.,0.));
#604=CARTESIAN_POINT('',(1.4748713927375,0.,12.1743513145375));
#605=CARTESIAN_POINT('',(7.06410319075481,0.,0.));
#606=CARTESIAN_POINT('',(0.7,0.,0.));
#607=CARTESIAN_POINT('',(0.7,0.,11.374746066245));
#608=CARTESIAN_POINT('',(1.5,0.,0.));
#609=CARTESIAN_POINT('',(0.7,0.,0.));
#610=CARTESIAN_POINT('',(0.7,0.,11.2340833882125));
#611=CARTESIAN_POINT('',(0.7,11.374746066245,0.));
#612=CARTESIAN_POINT('',(0.717481919412955,0.,0.));
#613=CARTESIAN_POINT('',(0.717481919412955,0.,11.0677540355583));
#614=CARTESIAN_POINT('',(1.5,0.,0.));
#615=CARTESIAN_POINT('',(1.48251808058704,0.,0.));
#616=CARTESIAN_POINT('',(1.48251808058704,0.,7.46854187685891));
#617=CARTESIAN_POINT('',(0.717481919412955,0.,0.));
#618=CARTESIAN_POINT('',(1.5,0.,0.));
#619=CARTESIAN_POINT('',(1.5,0.,7.3022125242047));
#620=CARTESIAN_POINT('',(0.7,0.,0.));
#621=CARTESIAN_POINT('',(1.5,7.3022125242047,0.));
#622=CARTESIAN_POINT('',(200.,0.,0.));
#623=CARTESIAN_POINT('',(200.,0.,11.25));
#624=CARTESIAN_POINT('',(200.,11.25,0.));
#625=CARTESIAN_POINT('',(199.,0.,0.));
#626=CARTESIAN_POINT('',(199.,0.,12.25));
#627=CARTESIAN_POINT('',(199.,0.,0.));
#628=CARTESIAN_POINT('',(196.,0.,0.));
#629=CARTESIAN_POINT('',(196.,0.,12.25));
#630=CARTESIAN_POINT('',(0.,0.,0.));
#631=CARTESIAN_POINT('',(194.582179545096,0.,0.));
#632=CARTESIAN_POINT('',(194.582179545096,0.,12.5));
#633=CARTESIAN_POINT('',(196.,0.,0.));
#634=CARTESIAN_POINT('',(0.,0.,0.));
#635=CARTESIAN_POINT('',(0.0276131535638623,0.,0.));
#636=CARTESIAN_POINT('',(0.0276131535638623,0.,-12.1733588105824));
#637=CARTESIAN_POINT('',(0.100047780748413,0.,0.));
#638=CARTESIAN_POINT('',(0.100047780748413,0.,-11.6198181350673));
#639=CARTESIAN_POINT('',(0.100047780748414,-11.6176802329015,0.222888981533106));
#640=CARTESIAN_POINT('',(0.0759128270031759,-11.8026575213775,0.194506358182059));
#641=CARTESIAN_POINT('',(0.0517778732579379,-11.9876348098535,0.166123734831011));
#642=CARTESIAN_POINT('',(0.0276131535638635,-12.1725794200331,0.137749751981098));
#643=CARTESIAN_POINT('',(30.,0.,0.));
#644=CARTESIAN_POINT('',(0.766442488072842,0.,0.));
#645=CARTESIAN_POINT('',(0.766442488072842,0.,-12.9999738455841));
#646=CARTESIAN_POINT('',(0.0276131535638636,-12.1725794200331,0.137749751981098));
#647=CARTESIAN_POINT('',(-0.0357764087865386,-12.6577312466123,0.0633183338738635));
#648=CARTESIAN_POINT('',(0.272774705658033,-13.0031680600085,-0.0273689354240417));
#649=CARTESIAN_POINT('',(0.766442488072842,-12.9997313558998,-0.079401891071808));
#650=CARTESIAN_POINT('',(30.,0.,0.));
#651=CARTESIAN_POINT('',(8.68322744834797,0.,0.));
#652=CARTESIAN_POINT('',(8.68322744834797,0.,-12.9768345652507));
#653=CARTESIAN_POINT('',(0.766442488072843,-12.9997313558998,-0.0794018910718079));
#654=CARTESIAN_POINT('',(30.,0.,0.));
#655=CARTESIAN_POINT('',(9.43966224119117,0.,0.));
#656=CARTESIAN_POINT('',(9.43966224119117,0.,-12.3149239038038));
#657=CARTESIAN_POINT('',(8.62173697050931,-12.1352969179234,-0.771850289271271));
#658=CARTESIAN_POINT('',(30.,0.,0.));
#659=CARTESIAN_POINT('',(9.52702992123499,0.,0.));
#660=CARTESIAN_POINT('',(9.52702992123499,0.,-11.5798469327926));
#661=CARTESIAN_POINT('',(9.43966224119118,-12.2831722656673,-0.883758931168112));
#662=CARTESIAN_POINT('',(30.,0.,0.));
#663=CARTESIAN_POINT('',(10.1971741210785,0.,0.));
#664=CARTESIAN_POINT('',(10.1971741210785,0.,-7.98630304857185));
#665=CARTESIAN_POINT('',(9.52702992123499,-11.554146552111,-0.771072265903837));
#666=CARTESIAN_POINT('',(30.,0.,0.));
#667=CARTESIAN_POINT('',(10.269608748263,0.,0.));
#668=CARTESIAN_POINT('',(10.269608748263,0.,-7.4293668500434));
#669=CARTESIAN_POINT('',(10.1971741210785,-7.98255010704195,-0.244806397368507));
#670=CARTESIAN_POINT('',(10.2213090748237,-7.79757281856599,-0.21642377401746));
#671=CARTESIAN_POINT('',(10.245444028569,-7.61259553009002,-0.188041150666413));
#672=CARTESIAN_POINT('',(10.269608748263,-7.42765091991037,-0.1596671678165));
#673=CARTESIAN_POINT('',(30.,0.,0.));
#674=CARTESIAN_POINT('',(9.53077941375404,0.,0.));
#675=CARTESIAN_POINT('',(9.53077941375404,0.,-6.60074929862172));
#676=CARTESIAN_POINT('',(10.269608748263,-7.42765091991037,-0.1596671678165));
#677=CARTESIAN_POINT('',(10.3329983106134,-6.94249909333118,-0.0852357497092647));
#678=CARTESIAN_POINT('',(10.0244471961689,-6.59706227993498,0.00545151958864049));
#679=CARTESIAN_POINT('',(9.53077941375404,-6.6004989840437,0.057484475236406));
#680=CARTESIAN_POINT('',(30.,0.,0.));
#681=CARTESIAN_POINT('',(1.61399445347892,0.,0.));
#682=CARTESIAN_POINT('',(1.61399445347892,0.,-6.71510945790207));
#683=CARTESIAN_POINT('',(9.53077941375404,-6.60049898404369,0.0574844752364082));
#684=CARTESIAN_POINT('',(30.,0.,0.));
#685=CARTESIAN_POINT('',(0.857559660635707,0.,0.));
#686=CARTESIAN_POINT('',(0.857559660635707,0.,-7.36763935462917));
#687=CARTESIAN_POINT('',(1.67548493131757,-7.46493342202007,0.749932873435871));
#688=CARTESIAN_POINT('',(30.,0.,0.));
#689=CARTESIAN_POINT('',(0.770191980591892,0.,0.));
#690=CARTESIAN_POINT('',(0.770191980591892,0.,-8.08088468610964));
#691=CARTESIAN_POINT('',(0.857559660635708,-7.31705807427614,0.861841515332712));
#692=CARTESIAN_POINT('',(30.,0.,0.));
#693=CARTESIAN_POINT('',(0.770191980591893,-8.04608378783245,0.749154850068436));
#694=CARTESIAN_POINT('',(30.,0.,0.));
#695=(
GEOMETRIC_REPRESENTATION_CONTEXT(3)
GLOBAL_UNCERTAINTY_ASSIGNED_CONTEXT((#696))
GLOBAL_UNIT_ASSIGNED_CONTEXT((#702,#698,#697))
REPRESENTATION_CONTEXT('AEM90-AD1003-D26-C25-L200-Z03',
'TOP_LEVEL_ASSEMBLY_PART')
);
#696=UNCERTAINTY_MEASURE_WITH_UNIT(LENGTH_MEASURE(2.E-5),#702,
'DISTANCE_ACCURACY_VALUE','Maximum Tolerance applied to model');
#697=(
NAMED_UNIT(*)
SI_UNIT($,.STERADIAN.)
SOLID_ANGLE_UNIT()
);
#698=(
CONVERSION_BASED_UNIT('DEGREE',#700)
NAMED_UNIT(#699)
PLANE_ANGLE_UNIT()
);
#699=DIMENSIONAL_EXPONENTS(0.,0.,0.,0.,0.,0.,0.);
#700=PLANE_ANGLE_MEASURE_WITH_UNIT(PLANE_ANGLE_MEASURE(0.0174532925),#701);
#701=(
NAMED_UNIT(*)
PLANE_ANGLE_UNIT()
SI_UNIT($,.RADIAN.)
);
#702=(
LENGTH_UNIT()
NAMED_UNIT(*)
SI_UNIT(.MILLI.,.METRE.)
);
ENDSEC;
END-ISO-10303-21;
