ISO-10303-21;
HEADER;
/* Generated by software containing ST-Developer
 * from STEP Tools, Inc. (www.steptools.com) 
 */
/* OPTION: using custom schema-name function */

FILE_DESCRIPTION(
/* description */ (''),
/* implementation_level */ '2;1');

FILE_NAME(
/* name */ 'AEM90-AD10T3-D16-W16-L100-Z02-H.stp',
/* time_stamp */ '2023-10-02T14:20:50+03:00',
/* author */ (''),
/* organization */ (''),
/* preprocessor_version */ 'ST-DEVELOPER v19.4',
/* originating_system */ 'SIEMENS PLM Software NX2306.3001',
/* authorisation */ '');

FILE_SCHEMA (('AUTOMOTIVE_DESIGN { 1 0 10303 214 3 1 1 1 }'));
ENDSEC;

DATA;
#10=SHAPE_REPRESENTATION_RELATIONSHIP('None',
'relationship between AEM90-AD10T3-D16-W16-L100-Z02-H-None and AEM90-A
D10T3-D16-W16-L100-Z02-H-None',#22,#11);
#11=ADVANCED_BREP_SHAPE_REPRESENTATION(
'AEM90-AD10T3-D16-W16-L100-Z02-H-None',(#178,#179),#704);
#12=SHAPE_DEFINITION_REPRESENTATION(#13,#22);
#13=PRODUCT_DEFINITION_SHAPE('','',#14);
#14=PRODUCT_DEFINITION(' ','',#16,#15);
#15=PRODUCT_DEFINITION_CONTEXT('part definition',#21,'design');
#16=PRODUCT_DEFINITION_FORMATION_WITH_SPECIFIED_SOURCE(' ',' ',#18,
 .NOT_KNOWN.);
#17=PRODUCT_RELATED_PRODUCT_CATEGORY('part','',(#18));
#18=PRODUCT('AEM90-AD10T3-D16-W16-L100-Z02-H',
'AEM90-AD10T3-D16-W16-L100-Z02-H',' ',(#19));
#19=PRODUCT_CONTEXT(' ',#21,'mechanical');
#20=APPLICATION_PROTOCOL_DEFINITION('international standard',
'automotive_design',2010,#21);
#21=APPLICATION_CONTEXT(
'core data for automotive mechanical design processes');
#22=SHAPE_REPRESENTATION('AEM90-AD10T3-D16-W16-L100-Z02-H-None',(#454),
#704);
#23=DRAUGHTING_PRE_DEFINED_COLOUR('yellow');
#24=ELLIPSE('',#479,0.415586532211051,0.4);
#25=ELLIPSE('',#484,0.414910418824857,0.4);
#26=ELLIPSE('',#489,0.415586532211051,0.4);
#27=ELLIPSE('',#494,0.414910418824857,0.4);
#28=SURFACE_OF_REVOLUTION('',#60,#44);
#29=SURFACE_OF_REVOLUTION('',#24,#45);
#30=SURFACE_OF_REVOLUTION('',#61,#46);
#31=SURFACE_OF_REVOLUTION('',#62,#47);
#32=SURFACE_OF_REVOLUTION('',#63,#48);
#33=SURFACE_OF_REVOLUTION('',#25,#49);
#34=SURFACE_OF_REVOLUTION('',#64,#50);
#35=SURFACE_OF_REVOLUTION('',#65,#51);
#36=SURFACE_OF_REVOLUTION('',#66,#52);
#37=SURFACE_OF_REVOLUTION('',#26,#53);
#38=SURFACE_OF_REVOLUTION('',#67,#54);
#39=SURFACE_OF_REVOLUTION('',#68,#55);
#40=SURFACE_OF_REVOLUTION('',#69,#56);
#41=SURFACE_OF_REVOLUTION('',#27,#57);
#42=SURFACE_OF_REVOLUTION('',#70,#58);
#43=SURFACE_OF_REVOLUTION('',#71,#59);
#44=AXIS1_PLACEMENT('',#645,#545);
#45=AXIS1_PLACEMENT('',#649,#550);
#46=AXIS1_PLACEMENT('',#653,#554);
#47=AXIS1_PLACEMENT('',#657,#558);
#48=AXIS1_PLACEMENT('',#661,#562);
#49=AXIS1_PLACEMENT('',#665,#567);
#50=AXIS1_PLACEMENT('',#669,#571);
#51=AXIS1_PLACEMENT('',#673,#575);
#52=AXIS1_PLACEMENT('',#677,#579);
#53=AXIS1_PLACEMENT('',#681,#584);
#54=AXIS1_PLACEMENT('',#685,#588);
#55=AXIS1_PLACEMENT('',#689,#592);
#56=AXIS1_PLACEMENT('',#693,#596);
#57=AXIS1_PLACEMENT('',#697,#601);
#58=AXIS1_PLACEMENT('',#701,#605);
#59=AXIS1_PLACEMENT('',#703,#607);
#60=LINE('',#644,#72);
#61=LINE('',#652,#73);
#62=LINE('',#656,#74);
#63=LINE('',#660,#75);
#64=LINE('',#668,#76);
#65=LINE('',#672,#77);
#66=LINE('',#676,#78);
#67=LINE('',#684,#79);
#68=LINE('',#688,#80);
#69=LINE('',#692,#81);
#70=LINE('',#700,#82);
#71=LINE('',#702,#83);
#72=VECTOR('',#544,1.19786320880015);
#73=VECTOR('',#553,1.09523085218995);
#74=VECTOR('',#557,8.55205714364277);
#75=VECTOR('',#561,0.45643588321657);
#76=VECTOR('',#570,1.05334916594385);
#77=VECTOR('',#574,3.64889386782618);
#78=VECTOR('',#578,1.19786320880015);
#79=VECTOR('',#587,1.09523085218995);
#80=VECTOR('',#591,8.55205714364274);
#81=VECTOR('',#595,0.456435883216595);
#82=VECTOR('',#604,1.05334916594383);
#83=VECTOR('',#606,3.64889386782618);
#84=OVER_RIDING_STYLED_ITEM('',(#99),#241,#96);
#85=OVER_RIDING_STYLED_ITEM('',(#100),#242,#96);
#86=OVER_RIDING_STYLED_ITEM('',(#101),#243,#96);
#87=OVER_RIDING_STYLED_ITEM('',(#102),#244,#96);
#88=OVER_RIDING_STYLED_ITEM('',(#103),#245,#96);
#89=OVER_RIDING_STYLED_ITEM('',(#104),#246,#96);
#90=OVER_RIDING_STYLED_ITEM('',(#105),#247,#96);
#91=OVER_RIDING_STYLED_ITEM('',(#106),#248,#96);
#92=OVER_RIDING_STYLED_ITEM('',(#107),#249,#96);
#93=OVER_RIDING_STYLED_ITEM('',(#108),#250,#96);
#94=OVER_RIDING_STYLED_ITEM('',(#109),#251,#96);
#95=PRESENTATION_LAYER_ASSIGNMENT('1','Layer 1',(#178,#179));
#96=STYLED_ITEM('',(#98),#178);
#97=STYLED_ITEM('',(#110),#179);
#98=PRESENTATION_STYLE_ASSIGNMENT((#111));
#99=PRESENTATION_STYLE_ASSIGNMENT((#112));
#100=PRESENTATION_STYLE_ASSIGNMENT((#113));
#101=PRESENTATION_STYLE_ASSIGNMENT((#114));
#102=PRESENTATION_STYLE_ASSIGNMENT((#115));
#103=PRESENTATION_STYLE_ASSIGNMENT((#116));
#104=PRESENTATION_STYLE_ASSIGNMENT((#117));
#105=PRESENTATION_STYLE_ASSIGNMENT((#118));
#106=PRESENTATION_STYLE_ASSIGNMENT((#119));
#107=PRESENTATION_STYLE_ASSIGNMENT((#120));
#108=PRESENTATION_STYLE_ASSIGNMENT((#121));
#109=PRESENTATION_STYLE_ASSIGNMENT((#122));
#110=PRESENTATION_STYLE_ASSIGNMENT((#123));
#111=SURFACE_STYLE_USAGE(.BOTH.,#124);
#112=SURFACE_STYLE_USAGE(.BOTH.,#125);
#113=SURFACE_STYLE_USAGE(.BOTH.,#126);
#114=SURFACE_STYLE_USAGE(.BOTH.,#127);
#115=SURFACE_STYLE_USAGE(.BOTH.,#128);
#116=SURFACE_STYLE_USAGE(.BOTH.,#129);
#117=SURFACE_STYLE_USAGE(.BOTH.,#130);
#118=SURFACE_STYLE_USAGE(.BOTH.,#131);
#119=SURFACE_STYLE_USAGE(.BOTH.,#132);
#120=SURFACE_STYLE_USAGE(.BOTH.,#133);
#121=SURFACE_STYLE_USAGE(.BOTH.,#134);
#122=SURFACE_STYLE_USAGE(.BOTH.,#135);
#123=SURFACE_STYLE_USAGE(.BOTH.,#136);
#124=SURFACE_SIDE_STYLE('',(#137));
#125=SURFACE_SIDE_STYLE('',(#138));
#126=SURFACE_SIDE_STYLE('',(#139));
#127=SURFACE_SIDE_STYLE('',(#140));
#128=SURFACE_SIDE_STYLE('',(#141));
#129=SURFACE_SIDE_STYLE('',(#142));
#130=SURFACE_SIDE_STYLE('',(#143));
#131=SURFACE_SIDE_STYLE('',(#144));
#132=SURFACE_SIDE_STYLE('',(#145));
#133=SURFACE_SIDE_STYLE('',(#146));
#134=SURFACE_SIDE_STYLE('',(#147));
#135=SURFACE_SIDE_STYLE('',(#148));
#136=SURFACE_SIDE_STYLE('',(#149));
#137=SURFACE_STYLE_FILL_AREA(#150);
#138=SURFACE_STYLE_FILL_AREA(#151);
#139=SURFACE_STYLE_FILL_AREA(#152);
#140=SURFACE_STYLE_FILL_AREA(#153);
#141=SURFACE_STYLE_FILL_AREA(#154);
#142=SURFACE_STYLE_FILL_AREA(#155);
#143=SURFACE_STYLE_FILL_AREA(#156);
#144=SURFACE_STYLE_FILL_AREA(#157);
#145=SURFACE_STYLE_FILL_AREA(#158);
#146=SURFACE_STYLE_FILL_AREA(#159);
#147=SURFACE_STYLE_FILL_AREA(#160);
#148=SURFACE_STYLE_FILL_AREA(#161);
#149=SURFACE_STYLE_FILL_AREA(#162);
#150=FILL_AREA_STYLE('',(#163));
#151=FILL_AREA_STYLE('',(#164));
#152=FILL_AREA_STYLE('',(#165));
#153=FILL_AREA_STYLE('',(#166));
#154=FILL_AREA_STYLE('',(#167));
#155=FILL_AREA_STYLE('',(#168));
#156=FILL_AREA_STYLE('',(#169));
#157=FILL_AREA_STYLE('',(#170));
#158=FILL_AREA_STYLE('',(#171));
#159=FILL_AREA_STYLE('',(#172));
#160=FILL_AREA_STYLE('',(#173));
#161=FILL_AREA_STYLE('',(#174));
#162=FILL_AREA_STYLE('',(#175));
#163=FILL_AREA_STYLE_COLOUR('',#176);
#164=FILL_AREA_STYLE_COLOUR('',#177);
#165=FILL_AREA_STYLE_COLOUR('',#177);
#166=FILL_AREA_STYLE_COLOUR('',#177);
#167=FILL_AREA_STYLE_COLOUR('',#177);
#168=FILL_AREA_STYLE_COLOUR('',#177);
#169=FILL_AREA_STYLE_COLOUR('',#177);
#170=FILL_AREA_STYLE_COLOUR('',#177);
#171=FILL_AREA_STYLE_COLOUR('',#177);
#172=FILL_AREA_STYLE_COLOUR('',#177);
#173=FILL_AREA_STYLE_COLOUR('',#177);
#174=FILL_AREA_STYLE_COLOUR('',#177);
#175=FILL_AREA_STYLE_COLOUR('',#23);
#176=COLOUR_RGB('Medium Steel',0.611764705882353,0.658823529411765,0.670588235294118);
#177=COLOUR_RGB('silver gray',0.6,0.6,0.6);
#178=MANIFOLD_SOLID_BREP('',#180);
#179=MANIFOLD_SOLID_BREP('',#181);
#180=CLOSED_SHELL('',(#241,#242,#243,#244,#245,#246,#247,#248,#249,#250,
#251));
#181=CLOSED_SHELL('',(#252,#253,#254,#255,#256,#257,#258,#259,#260,#261,
#262,#263,#264,#265,#266,#267));
#182=CONICAL_SURFACE('',#462,7.75,10.0000000000001);
#183=CONICAL_SURFACE('',#466,8.,30.);
#184=CONICAL_SURFACE('',#470,7.6,4.00000000000002);
#185=CONICAL_SURFACE('',#474,6.25045400683598,82.0000000000004);
#186=CYLINDRICAL_SURFACE('',#460,7.75);
#187=CYLINDRICAL_SURFACE('',#464,8.);
#188=CYLINDRICAL_SURFACE('',#468,7.6);
#189=TOROIDAL_SURFACE('',#458,6.75,1.);
#190=TOROIDAL_SURFACE('',#472,6.36179248760403,0.8);
#191=FACE_BOUND('',#273,.T.);
#192=FACE_BOUND('',#274,.T.);
#193=FACE_BOUND('',#275,.T.);
#194=FACE_BOUND('',#276,.T.);
#195=FACE_BOUND('',#277,.T.);
#196=FACE_BOUND('',#278,.T.);
#197=FACE_BOUND('',#279,.T.);
#198=FACE_BOUND('',#280,.T.);
#199=FACE_BOUND('',#281,.T.);
#200=FACE_BOUND('',#282,.T.);
#201=FACE_BOUND('',#283,.T.);
#202=FACE_BOUND('',#284,.T.);
#203=FACE_BOUND('',#285,.T.);
#204=FACE_BOUND('',#286,.T.);
#205=FACE_BOUND('',#287,.T.);
#206=FACE_BOUND('',#288,.T.);
#207=FACE_BOUND('',#289,.T.);
#208=FACE_BOUND('',#290,.T.);
#209=FACE_BOUND('',#292,.T.);
#210=FACE_BOUND('',#293,.T.);
#211=FACE_BOUND('',#294,.T.);
#212=FACE_BOUND('',#295,.T.);
#213=FACE_BOUND('',#296,.T.);
#214=FACE_BOUND('',#297,.T.);
#215=FACE_BOUND('',#298,.T.);
#216=FACE_BOUND('',#299,.T.);
#217=FACE_BOUND('',#300,.T.);
#218=FACE_BOUND('',#301,.T.);
#219=FACE_BOUND('',#302,.T.);
#220=FACE_BOUND('',#303,.T.);
#221=FACE_BOUND('',#304,.T.);
#222=FACE_BOUND('',#305,.T.);
#223=FACE_BOUND('',#306,.T.);
#224=FACE_BOUND('',#307,.T.);
#225=FACE_BOUND('',#308,.T.);
#226=FACE_BOUND('',#309,.T.);
#227=FACE_BOUND('',#310,.T.);
#228=FACE_BOUND('',#311,.T.);
#229=FACE_BOUND('',#312,.T.);
#230=FACE_BOUND('',#313,.T.);
#231=FACE_BOUND('',#314,.T.);
#232=FACE_BOUND('',#315,.T.);
#233=FACE_BOUND('',#316,.T.);
#234=FACE_BOUND('',#317,.T.);
#235=FACE_BOUND('',#318,.T.);
#236=FACE_BOUND('',#319,.T.);
#237=FACE_BOUND('',#320,.T.);
#238=FACE_BOUND('',#321,.T.);
#239=FACE_BOUND('',#322,.T.);
#240=FACE_BOUND('',#323,.T.);
#241=ADVANCED_FACE('',(#270),#268,.F.);
#242=ADVANCED_FACE('',(#191,#192),#189,.T.);
#243=ADVANCED_FACE('',(#193,#194),#186,.T.);
#244=ADVANCED_FACE('',(#195,#196),#182,.T.);
#245=ADVANCED_FACE('',(#197,#198),#187,.T.);
#246=ADVANCED_FACE('',(#199,#200),#183,.T.);
#247=ADVANCED_FACE('',(#201,#202),#188,.T.);
#248=ADVANCED_FACE('',(#203,#204),#184,.T.);
#249=ADVANCED_FACE('',(#205,#206),#190,.T.);
#250=ADVANCED_FACE('',(#207,#208),#185,.F.);
#251=ADVANCED_FACE('',(#271),#269,.F.);
#252=ADVANCED_FACE('',(#209,#210),#28,.T.);
#253=ADVANCED_FACE('',(#211,#212),#29,.T.);
#254=ADVANCED_FACE('',(#213,#214),#30,.T.);
#255=ADVANCED_FACE('',(#215,#216),#31,.T.);
#256=ADVANCED_FACE('',(#217,#218),#32,.T.);
#257=ADVANCED_FACE('',(#219,#220),#33,.T.);
#258=ADVANCED_FACE('',(#221,#222),#34,.T.);
#259=ADVANCED_FACE('',(#223,#224),#35,.T.);
#260=ADVANCED_FACE('',(#225,#226),#36,.T.);
#261=ADVANCED_FACE('',(#227,#228),#37,.T.);
#262=ADVANCED_FACE('',(#229,#230),#38,.T.);
#263=ADVANCED_FACE('',(#231,#232),#39,.T.);
#264=ADVANCED_FACE('',(#233,#234),#40,.T.);
#265=ADVANCED_FACE('',(#235,#236),#41,.T.);
#266=ADVANCED_FACE('',(#237,#238),#42,.T.);
#267=ADVANCED_FACE('',(#239,#240),#43,.T.);
#268=PLANE('',#456);
#269=PLANE('',#475);
#270=FACE_OUTER_BOUND('',#272,.T.);
#271=FACE_OUTER_BOUND('',#291,.T.);
#272=EDGE_LOOP('',(#324));
#273=EDGE_LOOP('',(#325));
#274=EDGE_LOOP('',(#326));
#275=EDGE_LOOP('',(#327));
#276=EDGE_LOOP('',(#328));
#277=EDGE_LOOP('',(#329));
#278=EDGE_LOOP('',(#330));
#279=EDGE_LOOP('',(#331));
#280=EDGE_LOOP('',(#332));
#281=EDGE_LOOP('',(#333));
#282=EDGE_LOOP('',(#334));
#283=EDGE_LOOP('',(#335));
#284=EDGE_LOOP('',(#336));
#285=EDGE_LOOP('',(#337));
#286=EDGE_LOOP('',(#338));
#287=EDGE_LOOP('',(#339));
#288=EDGE_LOOP('',(#340));
#289=EDGE_LOOP('',(#341));
#290=EDGE_LOOP('',(#342));
#291=EDGE_LOOP('',(#343));
#292=EDGE_LOOP('',(#344));
#293=EDGE_LOOP('',(#345));
#294=EDGE_LOOP('',(#346));
#295=EDGE_LOOP('',(#347));
#296=EDGE_LOOP('',(#348));
#297=EDGE_LOOP('',(#349));
#298=EDGE_LOOP('',(#350));
#299=EDGE_LOOP('',(#351));
#300=EDGE_LOOP('',(#352));
#301=EDGE_LOOP('',(#353));
#302=EDGE_LOOP('',(#354));
#303=EDGE_LOOP('',(#355));
#304=EDGE_LOOP('',(#356));
#305=EDGE_LOOP('',(#357));
#306=EDGE_LOOP('',(#358));
#307=EDGE_LOOP('',(#359));
#308=EDGE_LOOP('',(#360));
#309=EDGE_LOOP('',(#361));
#310=EDGE_LOOP('',(#362));
#311=EDGE_LOOP('',(#363));
#312=EDGE_LOOP('',(#364));
#313=EDGE_LOOP('',(#365));
#314=EDGE_LOOP('',(#366));
#315=EDGE_LOOP('',(#367));
#316=EDGE_LOOP('',(#368));
#317=EDGE_LOOP('',(#369));
#318=EDGE_LOOP('',(#370));
#319=EDGE_LOOP('',(#371));
#320=EDGE_LOOP('',(#372));
#321=EDGE_LOOP('',(#373));
#322=EDGE_LOOP('',(#374));
#323=EDGE_LOOP('',(#375));
#324=ORIENTED_EDGE('',*,*,#402,.F.);
#325=ORIENTED_EDGE('',*,*,#403,.F.);
#326=ORIENTED_EDGE('',*,*,#402,.T.);
#327=ORIENTED_EDGE('',*,*,#404,.F.);
#328=ORIENTED_EDGE('',*,*,#403,.T.);
#329=ORIENTED_EDGE('',*,*,#405,.F.);
#330=ORIENTED_EDGE('',*,*,#404,.T.);
#331=ORIENTED_EDGE('',*,*,#406,.F.);
#332=ORIENTED_EDGE('',*,*,#405,.T.);
#333=ORIENTED_EDGE('',*,*,#407,.F.);
#334=ORIENTED_EDGE('',*,*,#406,.T.);
#335=ORIENTED_EDGE('',*,*,#408,.F.);
#336=ORIENTED_EDGE('',*,*,#407,.T.);
#337=ORIENTED_EDGE('',*,*,#409,.F.);
#338=ORIENTED_EDGE('',*,*,#408,.T.);
#339=ORIENTED_EDGE('',*,*,#410,.F.);
#340=ORIENTED_EDGE('',*,*,#409,.T.);
#341=ORIENTED_EDGE('',*,*,#411,.F.);
#342=ORIENTED_EDGE('',*,*,#410,.T.);
#343=ORIENTED_EDGE('',*,*,#411,.T.);
#344=ORIENTED_EDGE('',*,*,#412,.F.);
#345=ORIENTED_EDGE('',*,*,#413,.T.);
#346=ORIENTED_EDGE('',*,*,#414,.F.);
#347=ORIENTED_EDGE('',*,*,#412,.T.);
#348=ORIENTED_EDGE('',*,*,#415,.F.);
#349=ORIENTED_EDGE('',*,*,#414,.T.);
#350=ORIENTED_EDGE('',*,*,#416,.F.);
#351=ORIENTED_EDGE('',*,*,#415,.T.);
#352=ORIENTED_EDGE('',*,*,#417,.F.);
#353=ORIENTED_EDGE('',*,*,#416,.T.);
#354=ORIENTED_EDGE('',*,*,#418,.F.);
#355=ORIENTED_EDGE('',*,*,#417,.T.);
#356=ORIENTED_EDGE('',*,*,#419,.F.);
#357=ORIENTED_EDGE('',*,*,#418,.T.);
#358=ORIENTED_EDGE('',*,*,#420,.F.);
#359=ORIENTED_EDGE('',*,*,#419,.T.);
#360=ORIENTED_EDGE('',*,*,#421,.F.);
#361=ORIENTED_EDGE('',*,*,#420,.T.);
#362=ORIENTED_EDGE('',*,*,#422,.F.);
#363=ORIENTED_EDGE('',*,*,#421,.T.);
#364=ORIENTED_EDGE('',*,*,#423,.F.);
#365=ORIENTED_EDGE('',*,*,#422,.T.);
#366=ORIENTED_EDGE('',*,*,#424,.F.);
#367=ORIENTED_EDGE('',*,*,#423,.T.);
#368=ORIENTED_EDGE('',*,*,#425,.F.);
#369=ORIENTED_EDGE('',*,*,#424,.T.);
#370=ORIENTED_EDGE('',*,*,#426,.F.);
#371=ORIENTED_EDGE('',*,*,#425,.T.);
#372=ORIENTED_EDGE('',*,*,#427,.F.);
#373=ORIENTED_EDGE('',*,*,#426,.T.);
#374=ORIENTED_EDGE('',*,*,#413,.F.);
#375=ORIENTED_EDGE('',*,*,#427,.T.);
#376=VERTEX_POINT('',#610);
#377=VERTEX_POINT('',#613);
#378=VERTEX_POINT('',#616);
#379=VERTEX_POINT('',#619);
#380=VERTEX_POINT('',#622);
#381=VERTEX_POINT('',#625);
#382=VERTEX_POINT('',#628);
#383=VERTEX_POINT('',#631);
#384=VERTEX_POINT('',#634);
#385=VERTEX_POINT('',#637);
#386=VERTEX_POINT('',#641);
#387=VERTEX_POINT('',#643);
#388=VERTEX_POINT('',#647);
#389=VERTEX_POINT('',#651);
#390=VERTEX_POINT('',#655);
#391=VERTEX_POINT('',#659);
#392=VERTEX_POINT('',#663);
#393=VERTEX_POINT('',#667);
#394=VERTEX_POINT('',#671);
#395=VERTEX_POINT('',#675);
#396=VERTEX_POINT('',#679);
#397=VERTEX_POINT('',#683);
#398=VERTEX_POINT('',#687);
#399=VERTEX_POINT('',#691);
#400=VERTEX_POINT('',#695);
#401=VERTEX_POINT('',#699);
#402=EDGE_CURVE('',#376,#376,#428,.T.);
#403=EDGE_CURVE('',#377,#377,#429,.T.);
#404=EDGE_CURVE('',#378,#378,#430,.T.);
#405=EDGE_CURVE('',#379,#379,#431,.T.);
#406=EDGE_CURVE('',#380,#380,#432,.T.);
#407=EDGE_CURVE('',#381,#381,#433,.T.);
#408=EDGE_CURVE('',#382,#382,#434,.T.);
#409=EDGE_CURVE('',#383,#383,#435,.T.);
#410=EDGE_CURVE('',#384,#384,#436,.T.);
#411=EDGE_CURVE('',#385,#385,#437,.T.);
#412=EDGE_CURVE('',#386,#386,#438,.T.);
#413=EDGE_CURVE('',#387,#387,#439,.T.);
#414=EDGE_CURVE('',#388,#388,#440,.T.);
#415=EDGE_CURVE('',#389,#389,#441,.T.);
#416=EDGE_CURVE('',#390,#390,#442,.T.);
#417=EDGE_CURVE('',#391,#391,#443,.T.);
#418=EDGE_CURVE('',#392,#392,#444,.T.);
#419=EDGE_CURVE('',#393,#393,#445,.T.);
#420=EDGE_CURVE('',#394,#394,#446,.T.);
#421=EDGE_CURVE('',#395,#395,#447,.T.);
#422=EDGE_CURVE('',#396,#396,#448,.T.);
#423=EDGE_CURVE('',#397,#397,#449,.T.);
#424=EDGE_CURVE('',#398,#398,#450,.T.);
#425=EDGE_CURVE('',#399,#399,#451,.T.);
#426=EDGE_CURVE('',#400,#400,#452,.T.);
#427=EDGE_CURVE('',#401,#401,#453,.T.);
#428=CIRCLE('',#455,6.75);
#429=CIRCLE('',#457,7.75);
#430=CIRCLE('',#459,7.75);
#431=CIRCLE('',#461,8.);
#432=CIRCLE('',#463,8.);
#433=CIRCLE('',#465,7.6);
#434=CIRCLE('',#467,7.6);
#435=CIRCLE('',#469,7.15984372781189);
#436=CIRCLE('',#471,6.25045400683598);
#437=CIRCLE('',#473,3.);
#438=CIRCLE('',#476,7.6287445611691);
#439=CIRCLE('',#477,6.4898492822489);
#440=CIRCLE('',#478,7.99995997559378);
#441=CIRCLE('',#480,7.98726939955867);
#442=CIRCLE('',#481,7.92728487763033);
#443=CIRCLE('',#482,7.93539835370909);
#444=CIRCLE('',#483,7.58510176835537);
#445=CIRCLE('',#485,6.54013220070911);
#446=CIRCLE('',#486,2.9652547316373);
#447=CIRCLE('',#487,1.78232970802317);
#448=CIRCLE('',#488,1.40631853127773);
#449=CIRCLE('',#490,1.43756326287953);
#450=CIRCLE('',#491,2.24804675705013);
#451=CIRCLE('',#492,2.30304133613568);
#452=CIRCLE('',#493,2.54421394321372);
#453=CIRCLE('',#495,3.27759772825515);
#454=AXIS2_PLACEMENT_3D('',#608,#496,#497);
#455=AXIS2_PLACEMENT_3D('',#609,#498,#499);
#456=AXIS2_PLACEMENT_3D('',#611,#500,#501);
#457=AXIS2_PLACEMENT_3D('',#612,#502,#503);
#458=AXIS2_PLACEMENT_3D('',#614,#504,#505);
#459=AXIS2_PLACEMENT_3D('',#615,#506,#507);
#460=AXIS2_PLACEMENT_3D('',#617,#508,#509);
#461=AXIS2_PLACEMENT_3D('',#618,#510,#511);
#462=AXIS2_PLACEMENT_3D('',#620,#512,#513);
#463=AXIS2_PLACEMENT_3D('',#621,#514,#515);
#464=AXIS2_PLACEMENT_3D('',#623,#516,#517);
#465=AXIS2_PLACEMENT_3D('',#624,#518,#519);
#466=AXIS2_PLACEMENT_3D('',#626,#520,#521);
#467=AXIS2_PLACEMENT_3D('',#627,#522,#523);
#468=AXIS2_PLACEMENT_3D('',#629,#524,#525);
#469=AXIS2_PLACEMENT_3D('',#630,#526,#527);
#470=AXIS2_PLACEMENT_3D('',#632,#528,#529);
#471=AXIS2_PLACEMENT_3D('',#633,#530,#531);
#472=AXIS2_PLACEMENT_3D('',#635,#532,#533);
#473=AXIS2_PLACEMENT_3D('',#636,#534,#535);
#474=AXIS2_PLACEMENT_3D('',#638,#536,#537);
#475=AXIS2_PLACEMENT_3D('',#639,#538,#539);
#476=AXIS2_PLACEMENT_3D('',#640,#540,#541);
#477=AXIS2_PLACEMENT_3D('',#642,#542,#543);
#478=AXIS2_PLACEMENT_3D('',#646,#546,#547);
#479=AXIS2_PLACEMENT_3D('',#648,#548,#549);
#480=AXIS2_PLACEMENT_3D('',#650,#551,#552);
#481=AXIS2_PLACEMENT_3D('',#654,#555,#556);
#482=AXIS2_PLACEMENT_3D('',#658,#559,#560);
#483=AXIS2_PLACEMENT_3D('',#662,#563,#564);
#484=AXIS2_PLACEMENT_3D('',#664,#565,#566);
#485=AXIS2_PLACEMENT_3D('',#666,#568,#569);
#486=AXIS2_PLACEMENT_3D('',#670,#572,#573);
#487=AXIS2_PLACEMENT_3D('',#674,#576,#577);
#488=AXIS2_PLACEMENT_3D('',#678,#580,#581);
#489=AXIS2_PLACEMENT_3D('',#680,#582,#583);
#490=AXIS2_PLACEMENT_3D('',#682,#585,#586);
#491=AXIS2_PLACEMENT_3D('',#686,#589,#590);
#492=AXIS2_PLACEMENT_3D('',#690,#593,#594);
#493=AXIS2_PLACEMENT_3D('',#694,#597,#598);
#494=AXIS2_PLACEMENT_3D('',#696,#599,#600);
#495=AXIS2_PLACEMENT_3D('',#698,#602,#603);
#496=DIRECTION('',(0.,0.,1.));
#497=DIRECTION('',(1.,0.,0.));
#498=DIRECTION('',(-1.,0.,0.));
#499=DIRECTION('',(0.,0.,1.));
#500=DIRECTION('',(-1.,0.,0.));
#501=DIRECTION('',(0.,0.,1.));
#502=DIRECTION('',(-1.,0.,0.));
#503=DIRECTION('',(0.,0.,1.));
#504=DIRECTION('',(-1.,0.,0.));
#505=DIRECTION('',(0.,0.,1.));
#506=DIRECTION('',(-1.,0.,0.));
#507=DIRECTION('',(0.,0.,1.));
#508=DIRECTION('',(-1.,0.,0.));
#509=DIRECTION('',(0.,0.,1.));
#510=DIRECTION('',(-1.,0.,0.));
#511=DIRECTION('',(0.,0.,1.));
#512=DIRECTION('',(-1.,0.,0.));
#513=DIRECTION('',(-1.50782436287279E-16,0.,1.));
#514=DIRECTION('',(-1.,0.,0.));
#515=DIRECTION('',(0.,0.,1.));
#516=DIRECTION('',(-1.,0.,0.));
#517=DIRECTION('',(0.,0.,1.));
#518=DIRECTION('',(-1.,0.,0.));
#519=DIRECTION('',(0.,0.,1.));
#520=DIRECTION('',(1.,0.,0.));
#521=DIRECTION('',(4.74170374159979E-17,0.,-1.));
#522=DIRECTION('',(-1.,0.,0.));
#523=DIRECTION('',(0.,0.,1.));
#524=DIRECTION('',(-1.,0.,0.));
#525=DIRECTION('',(0.,0.,1.));
#526=DIRECTION('',(-1.,0.,0.));
#527=DIRECTION('',(0.,0.,1.));
#528=DIRECTION('',(1.,0.,0.));
#529=DIRECTION('',(1.23066831702359E-15,0.,-1.));
#530=DIRECTION('',(-1.,0.,0.));
#531=DIRECTION('',(0.,0.,1.));
#532=DIRECTION('',(-1.,0.,0.));
#533=DIRECTION('',(0.,0.,1.));
#534=DIRECTION('',(-1.,0.,0.));
#535=DIRECTION('',(0.,0.,1.));
#536=DIRECTION('',(-1.,0.,0.));
#537=DIRECTION('',(6.86606653654382E-18,0.,1.));
#538=DIRECTION('',(1.,0.,0.));
#539=DIRECTION('',(0.,0.,-1.));
#540=DIRECTION('',(1.,0.,0.));
#541=DIRECTION('',(0.,0.,-1.));
#542=DIRECTION('',(1.,0.,0.));
#543=DIRECTION('',(0.,0.,-1.));
#544=DIRECTION('',(-0.0293010033921135,-0.962117790517159,-0.27105499141428));
#545=DIRECTION('',(1.,0.,0.));
#546=DIRECTION('',(1.,0.,0.));
#547=DIRECTION('',(0.,0.,-1.));
#548=DIRECTION('',(0.156434465040231,-0.272243802572924,0.949426969338986));
#549=DIRECTION('',(0.947588412294481,0.31249073305514,-0.0665262552672714));
#550=DIRECTION('',(1.,0.,0.));
#551=DIRECTION('',(1.,0.,0.));
#552=DIRECTION('',(0.,0.,-1.));
#553=DIRECTION('',(0.987253619566822,0.0145831797292128,-0.158485398447912));
#554=DIRECTION('',(1.,0.,0.));
#555=DIRECTION('',(1.,0.,0.));
#556=DIRECTION('',(0.,0.,-1.));
#557=DIRECTION('',(0.987511402646689,0.0249170588050304,-0.15556468051353));
#558=DIRECTION('',(1.,0.,0.));
#559=DIRECTION('',(1.,0.,0.));
#560=DIRECTION('',(0.,0.,-1.));
#561=DIRECTION('',(0.987253619566822,0.0145831797292107,-0.158485398447913));
#562=DIRECTION('',(1.,0.,0.));
#563=DIRECTION('',(1.,0.,0.));
#564=DIRECTION('',(0.,0.,-1.));
#565=DIRECTION('',(0.156434465040231,-0.272243802572924,0.949426969338986));
#566=DIRECTION('',(0.926876711188454,-0.291621288769208,-0.236339980098716));
#567=DIRECTION('',(1.,0.,0.));
#568=DIRECTION('',(1.,0.,0.));
#569=DIRECTION('',(0.,0.,-1.));
#570=DIRECTION('',(0.115234326721649,0.959727649713861,0.256210632721823));
#571=DIRECTION('',(1.,0.,0.));
#572=DIRECTION('',(1.,0.,0.));
#573=DIRECTION('',(0.,0.,-1.));
#574=DIRECTION('',(0.190526538213593,0.951525158654017,0.241452916082601));
#575=DIRECTION('',(1.,0.,0.));
#576=DIRECTION('',(1.,0.,0.));
#577=DIRECTION('',(0.,0.,-1.));
#578=DIRECTION('',(0.0293010033921145,0.962117790517159,0.27105499141428));
#579=DIRECTION('',(1.,0.,0.));
#580=DIRECTION('',(1.,0.,0.));
#581=DIRECTION('',(0.,0.,-1.));
#582=DIRECTION('',(0.156434465040231,-0.272243802572924,0.949426969338986));
#583=DIRECTION('',(0.947588412294481,0.31249073305514,-0.0665262552672714));
#584=DIRECTION('',(1.,0.,0.));
#585=DIRECTION('',(1.,0.,0.));
#586=DIRECTION('',(0.,0.,-1.));
#587=DIRECTION('',(-0.987253619566822,-0.0145831797292115,0.158485398447912));
#588=DIRECTION('',(1.,0.,0.));
#589=DIRECTION('',(1.,0.,0.));
#590=DIRECTION('',(0.,0.,-1.));
#591=DIRECTION('',(-0.987511402646689,-0.0249170588050303,0.15556468051353));
#592=DIRECTION('',(1.,0.,0.));
#593=DIRECTION('',(1.,0.,0.));
#594=DIRECTION('',(0.,0.,-1.));
#595=DIRECTION('',(-0.987253619566822,-0.0145831797292117,0.158485398447912));
#596=DIRECTION('',(1.,0.,0.));
#597=DIRECTION('',(1.,0.,0.));
#598=DIRECTION('',(0.,0.,-1.));
#599=DIRECTION('',(0.156434465040231,-0.272243802572924,0.949426969338986));
#600=DIRECTION('',(-0.926876711188454,0.291621288769208,0.236339980098716));
#601=DIRECTION('',(1.,0.,0.));
#602=DIRECTION('',(1.,0.,0.));
#603=DIRECTION('',(0.,0.,-1.));
#604=DIRECTION('',(-0.115234326721649,-0.959727649713861,-0.256210632721823));
#605=DIRECTION('',(1.,0.,0.));
#606=DIRECTION('',(-0.190526538213592,-0.951525158654017,-0.241452916082601));
#607=DIRECTION('',(1.,0.,0.));
#608=CARTESIAN_POINT('',(0.,0.,0.));
#609=CARTESIAN_POINT('',(100.,0.,0.));
#610=CARTESIAN_POINT('',(100.,0.,6.75));
#611=CARTESIAN_POINT('',(100.,6.75,0.));
#612=CARTESIAN_POINT('',(99.,0.,0.));
#613=CARTESIAN_POINT('',(99.,0.,7.75));
#614=CARTESIAN_POINT('',(99.,0.,0.));
#615=CARTESIAN_POINT('',(96.,0.,0.));
#616=CARTESIAN_POINT('',(96.,0.,7.75));
#617=CARTESIAN_POINT('',(0.,0.,0.));
#618=CARTESIAN_POINT('',(94.5821795450956,0.,0.));
#619=CARTESIAN_POINT('',(94.5821795450956,0.,8.));
#620=CARTESIAN_POINT('',(96.,0.,0.));
#621=CARTESIAN_POINT('',(30.,0.,0.));
#622=CARTESIAN_POINT('',(30.,0.,8.));
#623=CARTESIAN_POINT('',(0.,0.,0.));
#624=CARTESIAN_POINT('',(29.3071796769724,0.,0.));
#625=CARTESIAN_POINT('',(29.3071796769724,0.,7.6));
#626=CARTESIAN_POINT('',(30.,0.,0.));
#627=CARTESIAN_POINT('',(7.57411570607615,0.,0.));
#628=CARTESIAN_POINT('',(7.57411570607615,0.,7.6));
#629=CARTESIAN_POINT('',(0.,0.,0.));
#630=CARTESIAN_POINT('',(1.27958775671552,0.,0.));
#631=CARTESIAN_POINT('',(1.27958775671552,0.,7.15984372781189));
#632=CARTESIAN_POINT('',(7.57411570607615,0.,0.));
#633=CARTESIAN_POINT('',(0.543178480717561,0.,0.));
#634=CARTESIAN_POINT('',(0.543178480717561,0.,6.25045400683598));
#635=CARTESIAN_POINT('',(1.33539293571082,0.,0.));
#636=CARTESIAN_POINT('',(1.,0.,0.));
#637=CARTESIAN_POINT('',(1.,0.,3.));
#638=CARTESIAN_POINT('',(0.543178480717561,0.,0.));
#639=CARTESIAN_POINT('',(1.,0.,0.));
#640=CARTESIAN_POINT('',(0.0114997777546002,0.,0.));
#641=CARTESIAN_POINT('',(0.0114997777546002,0.,-7.6287445611691));
#642=CARTESIAN_POINT('',(0.0465983716989408,0.,0.));
#643=CARTESIAN_POINT('',(0.0465983716989408,0.,-6.4898492822489));
#644=CARTESIAN_POINT('',(0.0465983716989408,-6.47551729163308,0.43106787408432));
#645=CARTESIAN_POINT('',(7.57411570607615,0.,0.));
#646=CARTESIAN_POINT('',(0.399609806264445,0.,0.));
#647=CARTESIAN_POINT('',(0.399609806264445,0.,-7.99995997559378));
#648=CARTESIAN_POINT('',(0.420597233930438,-7.61324937288689,0.0432056877963474));
#649=CARTESIAN_POINT('',(7.57411570607615,0.,0.));
#650=CARTESIAN_POINT('',(1.48088042935023,0.,0.));
#651=CARTESIAN_POINT('',(1.48088042935023,0.,-7.98726939955867));
#652=CARTESIAN_POINT('',(0.399609806264445,-7.99970276876865,-0.0641499996700967));
#653=CARTESIAN_POINT('',(7.57411570607615,0.,0.));
#654=CARTESIAN_POINT('',(9.92613437478354,0.,0.));
#655=CARTESIAN_POINT('',(9.92613437478354,0.,-7.92728487763033));
#656=CARTESIAN_POINT('',(1.48088042935023,-7.98373082040619,-0.237728097671869));
#657=CARTESIAN_POINT('',(7.57411570607615,0.,0.));
#658=CARTESIAN_POINT('',(10.3767523525893,0.,0.));
#659=CARTESIAN_POINT('',(10.3767523525893,0.,-7.93539835370909));
#660=CARTESIAN_POINT('',(9.92613437478354,-7.77063870965406,-1.56812613495611));
#661=CARTESIAN_POINT('',(7.57411570607615,0.,0.));
#662=CARTESIAN_POINT('',(10.7849742290834,0.,0.));
#663=CARTESIAN_POINT('',(10.7849742290834,0.,-7.58510176835537));
#664=CARTESIAN_POINT('',(10.3795234841666,-7.37779810858538,-1.53018457923684));
#665=CARTESIAN_POINT('',(7.57411570607615,0.,0.));
#666=CARTESIAN_POINT('',(10.9063562110237,0.,0.));
#667=CARTESIAN_POINT('',(10.9063562110237,0.,-6.54013220070911));
#668=CARTESIAN_POINT('',(10.7849742290833,-7.41290362080259,-1.6070559246646));
#669=CARTESIAN_POINT('',(7.57411570607615,0.,0.));
#670=CARTESIAN_POINT('',(11.6015673279694,0.,0.));
#671=CARTESIAN_POINT('',(11.6015673279694,0.,-2.9652547316373));
#672=CARTESIAN_POINT('',(10.9063562110237,-6.40197530144325,-1.33717666838112));
#673=CARTESIAN_POINT('',(7.57411570607615,0.,0.));
#674=CARTESIAN_POINT('',(11.6366659219138,0.,0.));
#675=CARTESIAN_POINT('',(11.6366659219138,0.,-1.78232970802317));
#676=CARTESIAN_POINT('',(11.6015673279694,-2.92996098494828,-0.45614060351857));
#677=CARTESIAN_POINT('',(7.57411570607615,0.,0.));
#678=CARTESIAN_POINT('',(11.2485558934039,0.,0.));
#679=CARTESIAN_POINT('',(11.2485558934039,0.,-1.40631853127773));
#680=CARTESIAN_POINT('',(11.2275684657379,-1.79222890369447,-0.0682784172305988));
#681=CARTESIAN_POINT('',(7.57411570607615,0.,0.));
#682=CARTESIAN_POINT('',(10.1672852703181,0.,0.));
#683=CARTESIAN_POINT('',(10.1672852703181,0.,-1.43756326287953));
#684=CARTESIAN_POINT('',(11.2485558934039,-1.4057755078127,0.0390772702358521));
#685=CARTESIAN_POINT('',(7.57411570607615,0.,0.));
#686=CARTESIAN_POINT('',(1.72203132488486,0.,0.));
#687=CARTESIAN_POINT('',(1.72203132488486,0.,-2.24804675705013));
#688=CARTESIAN_POINT('',(10.1672852703181,-1.42174745617516,0.212655368237619));
#689=CARTESIAN_POINT('',(7.57411570607615,0.,0.));
#690=CARTESIAN_POINT('',(1.2714133470791,0.,0.));
#691=CARTESIAN_POINT('',(1.2714133470791,0.,-2.30304133613568));
#692=CARTESIAN_POINT('',(1.72203132488486,-1.63483956692729,1.54305340552185));
#693=CARTESIAN_POINT('',(7.57411570607615,0.,0.));
#694=CARTESIAN_POINT('',(0.863191470585016,0.,0.));
#695=CARTESIAN_POINT('',(0.863191470585016,0.,-2.54421394321372));
#696=CARTESIAN_POINT('',(1.26864221550174,-2.02768016799597,1.50511184980258));
#697=CARTESIAN_POINT('',(7.57411570607615,0.,0.));
#698=CARTESIAN_POINT('',(0.741809488644668,0.,0.));
#699=CARTESIAN_POINT('',(0.741809488644668,0.,-3.27759772825515));
#700=CARTESIAN_POINT('',(0.863191470585016,-1.99257465577877,1.58198319523035));
#701=CARTESIAN_POINT('',(7.57411570607615,0.,0.));
#702=CARTESIAN_POINT('',(0.741809488644668,-3.0035029751381,1.31210393894687));
#703=CARTESIAN_POINT('',(7.57411570607615,0.,0.));
#704=(
GEOMETRIC_REPRESENTATION_CONTEXT(3)
GLOBAL_UNCERTAINTY_ASSIGNED_CONTEXT((#705))
GLOBAL_UNIT_ASSIGNED_CONTEXT((#711,#707,#706))
REPRESENTATION_CONTEXT('AEM90-AD10T3-D16-W16-L100-Z02-H',
'TOP_LEVEL_ASSEMBLY_PART')
);
#705=UNCERTAINTY_MEASURE_WITH_UNIT(LENGTH_MEASURE(2.E-5),#711,
'DISTANCE_ACCURACY_VALUE','Maximum Tolerance applied to model');
#706=(
NAMED_UNIT(*)
SI_UNIT($,.STERADIAN.)
SOLID_ANGLE_UNIT()
);
#707=(
CONVERSION_BASED_UNIT('DEGREE',#709)
NAMED_UNIT(#708)
PLANE_ANGLE_UNIT()
);
#708=DIMENSIONAL_EXPONENTS(0.,0.,0.,0.,0.,0.,0.);
#709=PLANE_ANGLE_MEASURE_WITH_UNIT(PLANE_ANGLE_MEASURE(0.0174532925),#710);
#710=(
NAMED_UNIT(*)
PLANE_ANGLE_UNIT()
SI_UNIT($,.RADIAN.)
);
#711=(
LENGTH_UNIT()
NAMED_UNIT(*)
SI_UNIT(.MILLI.,.METRE.)
);
ENDSEC;
END-ISO-10303-21;
