ISO-10303-21;
HEADER;
/* Generated by software containing ST-Developer
 * from STEP Tools, Inc. (www.steptools.com) 
 */
/* OPTION: using custom schema-name function */

FILE_DESCRIPTION(
/* description */ (''),
/* implementation_level */ '2;1');

FILE_NAME(
/* name */ 'AEM90-AP1135Y-D32-W25-L110-Z04.stp',
/* time_stamp */ '2023-10-13T05:34:33+03:00',
/* author */ (''),
/* organization */ (''),
/* preprocessor_version */ 'ST-DEVELOPER v19.4',
/* originating_system */ 'SIEMENS PLM Software NX2306.3001',
/* authorisation */ '');

FILE_SCHEMA (('AUTOMOTIVE_DESIGN { 1 0 10303 214 3 1 1 1 }'));
ENDSEC;

DATA;
#10=SHAPE_REPRESENTATION_RELATIONSHIP('None',
'relationship between AEM90-AP1135Y-D32-W25-L110-Z04-None and AEM90-AP
1135Y-D32-W25-L110-Z04-None',#22,#11);
#11=ADVANCED_BREP_SHAPE_REPRESENTATION(
'AEM90-AP1135Y-D32-W25-L110-Z04-None',(#189,#190),#699);
#12=SHAPE_DEFINITION_REPRESENTATION(#13,#22);
#13=PRODUCT_DEFINITION_SHAPE('','',#14);
#14=PRODUCT_DEFINITION(' ','',#16,#15);
#15=PRODUCT_DEFINITION_CONTEXT('part definition',#21,'design');
#16=PRODUCT_DEFINITION_FORMATION_WITH_SPECIFIED_SOURCE(' ',' ',#18,
 .NOT_KNOWN.);
#17=PRODUCT_RELATED_PRODUCT_CATEGORY('part','',(#18));
#18=PRODUCT('AEM90-AP1135Y-D32-W25-L110-Z04',
'AEM90-AP1135Y-D32-W25-L110-Z04',' ',(#19));
#19=PRODUCT_CONTEXT(' ',#21,'mechanical');
#20=APPLICATION_PROTOCOL_DEFINITION('international standard',
'automotive_design',2010,#21);
#21=APPLICATION_CONTEXT(
'core data for automotive mechanical design processes');
#22=SHAPE_REPRESENTATION('AEM90-AP1135Y-D32-W25-L110-Z04-None',(#462),#699);
#23=DRAUGHTING_PRE_DEFINED_COLOUR('yellow');
#24=SURFACE_OF_REVOLUTION('',#44,#34);
#25=SURFACE_OF_REVOLUTION('',#453,#35);
#26=SURFACE_OF_REVOLUTION('',#45,#36);
#27=SURFACE_OF_REVOLUTION('',#46,#37);
#28=SURFACE_OF_REVOLUTION('',#47,#38);
#29=SURFACE_OF_REVOLUTION('',#48,#39);
#30=SURFACE_OF_REVOLUTION('',#459,#40);
#31=SURFACE_OF_REVOLUTION('',#49,#41);
#32=SURFACE_OF_REVOLUTION('',#50,#42);
#33=SURFACE_OF_REVOLUTION('',#51,#43);
#34=AXIS1_PLACEMENT('',#664,#575);
#35=AXIS1_PLACEMENT('',#668,#580);
#36=AXIS1_PLACEMENT('',#672,#584);
#37=AXIS1_PLACEMENT('',#676,#588);
#38=AXIS1_PLACEMENT('',#680,#592);
#39=AXIS1_PLACEMENT('',#684,#596);
#40=AXIS1_PLACEMENT('',#688,#601);
#41=AXIS1_PLACEMENT('',#692,#605);
#42=AXIS1_PLACEMENT('',#696,#609);
#43=AXIS1_PLACEMENT('',#698,#611);
#44=LINE('',#663,#52);
#45=LINE('',#671,#53);
#46=LINE('',#675,#54);
#47=LINE('',#679,#55);
#48=LINE('',#683,#56);
#49=LINE('',#691,#57);
#50=LINE('',#695,#58);
#51=LINE('',#697,#59);
#52=VECTOR('',#574,1.18058154492087);
#53=VECTOR('',#583,9.03506736873706);
#54=VECTOR('',#587,1.29733290164094);
#55=VECTOR('',#591,3.59780993209806);
#56=VECTOR('',#595,1.18058154492087);
#57=VECTOR('',#604,9.03506736873705);
#58=VECTOR('',#608,1.29733367262694);
#59=VECTOR('',#610,3.59780934168813);
#60=OVER_RIDING_STYLED_ITEM('',(#80),#255,#77);
#61=OVER_RIDING_STYLED_ITEM('',(#81),#256,#77);
#62=OVER_RIDING_STYLED_ITEM('',(#82),#257,#77);
#63=OVER_RIDING_STYLED_ITEM('',(#83),#258,#77);
#64=OVER_RIDING_STYLED_ITEM('',(#84),#259,#77);
#65=OVER_RIDING_STYLED_ITEM('',(#85),#260,#77);
#66=OVER_RIDING_STYLED_ITEM('',(#86),#261,#77);
#67=OVER_RIDING_STYLED_ITEM('',(#87),#262,#77);
#68=OVER_RIDING_STYLED_ITEM('',(#88),#263,#77);
#69=OVER_RIDING_STYLED_ITEM('',(#89),#264,#77);
#70=OVER_RIDING_STYLED_ITEM('',(#90),#265,#77);
#71=OVER_RIDING_STYLED_ITEM('',(#91),#266,#77);
#72=OVER_RIDING_STYLED_ITEM('',(#92),#267,#77);
#73=OVER_RIDING_STYLED_ITEM('',(#93),#268,#77);
#74=OVER_RIDING_STYLED_ITEM('',(#94),#269,#77);
#75=OVER_RIDING_STYLED_ITEM('',(#95),#270,#77);
#76=PRESENTATION_LAYER_ASSIGNMENT('1','Layer 1',(#189,#190));
#77=STYLED_ITEM('',(#79),#189);
#78=STYLED_ITEM('',(#96),#190);
#79=PRESENTATION_STYLE_ASSIGNMENT((#97));
#80=PRESENTATION_STYLE_ASSIGNMENT((#98));
#81=PRESENTATION_STYLE_ASSIGNMENT((#99));
#82=PRESENTATION_STYLE_ASSIGNMENT((#100));
#83=PRESENTATION_STYLE_ASSIGNMENT((#101));
#84=PRESENTATION_STYLE_ASSIGNMENT((#102));
#85=PRESENTATION_STYLE_ASSIGNMENT((#103));
#86=PRESENTATION_STYLE_ASSIGNMENT((#104));
#87=PRESENTATION_STYLE_ASSIGNMENT((#105));
#88=PRESENTATION_STYLE_ASSIGNMENT((#106));
#89=PRESENTATION_STYLE_ASSIGNMENT((#107));
#90=PRESENTATION_STYLE_ASSIGNMENT((#108));
#91=PRESENTATION_STYLE_ASSIGNMENT((#109));
#92=PRESENTATION_STYLE_ASSIGNMENT((#110));
#93=PRESENTATION_STYLE_ASSIGNMENT((#111));
#94=PRESENTATION_STYLE_ASSIGNMENT((#112));
#95=PRESENTATION_STYLE_ASSIGNMENT((#113));
#96=PRESENTATION_STYLE_ASSIGNMENT((#114));
#97=SURFACE_STYLE_USAGE(.BOTH.,#115);
#98=SURFACE_STYLE_USAGE(.BOTH.,#116);
#99=SURFACE_STYLE_USAGE(.BOTH.,#117);
#100=SURFACE_STYLE_USAGE(.BOTH.,#118);
#101=SURFACE_STYLE_USAGE(.BOTH.,#119);
#102=SURFACE_STYLE_USAGE(.BOTH.,#120);
#103=SURFACE_STYLE_USAGE(.BOTH.,#121);
#104=SURFACE_STYLE_USAGE(.BOTH.,#122);
#105=SURFACE_STYLE_USAGE(.BOTH.,#123);
#106=SURFACE_STYLE_USAGE(.BOTH.,#124);
#107=SURFACE_STYLE_USAGE(.BOTH.,#125);
#108=SURFACE_STYLE_USAGE(.BOTH.,#126);
#109=SURFACE_STYLE_USAGE(.BOTH.,#127);
#110=SURFACE_STYLE_USAGE(.BOTH.,#128);
#111=SURFACE_STYLE_USAGE(.BOTH.,#129);
#112=SURFACE_STYLE_USAGE(.BOTH.,#130);
#113=SURFACE_STYLE_USAGE(.BOTH.,#131);
#114=SURFACE_STYLE_USAGE(.BOTH.,#132);
#115=SURFACE_SIDE_STYLE('',(#133));
#116=SURFACE_SIDE_STYLE('',(#134));
#117=SURFACE_SIDE_STYLE('',(#135));
#118=SURFACE_SIDE_STYLE('',(#136));
#119=SURFACE_SIDE_STYLE('',(#137));
#120=SURFACE_SIDE_STYLE('',(#138));
#121=SURFACE_SIDE_STYLE('',(#139));
#122=SURFACE_SIDE_STYLE('',(#140));
#123=SURFACE_SIDE_STYLE('',(#141));
#124=SURFACE_SIDE_STYLE('',(#142));
#125=SURFACE_SIDE_STYLE('',(#143));
#126=SURFACE_SIDE_STYLE('',(#144));
#127=SURFACE_SIDE_STYLE('',(#145));
#128=SURFACE_SIDE_STYLE('',(#146));
#129=SURFACE_SIDE_STYLE('',(#147));
#130=SURFACE_SIDE_STYLE('',(#148));
#131=SURFACE_SIDE_STYLE('',(#149));
#132=SURFACE_SIDE_STYLE('',(#150));
#133=SURFACE_STYLE_FILL_AREA(#151);
#134=SURFACE_STYLE_FILL_AREA(#152);
#135=SURFACE_STYLE_FILL_AREA(#153);
#136=SURFACE_STYLE_FILL_AREA(#154);
#137=SURFACE_STYLE_FILL_AREA(#155);
#138=SURFACE_STYLE_FILL_AREA(#156);
#139=SURFACE_STYLE_FILL_AREA(#157);
#140=SURFACE_STYLE_FILL_AREA(#158);
#141=SURFACE_STYLE_FILL_AREA(#159);
#142=SURFACE_STYLE_FILL_AREA(#160);
#143=SURFACE_STYLE_FILL_AREA(#161);
#144=SURFACE_STYLE_FILL_AREA(#162);
#145=SURFACE_STYLE_FILL_AREA(#163);
#146=SURFACE_STYLE_FILL_AREA(#164);
#147=SURFACE_STYLE_FILL_AREA(#165);
#148=SURFACE_STYLE_FILL_AREA(#166);
#149=SURFACE_STYLE_FILL_AREA(#167);
#150=SURFACE_STYLE_FILL_AREA(#168);
#151=FILL_AREA_STYLE('',(#169));
#152=FILL_AREA_STYLE('',(#170));
#153=FILL_AREA_STYLE('',(#171));
#154=FILL_AREA_STYLE('',(#172));
#155=FILL_AREA_STYLE('',(#173));
#156=FILL_AREA_STYLE('',(#174));
#157=FILL_AREA_STYLE('',(#175));
#158=FILL_AREA_STYLE('',(#176));
#159=FILL_AREA_STYLE('',(#177));
#160=FILL_AREA_STYLE('',(#178));
#161=FILL_AREA_STYLE('',(#179));
#162=FILL_AREA_STYLE('',(#180));
#163=FILL_AREA_STYLE('',(#181));
#164=FILL_AREA_STYLE('',(#182));
#165=FILL_AREA_STYLE('',(#183));
#166=FILL_AREA_STYLE('',(#184));
#167=FILL_AREA_STYLE('',(#185));
#168=FILL_AREA_STYLE('',(#186));
#169=FILL_AREA_STYLE_COLOUR('',#187);
#170=FILL_AREA_STYLE_COLOUR('',#188);
#171=FILL_AREA_STYLE_COLOUR('',#188);
#172=FILL_AREA_STYLE_COLOUR('',#188);
#173=FILL_AREA_STYLE_COLOUR('',#188);
#174=FILL_AREA_STYLE_COLOUR('',#188);
#175=FILL_AREA_STYLE_COLOUR('',#188);
#176=FILL_AREA_STYLE_COLOUR('',#188);
#177=FILL_AREA_STYLE_COLOUR('',#188);
#178=FILL_AREA_STYLE_COLOUR('',#188);
#179=FILL_AREA_STYLE_COLOUR('',#188);
#180=FILL_AREA_STYLE_COLOUR('',#188);
#181=FILL_AREA_STYLE_COLOUR('',#188);
#182=FILL_AREA_STYLE_COLOUR('',#188);
#183=FILL_AREA_STYLE_COLOUR('',#188);
#184=FILL_AREA_STYLE_COLOUR('',#188);
#185=FILL_AREA_STYLE_COLOUR('',#188);
#186=FILL_AREA_STYLE_COLOUR('',#23);
#187=COLOUR_RGB('Medium Steel',0.611764705882353,0.658823529411765,0.670588235294118);
#188=COLOUR_RGB('silver gray',0.6,0.6,0.6);
#189=MANIFOLD_SOLID_BREP('',#191);
#190=MANIFOLD_SOLID_BREP('',#192);
#191=CLOSED_SHELL('',(#255,#256,#257,#258,#259,#260,#261,#262,#263,#264,
#265,#266,#267,#268,#269,#270));
#192=CLOSED_SHELL('',(#271,#272,#273,#274,#275,#276,#277,#278,#279,#280));
#193=CYLINDRICAL_SURFACE('',#474,15.25);
#194=CYLINDRICAL_SURFACE('',#482,12.25);
#195=CYLINDRICAL_SURFACE('',#486,12.5);
#196=CYLINDRICAL_SURFACE('',#490,12.25);
#197=TOROIDAL_SURFACE('',#470,13.8969063516546,0.8);
#198=TOROIDAL_SURFACE('',#476,10.25,5.);
#199=TOROIDAL_SURFACE('',#480,17.25,5.);
#200=TOROIDAL_SURFACE('',#492,11.25,1.);
#201=CONICAL_SURFACE('',#466,12.5,86.0000000000004);
#202=CONICAL_SURFACE('',#468,13.8829444265048,89.);
#203=CONICAL_SURFACE('',#472,15.25,3.39999999999962);
#204=CONICAL_SURFACE('',#478,12.5515368960705,20.);
#205=CONICAL_SURFACE('',#484,12.5,30.);
#206=CONICAL_SURFACE('',#488,12.25,10.0000000000001);
#207=FACE_BOUND('',#286,.T.);
#208=FACE_BOUND('',#287,.T.);
#209=FACE_BOUND('',#288,.T.);
#210=FACE_BOUND('',#289,.T.);
#211=FACE_BOUND('',#290,.T.);
#212=FACE_BOUND('',#291,.T.);
#213=FACE_BOUND('',#292,.T.);
#214=FACE_BOUND('',#293,.T.);
#215=FACE_BOUND('',#294,.T.);
#216=FACE_BOUND('',#295,.T.);
#217=FACE_BOUND('',#296,.T.);
#218=FACE_BOUND('',#297,.T.);
#219=FACE_BOUND('',#298,.T.);
#220=FACE_BOUND('',#299,.T.);
#221=FACE_BOUND('',#300,.T.);
#222=FACE_BOUND('',#301,.T.);
#223=FACE_BOUND('',#302,.T.);
#224=FACE_BOUND('',#303,.T.);
#225=FACE_BOUND('',#304,.T.);
#226=FACE_BOUND('',#305,.T.);
#227=FACE_BOUND('',#306,.T.);
#228=FACE_BOUND('',#307,.T.);
#229=FACE_BOUND('',#308,.T.);
#230=FACE_BOUND('',#309,.T.);
#231=FACE_BOUND('',#310,.T.);
#232=FACE_BOUND('',#311,.T.);
#233=FACE_BOUND('',#312,.T.);
#234=FACE_BOUND('',#313,.T.);
#235=FACE_BOUND('',#315,.T.);
#236=FACE_BOUND('',#316,.T.);
#237=FACE_BOUND('',#317,.T.);
#238=FACE_BOUND('',#318,.T.);
#239=FACE_BOUND('',#319,.T.);
#240=FACE_BOUND('',#320,.T.);
#241=FACE_BOUND('',#321,.T.);
#242=FACE_BOUND('',#322,.T.);
#243=FACE_BOUND('',#323,.T.);
#244=FACE_BOUND('',#324,.T.);
#245=FACE_BOUND('',#325,.T.);
#246=FACE_BOUND('',#326,.T.);
#247=FACE_BOUND('',#327,.T.);
#248=FACE_BOUND('',#328,.T.);
#249=FACE_BOUND('',#329,.T.);
#250=FACE_BOUND('',#330,.T.);
#251=FACE_BOUND('',#331,.T.);
#252=FACE_BOUND('',#332,.T.);
#253=FACE_BOUND('',#333,.T.);
#254=FACE_BOUND('',#334,.T.);
#255=ADVANCED_FACE('',(#283),#281,.F.);
#256=ADVANCED_FACE('',(#207,#208),#201,.F.);
#257=ADVANCED_FACE('',(#209,#210),#202,.F.);
#258=ADVANCED_FACE('',(#211,#212),#197,.T.);
#259=ADVANCED_FACE('',(#213,#214),#203,.T.);
#260=ADVANCED_FACE('',(#215,#216),#193,.T.);
#261=ADVANCED_FACE('',(#217,#218),#198,.T.);
#262=ADVANCED_FACE('',(#219,#220),#204,.T.);
#263=ADVANCED_FACE('',(#221,#222),#199,.F.);
#264=ADVANCED_FACE('',(#223,#224),#194,.T.);
#265=ADVANCED_FACE('',(#225,#226),#205,.T.);
#266=ADVANCED_FACE('',(#227,#228),#195,.T.);
#267=ADVANCED_FACE('',(#229,#230),#206,.T.);
#268=ADVANCED_FACE('',(#231,#232),#196,.T.);
#269=ADVANCED_FACE('',(#233,#234),#200,.T.);
#270=ADVANCED_FACE('',(#284),#282,.F.);
#271=ADVANCED_FACE('',(#235,#236),#24,.T.);
#272=ADVANCED_FACE('',(#237,#238),#25,.T.);
#273=ADVANCED_FACE('',(#239,#240),#26,.T.);
#274=ADVANCED_FACE('',(#241,#242),#27,.T.);
#275=ADVANCED_FACE('',(#243,#244),#28,.T.);
#276=ADVANCED_FACE('',(#245,#246),#29,.T.);
#277=ADVANCED_FACE('',(#247,#248),#30,.T.);
#278=ADVANCED_FACE('',(#249,#250),#31,.T.);
#279=ADVANCED_FACE('',(#251,#252),#32,.T.);
#280=ADVANCED_FACE('',(#253,#254),#33,.T.);
#281=PLANE('',#464);
#282=PLANE('',#493);
#283=FACE_OUTER_BOUND('',#285,.T.);
#284=FACE_OUTER_BOUND('',#314,.T.);
#285=EDGE_LOOP('',(#335));
#286=EDGE_LOOP('',(#336));
#287=EDGE_LOOP('',(#337));
#288=EDGE_LOOP('',(#338));
#289=EDGE_LOOP('',(#339));
#290=EDGE_LOOP('',(#340));
#291=EDGE_LOOP('',(#341));
#292=EDGE_LOOP('',(#342));
#293=EDGE_LOOP('',(#343));
#294=EDGE_LOOP('',(#344));
#295=EDGE_LOOP('',(#345));
#296=EDGE_LOOP('',(#346));
#297=EDGE_LOOP('',(#347));
#298=EDGE_LOOP('',(#348));
#299=EDGE_LOOP('',(#349));
#300=EDGE_LOOP('',(#350));
#301=EDGE_LOOP('',(#351));
#302=EDGE_LOOP('',(#352));
#303=EDGE_LOOP('',(#353));
#304=EDGE_LOOP('',(#354));
#305=EDGE_LOOP('',(#355));
#306=EDGE_LOOP('',(#356));
#307=EDGE_LOOP('',(#357));
#308=EDGE_LOOP('',(#358));
#309=EDGE_LOOP('',(#359));
#310=EDGE_LOOP('',(#360));
#311=EDGE_LOOP('',(#361));
#312=EDGE_LOOP('',(#362));
#313=EDGE_LOOP('',(#363));
#314=EDGE_LOOP('',(#364));
#315=EDGE_LOOP('',(#365));
#316=EDGE_LOOP('',(#366));
#317=EDGE_LOOP('',(#367));
#318=EDGE_LOOP('',(#368));
#319=EDGE_LOOP('',(#369));
#320=EDGE_LOOP('',(#370));
#321=EDGE_LOOP('',(#371));
#322=EDGE_LOOP('',(#372));
#323=EDGE_LOOP('',(#373));
#324=EDGE_LOOP('',(#374));
#325=EDGE_LOOP('',(#375));
#326=EDGE_LOOP('',(#376));
#327=EDGE_LOOP('',(#377));
#328=EDGE_LOOP('',(#378));
#329=EDGE_LOOP('',(#379));
#330=EDGE_LOOP('',(#380));
#331=EDGE_LOOP('',(#381));
#332=EDGE_LOOP('',(#382));
#333=EDGE_LOOP('',(#383));
#334=EDGE_LOOP('',(#384));
#335=ORIENTED_EDGE('',*,*,#410,.T.);
#336=ORIENTED_EDGE('',*,*,#410,.F.);
#337=ORIENTED_EDGE('',*,*,#411,.T.);
#338=ORIENTED_EDGE('',*,*,#411,.F.);
#339=ORIENTED_EDGE('',*,*,#412,.T.);
#340=ORIENTED_EDGE('',*,*,#412,.F.);
#341=ORIENTED_EDGE('',*,*,#413,.T.);
#342=ORIENTED_EDGE('',*,*,#413,.F.);
#343=ORIENTED_EDGE('',*,*,#414,.T.);
#344=ORIENTED_EDGE('',*,*,#414,.F.);
#345=ORIENTED_EDGE('',*,*,#415,.T.);
#346=ORIENTED_EDGE('',*,*,#415,.F.);
#347=ORIENTED_EDGE('',*,*,#416,.T.);
#348=ORIENTED_EDGE('',*,*,#416,.F.);
#349=ORIENTED_EDGE('',*,*,#417,.T.);
#350=ORIENTED_EDGE('',*,*,#417,.F.);
#351=ORIENTED_EDGE('',*,*,#418,.T.);
#352=ORIENTED_EDGE('',*,*,#418,.F.);
#353=ORIENTED_EDGE('',*,*,#419,.T.);
#354=ORIENTED_EDGE('',*,*,#419,.F.);
#355=ORIENTED_EDGE('',*,*,#420,.T.);
#356=ORIENTED_EDGE('',*,*,#420,.F.);
#357=ORIENTED_EDGE('',*,*,#421,.T.);
#358=ORIENTED_EDGE('',*,*,#421,.F.);
#359=ORIENTED_EDGE('',*,*,#422,.T.);
#360=ORIENTED_EDGE('',*,*,#422,.F.);
#361=ORIENTED_EDGE('',*,*,#423,.T.);
#362=ORIENTED_EDGE('',*,*,#423,.F.);
#363=ORIENTED_EDGE('',*,*,#424,.T.);
#364=ORIENTED_EDGE('',*,*,#424,.F.);
#365=ORIENTED_EDGE('',*,*,#425,.F.);
#366=ORIENTED_EDGE('',*,*,#426,.T.);
#367=ORIENTED_EDGE('',*,*,#427,.F.);
#368=ORIENTED_EDGE('',*,*,#425,.T.);
#369=ORIENTED_EDGE('',*,*,#428,.F.);
#370=ORIENTED_EDGE('',*,*,#427,.T.);
#371=ORIENTED_EDGE('',*,*,#429,.F.);
#372=ORIENTED_EDGE('',*,*,#428,.T.);
#373=ORIENTED_EDGE('',*,*,#430,.F.);
#374=ORIENTED_EDGE('',*,*,#429,.T.);
#375=ORIENTED_EDGE('',*,*,#431,.F.);
#376=ORIENTED_EDGE('',*,*,#430,.T.);
#377=ORIENTED_EDGE('',*,*,#432,.F.);
#378=ORIENTED_EDGE('',*,*,#431,.T.);
#379=ORIENTED_EDGE('',*,*,#433,.F.);
#380=ORIENTED_EDGE('',*,*,#432,.T.);
#381=ORIENTED_EDGE('',*,*,#434,.F.);
#382=ORIENTED_EDGE('',*,*,#433,.T.);
#383=ORIENTED_EDGE('',*,*,#426,.F.);
#384=ORIENTED_EDGE('',*,*,#434,.T.);
#385=VERTEX_POINT('',#614);
#386=VERTEX_POINT('',#617);
#387=VERTEX_POINT('',#620);
#388=VERTEX_POINT('',#623);
#389=VERTEX_POINT('',#626);
#390=VERTEX_POINT('',#629);
#391=VERTEX_POINT('',#632);
#392=VERTEX_POINT('',#635);
#393=VERTEX_POINT('',#638);
#394=VERTEX_POINT('',#641);
#395=VERTEX_POINT('',#644);
#396=VERTEX_POINT('',#647);
#397=VERTEX_POINT('',#650);
#398=VERTEX_POINT('',#653);
#399=VERTEX_POINT('',#656);
#400=VERTEX_POINT('',#660);
#401=VERTEX_POINT('',#662);
#402=VERTEX_POINT('',#666);
#403=VERTEX_POINT('',#670);
#404=VERTEX_POINT('',#674);
#405=VERTEX_POINT('',#678);
#406=VERTEX_POINT('',#682);
#407=VERTEX_POINT('',#686);
#408=VERTEX_POINT('',#690);
#409=VERTEX_POINT('',#694);
#410=EDGE_CURVE('',#385,#385,#435,.T.);
#411=EDGE_CURVE('',#386,#386,#436,.T.);
#412=EDGE_CURVE('',#387,#387,#437,.T.);
#413=EDGE_CURVE('',#388,#388,#438,.T.);
#414=EDGE_CURVE('',#389,#389,#439,.T.);
#415=EDGE_CURVE('',#390,#390,#440,.T.);
#416=EDGE_CURVE('',#391,#391,#441,.T.);
#417=EDGE_CURVE('',#392,#392,#442,.T.);
#418=EDGE_CURVE('',#393,#393,#443,.T.);
#419=EDGE_CURVE('',#394,#394,#444,.T.);
#420=EDGE_CURVE('',#395,#395,#445,.T.);
#421=EDGE_CURVE('',#396,#396,#446,.T.);
#422=EDGE_CURVE('',#397,#397,#447,.T.);
#423=EDGE_CURVE('',#398,#398,#448,.T.);
#424=EDGE_CURVE('',#399,#399,#449,.T.);
#425=EDGE_CURVE('',#400,#400,#450,.T.);
#426=EDGE_CURVE('',#401,#401,#451,.T.);
#427=EDGE_CURVE('',#402,#402,#452,.T.);
#428=EDGE_CURVE('',#403,#403,#454,.T.);
#429=EDGE_CURVE('',#404,#404,#455,.T.);
#430=EDGE_CURVE('',#405,#405,#456,.T.);
#431=EDGE_CURVE('',#406,#406,#457,.T.);
#432=EDGE_CURVE('',#407,#407,#458,.T.);
#433=EDGE_CURVE('',#408,#408,#460,.T.);
#434=EDGE_CURVE('',#409,#409,#461,.T.);
#435=CIRCLE('',#463,9.46151441058123);
#436=CIRCLE('',#465,12.5);
#437=CIRCLE('',#467,13.8829444265048);
#438=CIRCLE('',#469,14.6954982139936);
#439=CIRCLE('',#471,15.25);
#440=CIRCLE('',#473,15.25);
#441=CIRCLE('',#475,14.9484631039295);
#442=CIRCLE('',#477,12.5515368960705);
#443=CIRCLE('',#479,12.25);
#444=CIRCLE('',#481,12.25);
#445=CIRCLE('',#483,12.5);
#446=CIRCLE('',#485,12.5);
#447=CIRCLE('',#487,12.25);
#448=CIRCLE('',#489,12.25);
#449=CIRCLE('',#491,11.25);
#450=CIRCLE('',#494,15.2626450591768);
#451=CIRCLE('',#495,14.1282921730824);
#452=CIRCLE('',#496,15.9999996830084);
#453=CIRCLE('',#497,0.8);
#454=CIRCLE('',#498,16.0897507206476);
#455=CIRCLE('',#499,15.3910356249658);
#456=CIRCLE('',#500,11.9041576626109);
#457=CIRCLE('',#501,10.7620336393784);
#458=CIRCLE('',#502,10.0310462897309);
#459=CIRCLE('',#503,0.8);
#460=CIRCLE('',#504,10.0656226586287);
#461=CIRCLE('',#505,10.747536956495);
#462=AXIS2_PLACEMENT_3D('',#612,#506,#507);
#463=AXIS2_PLACEMENT_3D('',#613,#508,#509);
#464=AXIS2_PLACEMENT_3D('',#615,#510,#511);
#465=AXIS2_PLACEMENT_3D('',#616,#512,#513);
#466=AXIS2_PLACEMENT_3D('',#618,#514,#515);
#467=AXIS2_PLACEMENT_3D('',#619,#516,#517);
#468=AXIS2_PLACEMENT_3D('',#621,#518,#519);
#469=AXIS2_PLACEMENT_3D('',#622,#520,#521);
#470=AXIS2_PLACEMENT_3D('',#624,#522,#523);
#471=AXIS2_PLACEMENT_3D('',#625,#524,#525);
#472=AXIS2_PLACEMENT_3D('',#627,#526,#527);
#473=AXIS2_PLACEMENT_3D('',#628,#528,#529);
#474=AXIS2_PLACEMENT_3D('',#630,#530,#531);
#475=AXIS2_PLACEMENT_3D('',#631,#532,#533);
#476=AXIS2_PLACEMENT_3D('',#633,#534,#535);
#477=AXIS2_PLACEMENT_3D('',#634,#536,#537);
#478=AXIS2_PLACEMENT_3D('',#636,#538,#539);
#479=AXIS2_PLACEMENT_3D('',#637,#540,#541);
#480=AXIS2_PLACEMENT_3D('',#639,#542,#543);
#481=AXIS2_PLACEMENT_3D('',#640,#544,#545);
#482=AXIS2_PLACEMENT_3D('',#642,#546,#547);
#483=AXIS2_PLACEMENT_3D('',#643,#548,#549);
#484=AXIS2_PLACEMENT_3D('',#645,#550,#551);
#485=AXIS2_PLACEMENT_3D('',#646,#552,#553);
#486=AXIS2_PLACEMENT_3D('',#648,#554,#555);
#487=AXIS2_PLACEMENT_3D('',#649,#556,#557);
#488=AXIS2_PLACEMENT_3D('',#651,#558,#559);
#489=AXIS2_PLACEMENT_3D('',#652,#560,#561);
#490=AXIS2_PLACEMENT_3D('',#654,#562,#563);
#491=AXIS2_PLACEMENT_3D('',#655,#564,#565);
#492=AXIS2_PLACEMENT_3D('',#657,#566,#567);
#493=AXIS2_PLACEMENT_3D('',#658,#568,#569);
#494=AXIS2_PLACEMENT_3D('',#659,#570,#571);
#495=AXIS2_PLACEMENT_3D('',#661,#572,#573);
#496=AXIS2_PLACEMENT_3D('',#665,#576,#577);
#497=AXIS2_PLACEMENT_3D('',#667,#578,#579);
#498=AXIS2_PLACEMENT_3D('',#669,#581,#582);
#499=AXIS2_PLACEMENT_3D('',#673,#585,#586);
#500=AXIS2_PLACEMENT_3D('',#677,#589,#590);
#501=AXIS2_PLACEMENT_3D('',#681,#593,#594);
#502=AXIS2_PLACEMENT_3D('',#685,#597,#598);
#503=AXIS2_PLACEMENT_3D('',#687,#599,#600);
#504=AXIS2_PLACEMENT_3D('',#689,#602,#603);
#505=AXIS2_PLACEMENT_3D('',#693,#606,#607);
#506=DIRECTION('',(0.,0.,1.));
#507=DIRECTION('',(1.,0.,0.));
#508=DIRECTION('',(-1.,0.,0.));
#509=DIRECTION('',(0.,0.,1.));
#510=DIRECTION('',(1.,0.,0.));
#511=DIRECTION('',(0.,0.,-1.));
#512=DIRECTION('',(-1.,0.,0.));
#513=DIRECTION('',(0.,0.,1.));
#514=DIRECTION('',(-1.,0.,0.));
#515=DIRECTION('',(-3.74955523994283E-18,0.,1.));
#516=DIRECTION('',(-1.,0.,0.));
#517=DIRECTION('',(0.,0.,1.));
#518=DIRECTION('',(-1.,0.,0.));
#519=DIRECTION('',(9.38443627193684E-19,0.,0.999999999999998));
#520=DIRECTION('',(-1.,0.,0.));
#521=DIRECTION('',(0.,0.,1.));
#522=DIRECTION('',(-1.,0.,0.));
#523=DIRECTION('',(0.,0.,1.));
#524=DIRECTION('',(-1.,0.,0.));
#525=DIRECTION('',(0.,0.,1.));
#526=DIRECTION('',(1.,0.,0.));
#527=DIRECTION('',(-1.39408101087433E-15,0.,-1.));
#528=DIRECTION('',(-1.,0.,0.));
#529=DIRECTION('',(0.,0.,1.));
#530=DIRECTION('',(-1.,0.,0.));
#531=DIRECTION('',(0.,0.,1.));
#532=DIRECTION('',(-1.,0.,0.));
#533=DIRECTION('',(0.,0.,1.));
#534=DIRECTION('',(-1.,0.,0.));
#535=DIRECTION('',(0.,0.,1.));
#536=DIRECTION('',(-1.,0.,0.));
#537=DIRECTION('',(0.,0.,1.));
#538=DIRECTION('',(-1.,0.,0.));
#539=DIRECTION('',(1.84289314333346E-17,0.,1.));
#540=DIRECTION('',(-1.,0.,0.));
#541=DIRECTION('',(0.,0.,1.));
#542=DIRECTION('',(-1.,0.,0.));
#543=DIRECTION('',(0.,0.,1.));
#544=DIRECTION('',(-1.,0.,0.));
#545=DIRECTION('',(0.,0.,1.));
#546=DIRECTION('',(-1.,0.,0.));
#547=DIRECTION('',(0.,0.,1.));
#548=DIRECTION('',(-1.,0.,0.));
#549=DIRECTION('',(0.,0.,1.));
#550=DIRECTION('',(1.,0.,0.));
#551=DIRECTION('',(-1.41165870723911E-16,0.,-1.));
#552=DIRECTION('',(-1.,0.,0.));
#553=DIRECTION('',(0.,0.,1.));
#554=DIRECTION('',(-1.,0.,0.));
#555=DIRECTION('',(0.,0.,1.));
#556=DIRECTION('',(-1.,0.,0.));
#557=DIRECTION('',(0.,0.,1.));
#558=DIRECTION('',(-1.,0.,0.));
#559=DIRECTION('',(-7.35921624987149E-17,0.,1.));
#560=DIRECTION('',(-1.,0.,0.));
#561=DIRECTION('',(0.,0.,1.));
#562=DIRECTION('',(-1.,0.,0.));
#563=DIRECTION('',(0.,0.,1.));
#564=DIRECTION('',(-1.,0.,0.));
#565=DIRECTION('',(0.,0.,1.));
#566=DIRECTION('',(-1.,0.,0.));
#567=DIRECTION('',(0.,0.,1.));
#568=DIRECTION('',(-1.,0.,0.));
#569=DIRECTION('',(0.,0.,1.));
#570=DIRECTION('',(1.,0.,0.));
#571=DIRECTION('',(0.,0.,-1.));
#572=DIRECTION('',(1.,0.,0.));
#573=DIRECTION('',(0.,0.,-1.));
#574=DIRECTION('',(0.0190922768015591,-0.967025011085855,-0.253964786734176));
#575=DIRECTION('',(1.,0.,0.));
#576=DIRECTION('',(1.,0.,0.));
#577=DIRECTION('',(0.,0.,-1.));
#578=DIRECTION('',(0.104528463267654,-0.250688495924206,0.96240795839299));
#579=DIRECTION('',(-0.993248268047801,0.0226445723380426,0.113776541359245));
#580=DIRECTION('',(1.,0.,0.));
#581=DIRECTION('',(1.,0.,0.));
#582=DIRECTION('',(0.,0.,-1.));
#583=DIRECTION('',(0.99396713915037,-0.00598417960515846,-0.109514911695538));
#584=DIRECTION('',(1.,0.,0.));
#585=DIRECTION('',(1.,0.,0.));
#586=DIRECTION('',(0.,0.,-1.));
#587=DIRECTION('',(0.842481347540056,0.53655953078553,0.0482602214075126));
#588=DIRECTION('',(1.,0.,0.));
#589=DIRECTION('',(1.,0.,0.));
#590=DIRECTION('',(0.,0.,-1.));
#591=DIRECTION('',(0.152878389601326,0.960257631556908,0.233524043793401));
#592=DIRECTION('',(1.,0.,0.));
#593=DIRECTION('',(1.,0.,0.));
#594=DIRECTION('',(0.,0.,-1.));
#595=DIRECTION('',(-0.0190922768015587,0.967025011085854,0.253964786734176));
#596=DIRECTION('',(1.,0.,0.));
#597=DIRECTION('',(1.,0.,0.));
#598=DIRECTION('',(0.,0.,-1.));
#599=DIRECTION('',(0.104528463267654,-0.250688495924206,0.96240795839299));
#600=DIRECTION('',(0.993248268047801,-0.0226445723380429,-0.113776541359245));
#601=DIRECTION('',(1.,0.,0.));
#602=DIRECTION('',(1.,0.,0.));
#603=DIRECTION('',(0.,0.,-1.));
#604=DIRECTION('',(-0.99396713915037,0.00598417960515807,0.109514911695538));
#605=DIRECTION('',(1.,0.,0.));
#606=DIRECTION('',(1.,0.,0.));
#607=DIRECTION('',(0.,0.,-1.));
#608=DIRECTION('',(-0.842481301602531,-0.53655960082485,-0.0482602446407276));
#609=DIRECTION('',(1.,0.,0.));
#610=DIRECTION('',(-0.15287825071567,-0.960257648901182,-0.233524063395809));
#611=DIRECTION('',(1.,0.,0.));
#612=CARTESIAN_POINT('',(0.,0.,0.));
#613=CARTESIAN_POINT('',(1.,0.,0.));
#614=CARTESIAN_POINT('',(1.,0.,9.46151441058123));
#615=CARTESIAN_POINT('',(1.,0.,0.));
#616=CARTESIAN_POINT('',(0.787528389595669,0.,0.));
#617=CARTESIAN_POINT('',(0.787528389595669,0.,12.5));
#618=CARTESIAN_POINT('',(0.787528389595669,0.,0.));
#619=CARTESIAN_POINT('',(0.763389004838912,0.,0.));
#620=CARTESIAN_POINT('',(0.763389004838912,0.,13.8829444265048));
#621=CARTESIAN_POINT('',(0.763389004838912,0.,0.));
#622=CARTESIAN_POINT('',(1.51582206210326,0.,0.));
#623=CARTESIAN_POINT('',(1.51582206210326,0.,14.6954982139936));
#624=CARTESIAN_POINT('',(1.56326716096402,0.,0.));
#625=CARTESIAN_POINT('',(10.8491488880563,0.,0.));
#626=CARTESIAN_POINT('',(10.8491488880563,0.,15.25));
#627=CARTESIAN_POINT('',(10.8491488880563,0.,0.));
#628=CARTESIAN_POINT('',(15.4429201362015,0.,0.));
#629=CARTESIAN_POINT('',(15.4429201362015,0.,15.25));
#630=CARTESIAN_POINT('',(0.,0.,0.));
#631=CARTESIAN_POINT('',(17.1530208528299,0.,0.));
#632=CARTESIAN_POINT('',(17.1530208528299,0.,14.9484631039295));
#633=CARTESIAN_POINT('',(15.4429201362015,0.,0.));
#634=CARTESIAN_POINT('',(23.7385214850217,0.,0.));
#635=CARTESIAN_POINT('',(23.7385214850217,0.,12.5515368960705));
#636=CARTESIAN_POINT('',(23.7385214850217,0.,0.));
#637=CARTESIAN_POINT('',(25.4486222016501,0.,0.));
#638=CARTESIAN_POINT('',(25.4486222016501,0.,12.25));
#639=CARTESIAN_POINT('',(25.4486222016501,0.,0.));
#640=CARTESIAN_POINT('',(34.5669872981078,0.,0.));
#641=CARTESIAN_POINT('',(34.5669872981078,0.,12.25));
#642=CARTESIAN_POINT('',(0.,0.,0.));
#643=CARTESIAN_POINT('',(35.,0.,0.));
#644=CARTESIAN_POINT('',(35.,0.,12.5));
#645=CARTESIAN_POINT('',(35.,0.,0.));
#646=CARTESIAN_POINT('',(104.582179545096,0.,0.));
#647=CARTESIAN_POINT('',(104.582179545096,0.,12.5));
#648=CARTESIAN_POINT('',(0.,0.,0.));
#649=CARTESIAN_POINT('',(106.,0.,0.));
#650=CARTESIAN_POINT('',(106.,0.,12.25));
#651=CARTESIAN_POINT('',(106.,0.,0.));
#652=CARTESIAN_POINT('',(109.,0.,0.));
#653=CARTESIAN_POINT('',(109.,0.,12.25));
#654=CARTESIAN_POINT('',(0.,0.,0.));
#655=CARTESIAN_POINT('',(110.,0.,0.));
#656=CARTESIAN_POINT('',(110.,0.,11.25));
#657=CARTESIAN_POINT('',(109.,0.,0.));
#658=CARTESIAN_POINT('',(110.,11.25,0.));
#659=CARTESIAN_POINT('',(-0.0142430689169362,0.,0.));
#660=CARTESIAN_POINT('',(-0.0142430689169362,0.,-15.2626450591768));
#661=CARTESIAN_POINT('',(-0.0367830585593777,0.,0.));
#662=CARTESIAN_POINT('',(-0.0367830585593777,0.,-14.1282921730824));
#663=CARTESIAN_POINT('',(-0.0367830585593777,-14.1198172092271,0.489286936260018));
#664=CARTESIAN_POINT('',(0.,0.,0.));
#665=CARTESIAN_POINT('',(0.740975195387743,0.,0.));
#666=CARTESIAN_POINT('',(0.740975195387743,0.,-15.9999996830084));
#667=CARTESIAN_POINT('',(0.781227824713619,-15.2255322043768,0.112424456625851));
#668=CARTESIAN_POINT('',(0.,0.,0.));
#669=CARTESIAN_POINT('',(9.72153525992218,0.,0.));
#670=CARTESIAN_POINT('',(9.72153525992218,0.,-16.0897507206476));
#671=CARTESIAN_POINT('',(0.740975195387744,-15.9997745442595,-0.0848786730128519));
#672=CARTESIAN_POINT('',(0.,0.,0.));
#673=CARTESIAN_POINT('',(10.8145140311047,0.,0.));
#674=CARTESIAN_POINT('',(10.8145140311047,0.,-15.3910356249658));
#675=CARTESIAN_POINT('',(9.72153525992217,-16.0538420101387,-1.07435327806333));
#676=CARTESIAN_POINT('',(0.,0.,0.));
#677=CARTESIAN_POINT('',(11.3645414196155,0.,0.));
#678=CARTESIAN_POINT('',(11.3645414196155,0.,-11.9041576626109));
#679=CARTESIAN_POINT('',(10.8145140311047,-15.3577456771616,-1.01174370499089));
#680=CARTESIAN_POINT('',(0.,0.,0.));
#681=CARTESIAN_POINT('',(11.342001429973,0.,0.));
#682=CARTESIAN_POINT('',(11.342001429973,0.,-10.7620336393784));
#683=CARTESIAN_POINT('',(11.3645414196155,-11.9029212329732,-0.171568580847287));
#684=CARTESIAN_POINT('',(0.,0.,0.));
#685=CARTESIAN_POINT('',(10.5867831656684,0.,0.));
#686=CARTESIAN_POINT('',(10.5867831656684,0.,-10.0310462897309));
#687=CARTESIAN_POINT('',(10.5465305363425,-10.7972062378236,0.205293898786878));
#688=CARTESIAN_POINT('',(0.,0.,0.));
#689=CARTESIAN_POINT('',(1.60622310113393,0.,0.));
#690=CARTESIAN_POINT('',(1.60622310113393,0.,-10.0656226586287));
#691=CARTESIAN_POINT('',(10.5867831656684,-10.0229638979409,0.402597028425582));
#692=CARTESIAN_POINT('',(0.,0.,0.));
#693=CARTESIAN_POINT('',(0.513243740006398,0.,0.));
#694=CARTESIAN_POINT('',(0.513243740006398,0.,-10.747536956495));
#695=CARTESIAN_POINT('',(1.60622310113393,-9.96889643206164,1.39207163347606));
#696=CARTESIAN_POINT('',(0.,0.,0.));
#697=CARTESIAN_POINT('',(0.513243740006398,-10.664993269583,1.32946199305443));
#698=CARTESIAN_POINT('',(0.,0.,0.));
#699=(
GEOMETRIC_REPRESENTATION_CONTEXT(3)
GLOBAL_UNCERTAINTY_ASSIGNED_CONTEXT((#700))
GLOBAL_UNIT_ASSIGNED_CONTEXT((#706,#702,#701))
REPRESENTATION_CONTEXT('AEM90-AP1135Y-D32-W25-L110-Z04',
'TOP_LEVEL_ASSEMBLY_PART')
);
#700=UNCERTAINTY_MEASURE_WITH_UNIT(LENGTH_MEASURE(2.E-5),#706,
'DISTANCE_ACCURACY_VALUE','Maximum Tolerance applied to model');
#701=(
NAMED_UNIT(*)
SI_UNIT($,.STERADIAN.)
SOLID_ANGLE_UNIT()
);
#702=(
CONVERSION_BASED_UNIT('DEGREE',#704)
NAMED_UNIT(#703)
PLANE_ANGLE_UNIT()
);
#703=DIMENSIONAL_EXPONENTS(0.,0.,0.,0.,0.,0.,0.);
#704=PLANE_ANGLE_MEASURE_WITH_UNIT(PLANE_ANGLE_MEASURE(0.0174532925),#705);
#705=(
NAMED_UNIT(*)
PLANE_ANGLE_UNIT()
SI_UNIT($,.RADIAN.)
);
#706=(
LENGTH_UNIT()
NAMED_UNIT(*)
SI_UNIT(.MILLI.,.METRE.)
);
ENDSEC;
END-ISO-10303-21;
