ISO-10303-21;
HEADER;
/* Generated by software containing ST-Developer
 * from STEP Tools, Inc. (www.steptools.com) 
 */
/* OPTION: using custom schema-name function */

FILE_DESCRIPTION(
/* description */ (''),
/* implementation_level */ '2;1');

FILE_NAME(
/* name */ 'AEM90-LN1106-D32-W32-L150-Z04.stp',
/* time_stamp */ '2023-10-23T22:23:51+03:00',
/* author */ (''),
/* organization */ (''),
/* preprocessor_version */ 'ST-DEVELOPER v19.4',
/* originating_system */ 'SIEMENS PLM Software NX2306.3001',
/* authorisation */ '');

FILE_SCHEMA (('AUTOMOTIVE_DESIGN { 1 0 10303 214 3 1 1 1 }'));
ENDSEC;

DATA;
#10=SHAPE_REPRESENTATION_RELATIONSHIP('None',
'relationship between AEM90-LN1106-D32-W32-L150-Z04-None and AEM90-LN1
106-D32-W32-L150-Z04-None',#22,#11);
#11=ADVANCED_BREP_SHAPE_REPRESENTATION(
'AEM90-LN1106-D32-W32-L150-Z04-None',(#154,#155),#566);
#12=SHAPE_DEFINITION_REPRESENTATION(#13,#22);
#13=PRODUCT_DEFINITION_SHAPE('','',#14);
#14=PRODUCT_DEFINITION(' ','',#16,#15);
#15=PRODUCT_DEFINITION_CONTEXT('part definition',#21,'design');
#16=PRODUCT_DEFINITION_FORMATION_WITH_SPECIFIED_SOURCE(' ',' ',#18,
 .NOT_KNOWN.);
#17=PRODUCT_RELATED_PRODUCT_CATEGORY('part','',(#18));
#18=PRODUCT('AEM90-LN1106-D32-W32-L150-Z04',
'AEM90-LN1106-D32-W32-L150-Z04',' ',(#19));
#19=PRODUCT_CONTEXT(' ',#21,'mechanical');
#20=APPLICATION_PROTOCOL_DEFINITION('international standard',
'automotive_design',2010,#21);
#21=APPLICATION_CONTEXT(
'core data for automotive mechanical design processes');
#22=SHAPE_REPRESENTATION('AEM90-LN1106-D32-W32-L150-Z04-None',(#370),#566);
#23=DRAUGHTING_PRE_DEFINED_COLOUR('yellow');
#24=ELLIPSE('',#395,0.828220944328067,0.8);
#25=ELLIPSE('',#398,0.8,0.717260377734442);
#26=ELLIPSE('',#402,0.8,0.717260377734443);
#27=ELLIPSE('',#405,0.828220944328066,0.8);
#28=SURFACE_OF_REVOLUTION('',#48,#38);
#29=SURFACE_OF_REVOLUTION('',#24,#39);
#30=SURFACE_OF_REVOLUTION('',#49,#40);
#31=SURFACE_OF_REVOLUTION('',#25,#41);
#32=SURFACE_OF_REVOLUTION('',#50,#42);
#33=SURFACE_OF_REVOLUTION('',#51,#43);
#34=SURFACE_OF_REVOLUTION('',#26,#44);
#35=SURFACE_OF_REVOLUTION('',#52,#45);
#36=SURFACE_OF_REVOLUTION('',#27,#46);
#37=SURFACE_OF_REVOLUTION('',#53,#47);
#38=AXIS1_PLACEMENT('',#531,#455);
#39=AXIS1_PLACEMENT('',#535,#460);
#40=AXIS1_PLACEMENT('',#539,#464);
#41=AXIS1_PLACEMENT('',#543,#469);
#42=AXIS1_PLACEMENT('',#547,#473);
#43=AXIS1_PLACEMENT('',#551,#477);
#44=AXIS1_PLACEMENT('',#555,#482);
#45=AXIS1_PLACEMENT('',#559,#486);
#46=AXIS1_PLACEMENT('',#563,#491);
#47=AXIS1_PLACEMENT('',#565,#493);
#48=LINE('',#530,#54);
#49=LINE('',#538,#55);
#50=LINE('',#546,#56);
#51=LINE('',#550,#57);
#52=LINE('',#558,#58);
#53=LINE('',#564,#59);
#54=VECTOR('',#454,2.22251101030263);
#55=VECTOR('',#463,9.118681588952);
#56=VECTOR('',#472,2.22229315053617);
#57=VECTOR('',#476,2.22229315053614);
#58=VECTOR('',#485,9.118681588952);
#59=VECTOR('',#492,2.22251101030332);
#60=OVER_RIDING_STYLED_ITEM('',(#75),#168,#72);
#61=OVER_RIDING_STYLED_ITEM('',(#76),#169,#72);
#62=OVER_RIDING_STYLED_ITEM('',(#77),#170,#72);
#63=OVER_RIDING_STYLED_ITEM('',(#78),#171,#72);
#64=OVER_RIDING_STYLED_ITEM('',(#79),#172,#72);
#65=OVER_RIDING_STYLED_ITEM('',(#80),#173,#72);
#66=OVER_RIDING_STYLED_ITEM('',(#81),#174,#72);
#67=OVER_RIDING_STYLED_ITEM('',(#82),#175,#72);
#68=OVER_RIDING_STYLED_ITEM('',(#83),#176,#72);
#69=OVER_RIDING_STYLED_ITEM('',(#84),#177,#72);
#70=OVER_RIDING_STYLED_ITEM('',(#85),#178,#72);
#71=PRESENTATION_LAYER_ASSIGNMENT('1','Layer 1',(#154,#155));
#72=STYLED_ITEM('',(#74),#154);
#73=STYLED_ITEM('',(#86),#155);
#74=PRESENTATION_STYLE_ASSIGNMENT((#87));
#75=PRESENTATION_STYLE_ASSIGNMENT((#88));
#76=PRESENTATION_STYLE_ASSIGNMENT((#89));
#77=PRESENTATION_STYLE_ASSIGNMENT((#90));
#78=PRESENTATION_STYLE_ASSIGNMENT((#91));
#79=PRESENTATION_STYLE_ASSIGNMENT((#92));
#80=PRESENTATION_STYLE_ASSIGNMENT((#93));
#81=PRESENTATION_STYLE_ASSIGNMENT((#94));
#82=PRESENTATION_STYLE_ASSIGNMENT((#95));
#83=PRESENTATION_STYLE_ASSIGNMENT((#96));
#84=PRESENTATION_STYLE_ASSIGNMENT((#97));
#85=PRESENTATION_STYLE_ASSIGNMENT((#98));
#86=PRESENTATION_STYLE_ASSIGNMENT((#99));
#87=SURFACE_STYLE_USAGE(.BOTH.,#100);
#88=SURFACE_STYLE_USAGE(.BOTH.,#101);
#89=SURFACE_STYLE_USAGE(.BOTH.,#102);
#90=SURFACE_STYLE_USAGE(.BOTH.,#103);
#91=SURFACE_STYLE_USAGE(.BOTH.,#104);
#92=SURFACE_STYLE_USAGE(.BOTH.,#105);
#93=SURFACE_STYLE_USAGE(.BOTH.,#106);
#94=SURFACE_STYLE_USAGE(.BOTH.,#107);
#95=SURFACE_STYLE_USAGE(.BOTH.,#108);
#96=SURFACE_STYLE_USAGE(.BOTH.,#109);
#97=SURFACE_STYLE_USAGE(.BOTH.,#110);
#98=SURFACE_STYLE_USAGE(.BOTH.,#111);
#99=SURFACE_STYLE_USAGE(.BOTH.,#112);
#100=SURFACE_SIDE_STYLE('',(#113));
#101=SURFACE_SIDE_STYLE('',(#114));
#102=SURFACE_SIDE_STYLE('',(#115));
#103=SURFACE_SIDE_STYLE('',(#116));
#104=SURFACE_SIDE_STYLE('',(#117));
#105=SURFACE_SIDE_STYLE('',(#118));
#106=SURFACE_SIDE_STYLE('',(#119));
#107=SURFACE_SIDE_STYLE('',(#120));
#108=SURFACE_SIDE_STYLE('',(#121));
#109=SURFACE_SIDE_STYLE('',(#122));
#110=SURFACE_SIDE_STYLE('',(#123));
#111=SURFACE_SIDE_STYLE('',(#124));
#112=SURFACE_SIDE_STYLE('',(#125));
#113=SURFACE_STYLE_FILL_AREA(#126);
#114=SURFACE_STYLE_FILL_AREA(#127);
#115=SURFACE_STYLE_FILL_AREA(#128);
#116=SURFACE_STYLE_FILL_AREA(#129);
#117=SURFACE_STYLE_FILL_AREA(#130);
#118=SURFACE_STYLE_FILL_AREA(#131);
#119=SURFACE_STYLE_FILL_AREA(#132);
#120=SURFACE_STYLE_FILL_AREA(#133);
#121=SURFACE_STYLE_FILL_AREA(#134);
#122=SURFACE_STYLE_FILL_AREA(#135);
#123=SURFACE_STYLE_FILL_AREA(#136);
#124=SURFACE_STYLE_FILL_AREA(#137);
#125=SURFACE_STYLE_FILL_AREA(#138);
#126=FILL_AREA_STYLE('',(#139));
#127=FILL_AREA_STYLE('',(#140));
#128=FILL_AREA_STYLE('',(#141));
#129=FILL_AREA_STYLE('',(#142));
#130=FILL_AREA_STYLE('',(#143));
#131=FILL_AREA_STYLE('',(#144));
#132=FILL_AREA_STYLE('',(#145));
#133=FILL_AREA_STYLE('',(#146));
#134=FILL_AREA_STYLE('',(#147));
#135=FILL_AREA_STYLE('',(#148));
#136=FILL_AREA_STYLE('',(#149));
#137=FILL_AREA_STYLE('',(#150));
#138=FILL_AREA_STYLE('',(#151));
#139=FILL_AREA_STYLE_COLOUR('',#152);
#140=FILL_AREA_STYLE_COLOUR('',#153);
#141=FILL_AREA_STYLE_COLOUR('',#153);
#142=FILL_AREA_STYLE_COLOUR('',#153);
#143=FILL_AREA_STYLE_COLOUR('',#153);
#144=FILL_AREA_STYLE_COLOUR('',#153);
#145=FILL_AREA_STYLE_COLOUR('',#153);
#146=FILL_AREA_STYLE_COLOUR('',#153);
#147=FILL_AREA_STYLE_COLOUR('',#153);
#148=FILL_AREA_STYLE_COLOUR('',#153);
#149=FILL_AREA_STYLE_COLOUR('',#153);
#150=FILL_AREA_STYLE_COLOUR('',#153);
#151=FILL_AREA_STYLE_COLOUR('',#23);
#152=COLOUR_RGB('Medium Steel',0.611764705882353,0.658823529411765,0.670588235294118);
#153=COLOUR_RGB('silver gray',0.6,0.6,0.6);
#154=MANIFOLD_SOLID_BREP('',#156);
#155=MANIFOLD_SOLID_BREP('',#157);
#156=CLOSED_SHELL('',(#168,#169,#170,#171,#172,#173,#174,#175,#176,#177,
#178));
#157=CLOSED_SHELL('',(#179,#180,#181,#182,#183,#184,#185,#186,#187,#188));
#158=PLANE('',#378);
#159=PLANE('',#380);
#160=PLANE('',#384);
#161=FACE_OUTER_BOUND('',#236,.T.);
#162=FACE_OUTER_BOUND('',#237,.T.);
#163=TOROIDAL_SURFACE('',#377,14.25,1.5);
#164=TOROIDAL_SURFACE('',#386,14.2,0.8);
#165=CYLINDRICAL_SURFACE('',#375,15.75);
#166=CYLINDRICAL_SURFACE('',#388,15.);
#167=CYLINDRICAL_SURFACE('',#391,16.);
#168=ADVANCED_FACE('',(#192,#193),#189,.T.);
#169=ADVANCED_FACE('',(#194,#195),#165,.T.);
#170=ADVANCED_FACE('',(#196,#197),#163,.T.);
#171=ADVANCED_FACE('',(#161),#158,.F.);
#172=ADVANCED_FACE('',(#162),#159,.F.);
#173=ADVANCED_FACE('',(#198,#199),#190,.F.);
#174=ADVANCED_FACE('',(#200,#201),#160,.F.);
#175=ADVANCED_FACE('',(#202,#203),#164,.T.);
#176=ADVANCED_FACE('',(#204,#205),#166,.T.);
#177=ADVANCED_FACE('',(#206,#207),#191,.T.);
#178=ADVANCED_FACE('',(#208,#209),#167,.T.);
#179=ADVANCED_FACE('',(#210,#211),#28,.T.);
#180=ADVANCED_FACE('',(#212,#213),#29,.T.);
#181=ADVANCED_FACE('',(#214,#215),#30,.T.);
#182=ADVANCED_FACE('',(#216,#217),#31,.T.);
#183=ADVANCED_FACE('',(#218,#219),#32,.T.);
#184=ADVANCED_FACE('',(#220,#221),#33,.T.);
#185=ADVANCED_FACE('',(#222,#223),#34,.T.);
#186=ADVANCED_FACE('',(#224,#225),#35,.T.);
#187=ADVANCED_FACE('',(#226,#227),#36,.T.);
#188=ADVANCED_FACE('',(#228,#229),#37,.T.);
#189=CONICAL_SURFACE('',#373,15.75,30.0000000000015);
#190=CONICAL_SURFACE('',#382,7.,64.9999999999999);
#191=CONICAL_SURFACE('',#390,16.,45.);
#192=FACE_BOUND('',#230,.T.);
#193=FACE_BOUND('',#231,.T.);
#194=FACE_BOUND('',#232,.T.);
#195=FACE_BOUND('',#233,.T.);
#196=FACE_BOUND('',#234,.T.);
#197=FACE_BOUND('',#235,.T.);
#198=FACE_BOUND('',#238,.T.);
#199=FACE_BOUND('',#239,.T.);
#200=FACE_BOUND('',#240,.T.);
#201=FACE_BOUND('',#241,.T.);
#202=FACE_BOUND('',#242,.T.);
#203=FACE_BOUND('',#243,.T.);
#204=FACE_BOUND('',#244,.T.);
#205=FACE_BOUND('',#245,.T.);
#206=FACE_BOUND('',#246,.T.);
#207=FACE_BOUND('',#247,.T.);
#208=FACE_BOUND('',#248,.T.);
#209=FACE_BOUND('',#249,.T.);
#210=FACE_BOUND('',#250,.T.);
#211=FACE_BOUND('',#251,.T.);
#212=FACE_BOUND('',#252,.T.);
#213=FACE_BOUND('',#253,.T.);
#214=FACE_BOUND('',#254,.T.);
#215=FACE_BOUND('',#255,.T.);
#216=FACE_BOUND('',#256,.T.);
#217=FACE_BOUND('',#257,.T.);
#218=FACE_BOUND('',#258,.T.);
#219=FACE_BOUND('',#259,.T.);
#220=FACE_BOUND('',#260,.T.);
#221=FACE_BOUND('',#261,.T.);
#222=FACE_BOUND('',#262,.T.);
#223=FACE_BOUND('',#263,.T.);
#224=FACE_BOUND('',#264,.T.);
#225=FACE_BOUND('',#265,.T.);
#226=FACE_BOUND('',#266,.T.);
#227=FACE_BOUND('',#267,.T.);
#228=FACE_BOUND('',#268,.T.);
#229=FACE_BOUND('',#269,.T.);
#230=EDGE_LOOP('',(#270));
#231=EDGE_LOOP('',(#271));
#232=EDGE_LOOP('',(#272));
#233=EDGE_LOOP('',(#273));
#234=EDGE_LOOP('',(#274));
#235=EDGE_LOOP('',(#275));
#236=EDGE_LOOP('',(#276));
#237=EDGE_LOOP('',(#277));
#238=EDGE_LOOP('',(#278));
#239=EDGE_LOOP('',(#279));
#240=EDGE_LOOP('',(#280));
#241=EDGE_LOOP('',(#281));
#242=EDGE_LOOP('',(#282));
#243=EDGE_LOOP('',(#283));
#244=EDGE_LOOP('',(#284));
#245=EDGE_LOOP('',(#285));
#246=EDGE_LOOP('',(#286));
#247=EDGE_LOOP('',(#287));
#248=EDGE_LOOP('',(#288));
#249=EDGE_LOOP('',(#289));
#250=EDGE_LOOP('',(#290));
#251=EDGE_LOOP('',(#291));
#252=EDGE_LOOP('',(#292));
#253=EDGE_LOOP('',(#293));
#254=EDGE_LOOP('',(#294));
#255=EDGE_LOOP('',(#295));
#256=EDGE_LOOP('',(#296));
#257=EDGE_LOOP('',(#297));
#258=EDGE_LOOP('',(#298));
#259=EDGE_LOOP('',(#299));
#260=EDGE_LOOP('',(#300));
#261=EDGE_LOOP('',(#301));
#262=EDGE_LOOP('',(#302));
#263=EDGE_LOOP('',(#303));
#264=EDGE_LOOP('',(#304));
#265=EDGE_LOOP('',(#305));
#266=EDGE_LOOP('',(#306));
#267=EDGE_LOOP('',(#307));
#268=EDGE_LOOP('',(#308));
#269=EDGE_LOOP('',(#309));
#270=ORIENTED_EDGE('',*,*,#330,.F.);
#271=ORIENTED_EDGE('',*,*,#331,.T.);
#272=ORIENTED_EDGE('',*,*,#331,.F.);
#273=ORIENTED_EDGE('',*,*,#332,.T.);
#274=ORIENTED_EDGE('',*,*,#332,.F.);
#275=ORIENTED_EDGE('',*,*,#333,.T.);
#276=ORIENTED_EDGE('',*,*,#333,.F.);
#277=ORIENTED_EDGE('',*,*,#334,.T.);
#278=ORIENTED_EDGE('',*,*,#334,.F.);
#279=ORIENTED_EDGE('',*,*,#335,.T.);
#280=ORIENTED_EDGE('',*,*,#335,.F.);
#281=ORIENTED_EDGE('',*,*,#336,.T.);
#282=ORIENTED_EDGE('',*,*,#336,.F.);
#283=ORIENTED_EDGE('',*,*,#337,.T.);
#284=ORIENTED_EDGE('',*,*,#337,.F.);
#285=ORIENTED_EDGE('',*,*,#338,.T.);
#286=ORIENTED_EDGE('',*,*,#338,.F.);
#287=ORIENTED_EDGE('',*,*,#339,.T.);
#288=ORIENTED_EDGE('',*,*,#339,.F.);
#289=ORIENTED_EDGE('',*,*,#330,.T.);
#290=ORIENTED_EDGE('',*,*,#340,.F.);
#291=ORIENTED_EDGE('',*,*,#341,.T.);
#292=ORIENTED_EDGE('',*,*,#342,.F.);
#293=ORIENTED_EDGE('',*,*,#340,.T.);
#294=ORIENTED_EDGE('',*,*,#343,.F.);
#295=ORIENTED_EDGE('',*,*,#342,.T.);
#296=ORIENTED_EDGE('',*,*,#344,.F.);
#297=ORIENTED_EDGE('',*,*,#343,.T.);
#298=ORIENTED_EDGE('',*,*,#345,.F.);
#299=ORIENTED_EDGE('',*,*,#344,.T.);
#300=ORIENTED_EDGE('',*,*,#346,.F.);
#301=ORIENTED_EDGE('',*,*,#345,.T.);
#302=ORIENTED_EDGE('',*,*,#347,.F.);
#303=ORIENTED_EDGE('',*,*,#346,.T.);
#304=ORIENTED_EDGE('',*,*,#348,.F.);
#305=ORIENTED_EDGE('',*,*,#347,.T.);
#306=ORIENTED_EDGE('',*,*,#349,.F.);
#307=ORIENTED_EDGE('',*,*,#348,.T.);
#308=ORIENTED_EDGE('',*,*,#341,.F.);
#309=ORIENTED_EDGE('',*,*,#349,.T.);
#310=VERTEX_POINT('',#496);
#311=VERTEX_POINT('',#498);
#312=VERTEX_POINT('',#501);
#313=VERTEX_POINT('',#504);
#314=VERTEX_POINT('',#508);
#315=VERTEX_POINT('',#511);
#316=VERTEX_POINT('',#514);
#317=VERTEX_POINT('',#517);
#318=VERTEX_POINT('',#520);
#319=VERTEX_POINT('',#523);
#320=VERTEX_POINT('',#527);
#321=VERTEX_POINT('',#529);
#322=VERTEX_POINT('',#533);
#323=VERTEX_POINT('',#537);
#324=VERTEX_POINT('',#541);
#325=VERTEX_POINT('',#545);
#326=VERTEX_POINT('',#549);
#327=VERTEX_POINT('',#553);
#328=VERTEX_POINT('',#557);
#329=VERTEX_POINT('',#561);
#330=EDGE_CURVE('',#310,#310,#350,.T.);
#331=EDGE_CURVE('',#311,#311,#351,.T.);
#332=EDGE_CURVE('',#312,#312,#352,.T.);
#333=EDGE_CURVE('',#313,#313,#353,.T.);
#334=EDGE_CURVE('',#314,#314,#354,.T.);
#335=EDGE_CURVE('',#315,#315,#355,.T.);
#336=EDGE_CURVE('',#316,#316,#356,.T.);
#337=EDGE_CURVE('',#317,#317,#357,.T.);
#338=EDGE_CURVE('',#318,#318,#358,.T.);
#339=EDGE_CURVE('',#319,#319,#359,.T.);
#340=EDGE_CURVE('',#320,#320,#360,.T.);
#341=EDGE_CURVE('',#321,#321,#361,.T.);
#342=EDGE_CURVE('',#322,#322,#362,.T.);
#343=EDGE_CURVE('',#323,#323,#363,.T.);
#344=EDGE_CURVE('',#324,#324,#364,.T.);
#345=EDGE_CURVE('',#325,#325,#365,.T.);
#346=EDGE_CURVE('',#326,#326,#366,.T.);
#347=EDGE_CURVE('',#327,#327,#367,.T.);
#348=EDGE_CURVE('',#328,#328,#368,.T.);
#349=EDGE_CURVE('',#329,#329,#369,.T.);
#350=CIRCLE('',#371,16.);
#351=CIRCLE('',#372,15.75);
#352=CIRCLE('',#374,15.75);
#353=CIRCLE('',#376,14.25);
#354=CIRCLE('',#379,5.92774653974523);
#355=CIRCLE('',#381,7.);
#356=CIRCLE('',#383,14.2);
#357=CIRCLE('',#385,15.);
#358=CIRCLE('',#387,15.);
#359=CIRCLE('',#389,16.);
#360=CIRCLE('',#392,15.3164542676389);
#361=CIRCLE('',#393,13.3264720078461);
#362=CIRCLE('',#394,15.9994296736601);
#363=CIRCLE('',#396,15.7439097459103);
#364=CIRCLE('',#397,14.9874472656837);
#365=CIRCLE('',#399,12.8918826400467);
#366=CIRCLE('',#400,10.8501725374881);
#367=CIRCLE('',#401,10.1861342517026);
#368=CIRCLE('',#403,10.7176678472681);
#369=CIRCLE('',#404,11.4146612510361);
#370=AXIS2_PLACEMENT_3D('',#494,#406,#407);
#371=AXIS2_PLACEMENT_3D('',#495,#408,#409);
#372=AXIS2_PLACEMENT_3D('',#497,#410,#411);
#373=AXIS2_PLACEMENT_3D('',#499,#412,#413);
#374=AXIS2_PLACEMENT_3D('',#500,#414,#415);
#375=AXIS2_PLACEMENT_3D('',#502,#416,#417);
#376=AXIS2_PLACEMENT_3D('',#503,#418,#419);
#377=AXIS2_PLACEMENT_3D('',#505,#420,#421);
#378=AXIS2_PLACEMENT_3D('',#506,#422,#423);
#379=AXIS2_PLACEMENT_3D('',#507,#424,#425);
#380=AXIS2_PLACEMENT_3D('',#509,#426,#427);
#381=AXIS2_PLACEMENT_3D('',#510,#428,#429);
#382=AXIS2_PLACEMENT_3D('',#512,#430,#431);
#383=AXIS2_PLACEMENT_3D('',#513,#432,#433);
#384=AXIS2_PLACEMENT_3D('',#515,#434,#435);
#385=AXIS2_PLACEMENT_3D('',#516,#436,#437);
#386=AXIS2_PLACEMENT_3D('',#518,#438,#439);
#387=AXIS2_PLACEMENT_3D('',#519,#440,#441);
#388=AXIS2_PLACEMENT_3D('',#521,#442,#443);
#389=AXIS2_PLACEMENT_3D('',#522,#444,#445);
#390=AXIS2_PLACEMENT_3D('',#524,#446,#447);
#391=AXIS2_PLACEMENT_3D('',#525,#448,#449);
#392=AXIS2_PLACEMENT_3D('',#526,#450,#451);
#393=AXIS2_PLACEMENT_3D('',#528,#452,#453);
#394=AXIS2_PLACEMENT_3D('',#532,#456,#457);
#395=AXIS2_PLACEMENT_3D('',#534,#458,#459);
#396=AXIS2_PLACEMENT_3D('',#536,#461,#462);
#397=AXIS2_PLACEMENT_3D('',#540,#465,#466);
#398=AXIS2_PLACEMENT_3D('',#542,#467,#468);
#399=AXIS2_PLACEMENT_3D('',#544,#470,#471);
#400=AXIS2_PLACEMENT_3D('',#548,#474,#475);
#401=AXIS2_PLACEMENT_3D('',#552,#478,#479);
#402=AXIS2_PLACEMENT_3D('',#554,#480,#481);
#403=AXIS2_PLACEMENT_3D('',#556,#483,#484);
#404=AXIS2_PLACEMENT_3D('',#560,#487,#488);
#405=AXIS2_PLACEMENT_3D('',#562,#489,#490);
#406=DIRECTION('',(0.,0.,1.));
#407=DIRECTION('',(1.,0.,0.));
#408=DIRECTION('',(-1.,0.,0.));
#409=DIRECTION('',(0.,0.,1.));
#410=DIRECTION('',(-1.,0.,0.));
#411=DIRECTION('',(0.,0.,1.));
#412=DIRECTION('',(-1.,0.,0.));
#413=DIRECTION('',(4.67974422833271E-17,0.,1.));
#414=DIRECTION('',(-1.,0.,0.));
#415=DIRECTION('',(0.,0.,1.));
#416=DIRECTION('',(-1.,0.,0.));
#417=DIRECTION('',(0.,0.,1.));
#418=DIRECTION('',(-1.,0.,0.));
#419=DIRECTION('',(0.,0.,1.));
#420=DIRECTION('',(-1.,0.,0.));
#421=DIRECTION('',(0.,0.,1.));
#422=DIRECTION('',(-1.,0.,0.));
#423=DIRECTION('',(0.,0.,1.));
#424=DIRECTION('',(-1.,0.,0.));
#425=DIRECTION('',(0.,0.,1.));
#426=DIRECTION('',(1.,0.,0.));
#427=DIRECTION('',(0.,0.,-1.));
#428=DIRECTION('',(-1.,0.,0.));
#429=DIRECTION('',(0.,0.,1.));
#430=DIRECTION('',(-1.,0.,0.));
#431=DIRECTION('',(-2.51963440635536E-17,0.,1.));
#432=DIRECTION('',(-1.,0.,0.));
#433=DIRECTION('',(0.,0.,1.));
#434=DIRECTION('',(1.,0.,0.));
#435=DIRECTION('',(0.,0.,-1.));
#436=DIRECTION('',(-1.,0.,0.));
#437=DIRECTION('',(0.,0.,1.));
#438=DIRECTION('',(-1.,0.,0.));
#439=DIRECTION('',(0.,0.,1.));
#440=DIRECTION('',(-1.,0.,0.));
#441=DIRECTION('',(0.,0.,1.));
#442=DIRECTION('',(-1.,0.,0.));
#443=DIRECTION('',(0.,0.,1.));
#444=DIRECTION('',(-1.,0.,0.));
#445=DIRECTION('',(0.,0.,1.));
#446=DIRECTION('',(1.,0.,0.));
#447=DIRECTION('',(3.41480999208033E-17,0.,-1.));
#448=DIRECTION('',(-1.,0.,0.));
#449=DIRECTION('',(0.,0.,1.));
#450=DIRECTION('',(1.,0.,0.));
#451=DIRECTION('',(0.,0.,-1.));
#452=DIRECTION('',(1.,0.,0.));
#453=DIRECTION('',(0.,0.,-1.));
#454=DIRECTION('',(-0.000110275586796609,-0.917628316797007,-0.397439630700798));
#455=DIRECTION('',(1.,0.,0.));
#456=DIRECTION('',(1.,0.,0.));
#457=DIRECTION('',(0.,0.,-1.));
#458=DIRECTION('',(0.156334108180913,-0.392568626633981,0.906338523953378));
#459=DIRECTION('',(-0.987313803697274,-0.0363129669388193,0.154573029539179));
#460=DIRECTION('',(1.,0.,0.));
#461=DIRECTION('',(1.,0.,0.));
#462=DIRECTION('',(0.,0.,-1.));
#463=DIRECTION('',(0.987313803697274,0.0363129669388188,-0.154573029539179));
#464=DIRECTION('',(1.,0.,0.));
#465=DIRECTION('',(1.,0.,0.));
#466=DIRECTION('',(0.,0.,-1.));
#467=DIRECTION('',(0.156334108180914,-0.392568626633981,0.906338523953378));
#468=DIRECTION('',(0.0277686810651537,0.919005572243613,0.393265379275995));
#469=DIRECTION('',(1.,0.,0.));
#470=DIRECTION('',(1.,0.,0.));
#471=DIRECTION('',(0.,0.,-1.));
#472=DIRECTION('',(0.0517063110204893,0.919615954422199,0.389400762419387));
#473=DIRECTION('',(1.,0.,0.));
#474=DIRECTION('',(1.,0.,0.));
#475=DIRECTION('',(0.,0.,-1.));
#476=DIRECTION('',(0.00381471429608077,0.91785452258362,0.396898631047821));
#477=DIRECTION('',(1.,0.,0.));
#478=DIRECTION('',(1.,0.,0.));
#479=DIRECTION('',(0.,0.,-1.));
#480=DIRECTION('',(0.156334108180914,-0.392568626633981,0.906338523953378));
#481=DIRECTION('',(0.0277686810651537,0.919005572243613,0.393265379275995));
#482=DIRECTION('',(1.,0.,0.));
#483=DIRECTION('',(1.,0.,0.));
#484=DIRECTION('',(0.,0.,-1.));
#485=DIRECTION('',(-0.987313803697274,-0.0363129669388196,0.154573029539179));
#486=DIRECTION('',(1.,0.,0.));
#487=DIRECTION('',(1.,0.,0.));
#488=DIRECTION('',(0.,0.,-1.));
#489=DIRECTION('',(0.156334108180913,-0.392568626633981,0.906338523953378));
#490=DIRECTION('',(-0.987313803697274,-0.0363129669388193,0.154573029539179));
#491=DIRECTION('',(1.,0.,0.));
#492=DIRECTION('',(-0.0554053073281056,-0.919662043715423,-0.388782686431699));
#493=DIRECTION('',(1.,0.,0.));
#494=CARTESIAN_POINT('',(0.,0.,0.));
#495=CARTESIAN_POINT('',(145.566987298108,0.,0.));
#496=CARTESIAN_POINT('',(145.566987298108,0.,16.));
#497=CARTESIAN_POINT('',(146.,0.,0.));
#498=CARTESIAN_POINT('',(146.,0.,15.75));
#499=CARTESIAN_POINT('',(146.,0.,0.));
#500=CARTESIAN_POINT('',(148.5,0.,0.));
#501=CARTESIAN_POINT('',(148.5,0.,15.75));
#502=CARTESIAN_POINT('',(0.,0.,0.));
#503=CARTESIAN_POINT('',(150.,0.,0.));
#504=CARTESIAN_POINT('',(150.,0.,14.25));
#505=CARTESIAN_POINT('',(148.5,0.,0.));
#506=CARTESIAN_POINT('',(150.,14.25,0.));
#507=CARTESIAN_POINT('',(2.,0.,0.));
#508=CARTESIAN_POINT('',(2.,0.,5.92774653974523));
#509=CARTESIAN_POINT('',(2.,5.92774653974523,0.));
#510=CARTESIAN_POINT('',(1.5,0.,0.));
#511=CARTESIAN_POINT('',(1.5,0.,7.));
#512=CARTESIAN_POINT('',(1.5,0.,0.));
#513=CARTESIAN_POINT('',(1.5,0.,0.));
#514=CARTESIAN_POINT('',(1.5,0.,14.2));
#515=CARTESIAN_POINT('',(1.5,14.2,0.));
#516=CARTESIAN_POINT('',(2.3,0.,0.));
#517=CARTESIAN_POINT('',(2.3,0.,15.));
#518=CARTESIAN_POINT('',(2.3,0.,0.));
#519=CARTESIAN_POINT('',(39.,0.,0.));
#520=CARTESIAN_POINT('',(39.,0.,15.));
#521=CARTESIAN_POINT('',(0.,0.,0.));
#522=CARTESIAN_POINT('',(40.,0.,0.));
#523=CARTESIAN_POINT('',(40.,0.,16.));
#524=CARTESIAN_POINT('',(40.,0.,0.));
#525=CARTESIAN_POINT('',(0.,0.,0.));
#526=CARTESIAN_POINT('',(8.57344896345051E-5,0.,0.));
#527=CARTESIAN_POINT('',(8.57344896345051E-5,0.,-15.3164542676389));
#528=CARTESIAN_POINT('',(0.000330823195457553,0.,0.));
#529=CARTESIAN_POINT('',(0.000330823195457553,0.,-13.3264720078461));
#530=CARTESIAN_POINT('',(0.000330823195457553,-13.2741454432695,1.17979613782785));
#531=CARTESIAN_POINT('',(0.,0.,0.));
#532=CARTESIAN_POINT('',(0.795886458258068,0.,0.));
#533=CARTESIAN_POINT('',(0.795886458258068,0.,-15.9994296736601));
#534=CARTESIAN_POINT('',(0.81810140311019,-15.2636335566833,0.177018448614443));
#535=CARTESIAN_POINT('',(0.,0.,0.));
#536=CARTESIAN_POINT('',(9.79888666255057,0.,0.));
#537=CARTESIAN_POINT('',(9.79888666255057,0.,-15.7439097459103));
#538=CARTESIAN_POINT('',(0.795886458258069,-15.9988380144782,-0.137593854806363));
#539=CARTESIAN_POINT('',(0.,0.,0.));
#540=CARTESIAN_POINT('',(10.5284026647098,0.,0.));
#541=CARTESIAN_POINT('',(10.5284026647098,0.,-14.9874472656837));
#542=CARTESIAN_POINT('',(9.8211016074027,-14.9325071736181,-1.23248378999301));
#543=CARTESIAN_POINT('',(0.,0.,0.));
#544=CARTESIAN_POINT('',(10.6433092455301,0.,0.));
#545=CARTESIAN_POINT('',(10.6433092455301,0.,-12.8918826400467));
#546=CARTESIAN_POINT('',(10.5284026647098,-14.9263576201409,-1.35182237639091));
#547=CARTESIAN_POINT('',(0.,0.,0.));
#548=CARTESIAN_POINT('',(10.6517866589816,0.,0.));
#549=CARTESIAN_POINT('',(10.6517866589816,0.,-10.8501725374881));
#550=CARTESIAN_POINT('',(10.6433092455301,-12.8827013835046,-0.486459729252746));
#551=CARTESIAN_POINT('',(0.,0.,0.));
#552=CARTESIAN_POINT('',(9.9654987489415,0.,0.));
#553=CARTESIAN_POINT('',(9.9654987489415,0.,-10.1861342517026));
#554=CARTESIAN_POINT('',(9.94328380408937,-10.8888826557462,0.497883878821368));
#555=CARTESIAN_POINT('',(0.,0.,0.));
#556=CARTESIAN_POINT('',(0.962498544648987,0.,0.));
#557=CARTESIAN_POINT('',(0.962498544648987,0.,-10.7176678472681));
#558=CARTESIAN_POINT('',(9.9654987489415,-10.1536781979513,0.812496182242165));
#559=CARTESIAN_POINT('',(0.,0.,0.));
#560=CARTESIAN_POINT('',(0.123469728761393,0.,0.));
#561=CARTESIAN_POINT('',(0.123469728761393,0.,-11.4146612510361));
#562=CARTESIAN_POINT('',(0.940283599796856,-11.2200090388114,1.90738611742881));
#563=CARTESIAN_POINT('',(0.,0.,0.));
#564=CARTESIAN_POINT('',(0.123469728761393,-11.2301864253539,2.04386993903761));
#565=CARTESIAN_POINT('',(0.,0.,0.));
#566=(
GEOMETRIC_REPRESENTATION_CONTEXT(3)
GLOBAL_UNCERTAINTY_ASSIGNED_CONTEXT((#567))
GLOBAL_UNIT_ASSIGNED_CONTEXT((#573,#569,#568))
REPRESENTATION_CONTEXT('AEM90-LN1106-D32-W32-L150-Z04',
'TOP_LEVEL_ASSEMBLY_PART')
);
#567=UNCERTAINTY_MEASURE_WITH_UNIT(LENGTH_MEASURE(2.E-5),#573,
'DISTANCE_ACCURACY_VALUE','Maximum Tolerance applied to model');
#568=(
NAMED_UNIT(*)
SI_UNIT($,.STERADIAN.)
SOLID_ANGLE_UNIT()
);
#569=(
CONVERSION_BASED_UNIT('DEGREE',#571)
NAMED_UNIT(#570)
PLANE_ANGLE_UNIT()
);
#570=DIMENSIONAL_EXPONENTS(0.,0.,0.,0.,0.,0.,0.);
#571=PLANE_ANGLE_MEASURE_WITH_UNIT(PLANE_ANGLE_MEASURE(0.0174532925),#572);
#572=(
NAMED_UNIT(*)
PLANE_ANGLE_UNIT()
SI_UNIT($,.RADIAN.)
);
#573=(
LENGTH_UNIT()
NAMED_UNIT(*)
SI_UNIT(.MILLI.,.METRE.)
);
ENDSEC;
END-ISO-10303-21;
