ISO-10303-21;
HEADER;
/* Generated by software containing ST-Developer
 * from STEP Tools, Inc. (www.steptools.com) 
 */
/* OPTION: using custom schema-name function */

FILE_DESCRIPTION(
/* description */ (''),
/* implementation_level */ '2;1');

FILE_NAME(
/* name */ 'AEM90-SPGT07T3-D20-W20-L150-Z03.stp',
/* time_stamp */ '2023-10-26T22:20:32+03:00',
/* author */ (''),
/* organization */ (''),
/* preprocessor_version */ 'ST-DEVELOPER v19.4',
/* originating_system */ 'SIEMENS PLM Software NX2306.3001',
/* authorisation */ '');

FILE_SCHEMA (('AUTOMOTIVE_DESIGN { 1 0 10303 214 3 1 1 1 }'));
ENDSEC;

DATA;
#10=SHAPE_REPRESENTATION_RELATIONSHIP('None',
'relationship between AEM90-SPGT07T3-D20-W20-L150-Z03-None and AEM90-S
PGT07T3-D20-W20-L150-Z03-None',#22,#11);
#11=ADVANCED_BREP_SHAPE_REPRESENTATION(
'AEM90-SPGT07T3-D20-W20-L150-Z03-None',(#160,#161),#574);
#12=SHAPE_DEFINITION_REPRESENTATION(#13,#22);
#13=PRODUCT_DEFINITION_SHAPE('','',#14);
#14=PRODUCT_DEFINITION(' ','',#16,#15);
#15=PRODUCT_DEFINITION_CONTEXT('part definition',#21,'design');
#16=PRODUCT_DEFINITION_FORMATION_WITH_SPECIFIED_SOURCE(' ',' ',#18,
 .NOT_KNOWN.);
#17=PRODUCT_RELATED_PRODUCT_CATEGORY('part','',(#18));
#18=PRODUCT('AEM90-SPGT07T3-D20-W20-L150-Z03',
'AEM90-SPGT07T3-D20-W20-L150-Z03',' ',(#19));
#19=PRODUCT_CONTEXT(' ',#21,'mechanical');
#20=APPLICATION_PROTOCOL_DEFINITION('international standard',
'automotive_design',2010,#21);
#21=APPLICATION_CONTEXT(
'core data for automotive mechanical design processes');
#22=SHAPE_REPRESENTATION('AEM90-SPGT07T3-D20-W20-L150-Z03-None',(#378),
#574);
#23=DRAUGHTING_PRE_DEFINED_COLOUR('yellow');
#24=ELLIPSE('',#407,0.829676528451304,0.8);
#25=ELLIPSE('',#410,0.829676528451304,0.8);
#26=ELLIPSE('',#413,0.829676528451304,0.8);
#27=ELLIPSE('',#415,0.829676528451304,0.8);
#28=SURFACE_OF_REVOLUTION('',#44,#36);
#29=SURFACE_OF_REVOLUTION('',#24,#37);
#30=SURFACE_OF_REVOLUTION('',#45,#38);
#31=SURFACE_OF_REVOLUTION('',#25,#39);
#32=SURFACE_OF_REVOLUTION('',#46,#40);
#33=SURFACE_OF_REVOLUTION('',#26,#41);
#34=SURFACE_OF_REVOLUTION('',#47,#42);
#35=SURFACE_OF_REVOLUTION('',#27,#43);
#36=AXIS1_PLACEMENT('',#547,#473);
#37=AXIS1_PLACEMENT('',#551,#478);
#38=AXIS1_PLACEMENT('',#555,#482);
#39=AXIS1_PLACEMENT('',#559,#487);
#40=AXIS1_PLACEMENT('',#563,#491);
#41=AXIS1_PLACEMENT('',#567,#496);
#42=AXIS1_PLACEMENT('',#571,#500);
#43=AXIS1_PLACEMENT('',#573,#503);
#44=LINE('',#546,#48);
#45=LINE('',#554,#49);
#46=LINE('',#562,#50);
#47=LINE('',#570,#51);
#48=VECTOR('',#472,6.36939650648375);
#49=VECTOR('',#481,6.36939650648374);
#50=VECTOR('',#490,6.36939650648375);
#51=VECTOR('',#499,6.36939650648375);
#52=OVER_RIDING_STYLED_ITEM('',(#69),#175,#66);
#53=OVER_RIDING_STYLED_ITEM('',(#70),#176,#66);
#54=OVER_RIDING_STYLED_ITEM('',(#71),#177,#66);
#55=OVER_RIDING_STYLED_ITEM('',(#72),#178,#66);
#56=OVER_RIDING_STYLED_ITEM('',(#73),#179,#66);
#57=OVER_RIDING_STYLED_ITEM('',(#74),#180,#66);
#58=OVER_RIDING_STYLED_ITEM('',(#75),#181,#66);
#59=OVER_RIDING_STYLED_ITEM('',(#76),#182,#66);
#60=OVER_RIDING_STYLED_ITEM('',(#77),#183,#66);
#61=OVER_RIDING_STYLED_ITEM('',(#78),#184,#66);
#62=OVER_RIDING_STYLED_ITEM('',(#79),#185,#66);
#63=OVER_RIDING_STYLED_ITEM('',(#80),#186,#66);
#64=OVER_RIDING_STYLED_ITEM('',(#81),#187,#66);
#65=PRESENTATION_LAYER_ASSIGNMENT('1','Layer 1',(#160,#161));
#66=STYLED_ITEM('',(#68),#160);
#67=STYLED_ITEM('',(#82),#161);
#68=PRESENTATION_STYLE_ASSIGNMENT((#83));
#69=PRESENTATION_STYLE_ASSIGNMENT((#84));
#70=PRESENTATION_STYLE_ASSIGNMENT((#85));
#71=PRESENTATION_STYLE_ASSIGNMENT((#86));
#72=PRESENTATION_STYLE_ASSIGNMENT((#87));
#73=PRESENTATION_STYLE_ASSIGNMENT((#88));
#74=PRESENTATION_STYLE_ASSIGNMENT((#89));
#75=PRESENTATION_STYLE_ASSIGNMENT((#90));
#76=PRESENTATION_STYLE_ASSIGNMENT((#91));
#77=PRESENTATION_STYLE_ASSIGNMENT((#92));
#78=PRESENTATION_STYLE_ASSIGNMENT((#93));
#79=PRESENTATION_STYLE_ASSIGNMENT((#94));
#80=PRESENTATION_STYLE_ASSIGNMENT((#95));
#81=PRESENTATION_STYLE_ASSIGNMENT((#96));
#82=PRESENTATION_STYLE_ASSIGNMENT((#97));
#83=SURFACE_STYLE_USAGE(.BOTH.,#98);
#84=SURFACE_STYLE_USAGE(.BOTH.,#99);
#85=SURFACE_STYLE_USAGE(.BOTH.,#100);
#86=SURFACE_STYLE_USAGE(.BOTH.,#101);
#87=SURFACE_STYLE_USAGE(.BOTH.,#102);
#88=SURFACE_STYLE_USAGE(.BOTH.,#103);
#89=SURFACE_STYLE_USAGE(.BOTH.,#104);
#90=SURFACE_STYLE_USAGE(.BOTH.,#105);
#91=SURFACE_STYLE_USAGE(.BOTH.,#106);
#92=SURFACE_STYLE_USAGE(.BOTH.,#107);
#93=SURFACE_STYLE_USAGE(.BOTH.,#108);
#94=SURFACE_STYLE_USAGE(.BOTH.,#109);
#95=SURFACE_STYLE_USAGE(.BOTH.,#110);
#96=SURFACE_STYLE_USAGE(.BOTH.,#111);
#97=SURFACE_STYLE_USAGE(.BOTH.,#112);
#98=SURFACE_SIDE_STYLE('',(#113));
#99=SURFACE_SIDE_STYLE('',(#114));
#100=SURFACE_SIDE_STYLE('',(#115));
#101=SURFACE_SIDE_STYLE('',(#116));
#102=SURFACE_SIDE_STYLE('',(#117));
#103=SURFACE_SIDE_STYLE('',(#118));
#104=SURFACE_SIDE_STYLE('',(#119));
#105=SURFACE_SIDE_STYLE('',(#120));
#106=SURFACE_SIDE_STYLE('',(#121));
#107=SURFACE_SIDE_STYLE('',(#122));
#108=SURFACE_SIDE_STYLE('',(#123));
#109=SURFACE_SIDE_STYLE('',(#124));
#110=SURFACE_SIDE_STYLE('',(#125));
#111=SURFACE_SIDE_STYLE('',(#126));
#112=SURFACE_SIDE_STYLE('',(#127));
#113=SURFACE_STYLE_FILL_AREA(#128);
#114=SURFACE_STYLE_FILL_AREA(#129);
#115=SURFACE_STYLE_FILL_AREA(#130);
#116=SURFACE_STYLE_FILL_AREA(#131);
#117=SURFACE_STYLE_FILL_AREA(#132);
#118=SURFACE_STYLE_FILL_AREA(#133);
#119=SURFACE_STYLE_FILL_AREA(#134);
#120=SURFACE_STYLE_FILL_AREA(#135);
#121=SURFACE_STYLE_FILL_AREA(#136);
#122=SURFACE_STYLE_FILL_AREA(#137);
#123=SURFACE_STYLE_FILL_AREA(#138);
#124=SURFACE_STYLE_FILL_AREA(#139);
#125=SURFACE_STYLE_FILL_AREA(#140);
#126=SURFACE_STYLE_FILL_AREA(#141);
#127=SURFACE_STYLE_FILL_AREA(#142);
#128=FILL_AREA_STYLE('',(#143));
#129=FILL_AREA_STYLE('',(#144));
#130=FILL_AREA_STYLE('',(#145));
#131=FILL_AREA_STYLE('',(#146));
#132=FILL_AREA_STYLE('',(#147));
#133=FILL_AREA_STYLE('',(#148));
#134=FILL_AREA_STYLE('',(#149));
#135=FILL_AREA_STYLE('',(#150));
#136=FILL_AREA_STYLE('',(#151));
#137=FILL_AREA_STYLE('',(#152));
#138=FILL_AREA_STYLE('',(#153));
#139=FILL_AREA_STYLE('',(#154));
#140=FILL_AREA_STYLE('',(#155));
#141=FILL_AREA_STYLE('',(#156));
#142=FILL_AREA_STYLE('',(#157));
#143=FILL_AREA_STYLE_COLOUR('',#158);
#144=FILL_AREA_STYLE_COLOUR('',#159);
#145=FILL_AREA_STYLE_COLOUR('',#159);
#146=FILL_AREA_STYLE_COLOUR('',#159);
#147=FILL_AREA_STYLE_COLOUR('',#159);
#148=FILL_AREA_STYLE_COLOUR('',#159);
#149=FILL_AREA_STYLE_COLOUR('',#159);
#150=FILL_AREA_STYLE_COLOUR('',#159);
#151=FILL_AREA_STYLE_COLOUR('',#159);
#152=FILL_AREA_STYLE_COLOUR('',#159);
#153=FILL_AREA_STYLE_COLOUR('',#159);
#154=FILL_AREA_STYLE_COLOUR('',#159);
#155=FILL_AREA_STYLE_COLOUR('',#159);
#156=FILL_AREA_STYLE_COLOUR('',#159);
#157=FILL_AREA_STYLE_COLOUR('',#23);
#158=COLOUR_RGB('Medium Steel',0.611764705882353,0.658823529411765,0.670588235294118);
#159=COLOUR_RGB('silver gray',0.6,0.6,0.6);
#160=MANIFOLD_SOLID_BREP('',#162);
#161=MANIFOLD_SOLID_BREP('',#163);
#162=CLOSED_SHELL('',(#175,#176,#177,#178,#179,#180,#181,#182,#183,#184,
#185,#186,#187));
#163=CLOSED_SHELL('',(#188,#189,#190,#191,#192,#193,#194,#195));
#164=FACE_OUTER_BOUND('',#256,.T.);
#165=FACE_OUTER_BOUND('',#257,.T.);
#166=PLANE('',#395);
#167=PLANE('',#398);
#168=PLANE('',#400);
#169=TOROIDAL_SURFACE('',#387,11.85,2.5);
#170=TOROIDAL_SURFACE('',#393,8.04746355489116,1.2);
#171=TOROIDAL_SURFACE('',#402,8.75,1.);
#172=CYLINDRICAL_SURFACE('',#383,10.);
#173=CYLINDRICAL_SURFACE('',#389,9.35);
#174=CYLINDRICAL_SURFACE('',#403,9.75);
#175=ADVANCED_FACE('',(#200,#201),#196,.T.);
#176=ADVANCED_FACE('',(#202,#203),#172,.T.);
#177=ADVANCED_FACE('',(#204,#205),#197,.T.);
#178=ADVANCED_FACE('',(#206,#207),#169,.F.);
#179=ADVANCED_FACE('',(#208,#209),#173,.T.);
#180=ADVANCED_FACE('',(#210,#211),#198,.T.);
#181=ADVANCED_FACE('',(#212,#213),#170,.T.);
#182=ADVANCED_FACE('',(#214,#215),#166,.F.);
#183=ADVANCED_FACE('',(#216,#217),#199,.F.);
#184=ADVANCED_FACE('',(#164),#167,.F.);
#185=ADVANCED_FACE('',(#165),#168,.F.);
#186=ADVANCED_FACE('',(#218,#219),#171,.T.);
#187=ADVANCED_FACE('',(#220,#221),#174,.T.);
#188=ADVANCED_FACE('',(#222,#223),#28,.T.);
#189=ADVANCED_FACE('',(#224,#225),#29,.T.);
#190=ADVANCED_FACE('',(#226,#227),#30,.T.);
#191=ADVANCED_FACE('',(#228,#229),#31,.T.);
#192=ADVANCED_FACE('',(#230,#231),#32,.T.);
#193=ADVANCED_FACE('',(#232,#233),#33,.T.);
#194=ADVANCED_FACE('',(#234,#235),#34,.T.);
#195=ADVANCED_FACE('',(#236,#237),#35,.T.);
#196=CONICAL_SURFACE('',#381,9.75,9.99999999999958);
#197=CONICAL_SURFACE('',#385,10.,30.);
#198=CONICAL_SURFACE('',#391,9.35,1.49999999999962);
#199=CONICAL_SURFACE('',#397,4.75,60.0000000000001);
#200=FACE_BOUND('',#238,.T.);
#201=FACE_BOUND('',#239,.T.);
#202=FACE_BOUND('',#240,.T.);
#203=FACE_BOUND('',#241,.T.);
#204=FACE_BOUND('',#242,.T.);
#205=FACE_BOUND('',#243,.T.);
#206=FACE_BOUND('',#244,.T.);
#207=FACE_BOUND('',#245,.T.);
#208=FACE_BOUND('',#246,.T.);
#209=FACE_BOUND('',#247,.T.);
#210=FACE_BOUND('',#248,.T.);
#211=FACE_BOUND('',#249,.T.);
#212=FACE_BOUND('',#250,.T.);
#213=FACE_BOUND('',#251,.T.);
#214=FACE_BOUND('',#252,.T.);
#215=FACE_BOUND('',#253,.T.);
#216=FACE_BOUND('',#254,.T.);
#217=FACE_BOUND('',#255,.T.);
#218=FACE_BOUND('',#258,.T.);
#219=FACE_BOUND('',#259,.T.);
#220=FACE_BOUND('',#260,.T.);
#221=FACE_BOUND('',#261,.T.);
#222=FACE_BOUND('',#262,.T.);
#223=FACE_BOUND('',#263,.T.);
#224=FACE_BOUND('',#264,.T.);
#225=FACE_BOUND('',#265,.T.);
#226=FACE_BOUND('',#266,.T.);
#227=FACE_BOUND('',#267,.T.);
#228=FACE_BOUND('',#268,.T.);
#229=FACE_BOUND('',#269,.T.);
#230=FACE_BOUND('',#270,.T.);
#231=FACE_BOUND('',#271,.T.);
#232=FACE_BOUND('',#272,.T.);
#233=FACE_BOUND('',#273,.T.);
#234=FACE_BOUND('',#274,.T.);
#235=FACE_BOUND('',#275,.T.);
#236=FACE_BOUND('',#276,.T.);
#237=FACE_BOUND('',#277,.T.);
#238=EDGE_LOOP('',(#278));
#239=EDGE_LOOP('',(#279));
#240=EDGE_LOOP('',(#280));
#241=EDGE_LOOP('',(#281));
#242=EDGE_LOOP('',(#282));
#243=EDGE_LOOP('',(#283));
#244=EDGE_LOOP('',(#284));
#245=EDGE_LOOP('',(#285));
#246=EDGE_LOOP('',(#286));
#247=EDGE_LOOP('',(#287));
#248=EDGE_LOOP('',(#288));
#249=EDGE_LOOP('',(#289));
#250=EDGE_LOOP('',(#290));
#251=EDGE_LOOP('',(#291));
#252=EDGE_LOOP('',(#292));
#253=EDGE_LOOP('',(#293));
#254=EDGE_LOOP('',(#294));
#255=EDGE_LOOP('',(#295));
#256=EDGE_LOOP('',(#296));
#257=EDGE_LOOP('',(#297));
#258=EDGE_LOOP('',(#298));
#259=EDGE_LOOP('',(#299));
#260=EDGE_LOOP('',(#300));
#261=EDGE_LOOP('',(#301));
#262=EDGE_LOOP('',(#302));
#263=EDGE_LOOP('',(#303));
#264=EDGE_LOOP('',(#304));
#265=EDGE_LOOP('',(#305));
#266=EDGE_LOOP('',(#306));
#267=EDGE_LOOP('',(#307));
#268=EDGE_LOOP('',(#308));
#269=EDGE_LOOP('',(#309));
#270=EDGE_LOOP('',(#310));
#271=EDGE_LOOP('',(#311));
#272=EDGE_LOOP('',(#312));
#273=EDGE_LOOP('',(#313));
#274=EDGE_LOOP('',(#314));
#275=EDGE_LOOP('',(#315));
#276=EDGE_LOOP('',(#316));
#277=EDGE_LOOP('',(#317));
#278=ORIENTED_EDGE('',*,*,#338,.F.);
#279=ORIENTED_EDGE('',*,*,#339,.T.);
#280=ORIENTED_EDGE('',*,*,#340,.F.);
#281=ORIENTED_EDGE('',*,*,#338,.T.);
#282=ORIENTED_EDGE('',*,*,#341,.F.);
#283=ORIENTED_EDGE('',*,*,#340,.T.);
#284=ORIENTED_EDGE('',*,*,#342,.F.);
#285=ORIENTED_EDGE('',*,*,#341,.T.);
#286=ORIENTED_EDGE('',*,*,#343,.F.);
#287=ORIENTED_EDGE('',*,*,#342,.T.);
#288=ORIENTED_EDGE('',*,*,#344,.F.);
#289=ORIENTED_EDGE('',*,*,#343,.T.);
#290=ORIENTED_EDGE('',*,*,#345,.F.);
#291=ORIENTED_EDGE('',*,*,#344,.T.);
#292=ORIENTED_EDGE('',*,*,#346,.F.);
#293=ORIENTED_EDGE('',*,*,#345,.T.);
#294=ORIENTED_EDGE('',*,*,#347,.F.);
#295=ORIENTED_EDGE('',*,*,#346,.T.);
#296=ORIENTED_EDGE('',*,*,#347,.T.);
#297=ORIENTED_EDGE('',*,*,#348,.F.);
#298=ORIENTED_EDGE('',*,*,#349,.F.);
#299=ORIENTED_EDGE('',*,*,#348,.T.);
#300=ORIENTED_EDGE('',*,*,#339,.F.);
#301=ORIENTED_EDGE('',*,*,#349,.T.);
#302=ORIENTED_EDGE('',*,*,#350,.F.);
#303=ORIENTED_EDGE('',*,*,#351,.T.);
#304=ORIENTED_EDGE('',*,*,#352,.F.);
#305=ORIENTED_EDGE('',*,*,#350,.T.);
#306=ORIENTED_EDGE('',*,*,#353,.F.);
#307=ORIENTED_EDGE('',*,*,#352,.T.);
#308=ORIENTED_EDGE('',*,*,#354,.F.);
#309=ORIENTED_EDGE('',*,*,#353,.T.);
#310=ORIENTED_EDGE('',*,*,#355,.F.);
#311=ORIENTED_EDGE('',*,*,#354,.T.);
#312=ORIENTED_EDGE('',*,*,#356,.F.);
#313=ORIENTED_EDGE('',*,*,#355,.T.);
#314=ORIENTED_EDGE('',*,*,#357,.F.);
#315=ORIENTED_EDGE('',*,*,#356,.T.);
#316=ORIENTED_EDGE('',*,*,#351,.F.);
#317=ORIENTED_EDGE('',*,*,#357,.T.);
#318=VERTEX_POINT('',#506);
#319=VERTEX_POINT('',#508);
#320=VERTEX_POINT('',#511);
#321=VERTEX_POINT('',#514);
#322=VERTEX_POINT('',#517);
#323=VERTEX_POINT('',#520);
#324=VERTEX_POINT('',#523);
#325=VERTEX_POINT('',#526);
#326=VERTEX_POINT('',#529);
#327=VERTEX_POINT('',#532);
#328=VERTEX_POINT('',#536);
#329=VERTEX_POINT('',#539);
#330=VERTEX_POINT('',#543);
#331=VERTEX_POINT('',#545);
#332=VERTEX_POINT('',#549);
#333=VERTEX_POINT('',#553);
#334=VERTEX_POINT('',#557);
#335=VERTEX_POINT('',#561);
#336=VERTEX_POINT('',#565);
#337=VERTEX_POINT('',#569);
#338=EDGE_CURVE('',#318,#318,#358,.T.);
#339=EDGE_CURVE('',#319,#319,#359,.T.);
#340=EDGE_CURVE('',#320,#320,#360,.T.);
#341=EDGE_CURVE('',#321,#321,#361,.T.);
#342=EDGE_CURVE('',#322,#322,#362,.T.);
#343=EDGE_CURVE('',#323,#323,#363,.T.);
#344=EDGE_CURVE('',#324,#324,#364,.T.);
#345=EDGE_CURVE('',#325,#325,#365,.T.);
#346=EDGE_CURVE('',#326,#326,#366,.T.);
#347=EDGE_CURVE('',#327,#327,#367,.T.);
#348=EDGE_CURVE('',#328,#328,#368,.T.);
#349=EDGE_CURVE('',#329,#329,#369,.T.);
#350=EDGE_CURVE('',#330,#330,#370,.T.);
#351=EDGE_CURVE('',#331,#331,#371,.T.);
#352=EDGE_CURVE('',#332,#332,#372,.T.);
#353=EDGE_CURVE('',#333,#333,#373,.T.);
#354=EDGE_CURVE('',#334,#334,#374,.T.);
#355=EDGE_CURVE('',#335,#335,#375,.T.);
#356=EDGE_CURVE('',#336,#336,#376,.T.);
#357=EDGE_CURVE('',#337,#337,#377,.T.);
#358=CIRCLE('',#379,10.);
#359=CIRCLE('',#380,9.75);
#360=CIRCLE('',#382,10.);
#361=CIRCLE('',#384,9.68493649053891);
#362=CIRCLE('',#386,9.35);
#363=CIRCLE('',#388,9.35);
#364=CIRCLE('',#390,9.24705234486183);
#365=CIRCLE('',#392,8.04746355489116);
#366=CIRCLE('',#394,4.75);
#367=CIRCLE('',#396,3.88397459621555);
#368=CIRCLE('',#399,8.75);
#369=CIRCLE('',#401,9.75);
#370=CIRCLE('',#404,9.22499005706474);
#371=CIRCLE('',#405,3.08082689120175);
#372=CIRCLE('',#406,9.99999727917718);
#373=CIRCLE('',#408,9.99461881142626);
#374=CIRCLE('',#409,9.21302059612702);
#375=CIRCLE('',#411,2.92713643822769);
#376=CIRCLE('',#412,2.20228243924589);
#377=CIRCLE('',#414,2.37913049186358);
#378=AXIS2_PLACEMENT_3D('',#504,#416,#417);
#379=AXIS2_PLACEMENT_3D('',#505,#418,#419);
#380=AXIS2_PLACEMENT_3D('',#507,#420,#421);
#381=AXIS2_PLACEMENT_3D('',#509,#422,#423);
#382=AXIS2_PLACEMENT_3D('',#510,#424,#425);
#383=AXIS2_PLACEMENT_3D('',#512,#426,#427);
#384=AXIS2_PLACEMENT_3D('',#513,#428,#429);
#385=AXIS2_PLACEMENT_3D('',#515,#430,#431);
#386=AXIS2_PLACEMENT_3D('',#516,#432,#433);
#387=AXIS2_PLACEMENT_3D('',#518,#434,#435);
#388=AXIS2_PLACEMENT_3D('',#519,#436,#437);
#389=AXIS2_PLACEMENT_3D('',#521,#438,#439);
#390=AXIS2_PLACEMENT_3D('',#522,#440,#441);
#391=AXIS2_PLACEMENT_3D('',#524,#442,#443);
#392=AXIS2_PLACEMENT_3D('',#525,#444,#445);
#393=AXIS2_PLACEMENT_3D('',#527,#446,#447);
#394=AXIS2_PLACEMENT_3D('',#528,#448,#449);
#395=AXIS2_PLACEMENT_3D('',#530,#450,#451);
#396=AXIS2_PLACEMENT_3D('',#531,#452,#453);
#397=AXIS2_PLACEMENT_3D('',#533,#454,#455);
#398=AXIS2_PLACEMENT_3D('',#534,#456,#457);
#399=AXIS2_PLACEMENT_3D('',#535,#458,#459);
#400=AXIS2_PLACEMENT_3D('',#537,#460,#461);
#401=AXIS2_PLACEMENT_3D('',#538,#462,#463);
#402=AXIS2_PLACEMENT_3D('',#540,#464,#465);
#403=AXIS2_PLACEMENT_3D('',#541,#466,#467);
#404=AXIS2_PLACEMENT_3D('',#542,#468,#469);
#405=AXIS2_PLACEMENT_3D('',#544,#470,#471);
#406=AXIS2_PLACEMENT_3D('',#548,#474,#475);
#407=AXIS2_PLACEMENT_3D('',#550,#476,#477);
#408=AXIS2_PLACEMENT_3D('',#552,#479,#480);
#409=AXIS2_PLACEMENT_3D('',#556,#483,#484);
#410=AXIS2_PLACEMENT_3D('',#558,#485,#486);
#411=AXIS2_PLACEMENT_3D('',#560,#488,#489);
#412=AXIS2_PLACEMENT_3D('',#564,#492,#493);
#413=AXIS2_PLACEMENT_3D('',#566,#494,#495);
#414=AXIS2_PLACEMENT_3D('',#568,#497,#498);
#415=AXIS2_PLACEMENT_3D('',#572,#501,#502);
#416=DIRECTION('',(0.,0.,1.));
#417=DIRECTION('',(1.,0.,0.));
#418=DIRECTION('',(-1.,0.,0.));
#419=DIRECTION('',(0.,0.,1.));
#420=DIRECTION('',(-1.,0.,0.));
#421=DIRECTION('',(0.,0.,1.));
#422=DIRECTION('',(-1.,0.,0.));
#423=DIRECTION('',(1.49161790512476E-16,0.,1.));
#424=DIRECTION('',(-1.,0.,0.));
#425=DIRECTION('',(0.,0.,1.));
#426=DIRECTION('',(-1.,0.,0.));
#427=DIRECTION('',(0.,0.,1.));
#428=DIRECTION('',(-1.,0.,0.));
#429=DIRECTION('',(0.,0.,1.));
#430=DIRECTION('',(1.,0.,0.));
#431=DIRECTION('',(7.08833648461342E-17,0.,-1.));
#432=DIRECTION('',(-1.,0.,0.));
#433=DIRECTION('',(0.,0.,1.));
#434=DIRECTION('',(-1.,0.,0.));
#435=DIRECTION('',(0.,0.,1.));
#436=DIRECTION('',(-1.,0.,0.));
#437=DIRECTION('',(0.,0.,1.));
#438=DIRECTION('',(-1.,0.,0.));
#439=DIRECTION('',(0.,0.,1.));
#440=DIRECTION('',(-1.,0.,0.));
#441=DIRECTION('',(0.,0.,1.));
#442=DIRECTION('',(1.,0.,0.));
#443=DIRECTION('',(1.46448162820235E-16,0.,-1.));
#444=DIRECTION('',(-1.,0.,0.));
#445=DIRECTION('',(0.,0.,1.));
#446=DIRECTION('',(-1.,0.,0.));
#447=DIRECTION('',(0.,0.,1.));
#448=DIRECTION('',(-1.,0.,0.));
#449=DIRECTION('',(0.,0.,1.));
#450=DIRECTION('',(1.,0.,0.));
#451=DIRECTION('',(0.,0.,-1.));
#452=DIRECTION('',(-1.,0.,0.));
#453=DIRECTION('',(0.,0.,1.));
#454=DIRECTION('',(-1.,0.,0.));
#455=DIRECTION('',(6.86677703359344E-18,0.,1.));
#456=DIRECTION('',(1.,0.,0.));
#457=DIRECTION('',(0.,0.,-1.));
#458=DIRECTION('',(-1.,0.,0.));
#459=DIRECTION('',(0.,0.,1.));
#460=DIRECTION('',(-1.,0.,0.));
#461=DIRECTION('',(0.,0.,1.));
#462=DIRECTION('',(-1.,0.,0.));
#463=DIRECTION('',(0.,0.,1.));
#464=DIRECTION('',(-1.,0.,0.));
#465=DIRECTION('',(0.,0.,1.));
#466=DIRECTION('',(-1.,0.,0.));
#467=DIRECTION('',(0.,0.,1.));
#468=DIRECTION('',(1.,0.,0.));
#469=DIRECTION('',(0.,0.,-1.));
#470=DIRECTION('',(1.,0.,0.));
#471=DIRECTION('',(0.,0.,-1.));
#472=DIRECTION('',(-0.00696425429875265,-0.990311712251367,-0.138687460643811));
#473=DIRECTION('',(1.,0.,0.));
#474=DIRECTION('',(1.,0.,0.));
#475=DIRECTION('',(0.,0.,-1.));
#476=DIRECTION('',(0.0697564737441252,-0.138834082280942,0.987855825496815));
#477=DIRECTION('',(-0.710291586329266,-0.702232256642114,-0.0485357612609303));
#478=DIRECTION('',(1.,0.,0.));
#479=DIRECTION('',(1.,0.,0.));
#480=DIRECTION('',(0.,0.,-1.));
#481=DIRECTION('',(0.997539740327596,0.00279466902777563,-0.0700475288085007));
#482=DIRECTION('',(1.,0.,0.));
#483=DIRECTION('',(1.,0.,0.));
#484=DIRECTION('',(0.,0.,-1.));
#485=DIRECTION('',(0.0697564737441254,-0.138834082280943,0.987855825496815));
#486=DIRECTION('',(0.700442643448155,-0.69827999780069,-0.147597926512632));
#487=DIRECTION('',(1.,0.,0.));
#488=DIRECTION('',(1.,0.,0.));
#489=DIRECTION('',(0.,0.,-1.));
#490=DIRECTION('',(0.0069642542987525,0.990311712251367,0.138687460643811));
#491=DIRECTION('',(1.,0.,0.));
#492=DIRECTION('',(1.,0.,0.));
#493=DIRECTION('',(0.,0.,-1.));
#494=DIRECTION('',(0.0697564737441252,-0.138834082280942,0.987855825496815));
#495=DIRECTION('',(0.710291586329266,0.702232256642114,0.0485357612609303));
#496=DIRECTION('',(1.,0.,0.));
#497=DIRECTION('',(1.,0.,0.));
#498=DIRECTION('',(0.,0.,-1.));
#499=DIRECTION('',(-0.997539740327596,-0.00279466902777543,0.0700475288085007));
#500=DIRECTION('',(1.,0.,0.));
#501=DIRECTION('',(0.0697564737441254,-0.138834082280943,0.987855825496815));
#502=DIRECTION('',(-0.700442643448155,0.69827999780069,0.147597926512632));
#503=DIRECTION('',(1.,0.,0.));
#504=CARTESIAN_POINT('',(0.,0.,0.));
#505=CARTESIAN_POINT('',(144.582179545095,0.,0.));
#506=CARTESIAN_POINT('',(144.582179545095,0.,10.));
#507=CARTESIAN_POINT('',(146.,0.,0.));
#508=CARTESIAN_POINT('',(146.,0.,9.75));
#509=CARTESIAN_POINT('',(146.,0.,0.));
#510=CARTESIAN_POINT('',(50.,0.,0.));
#511=CARTESIAN_POINT('',(50.,0.,10.));
#512=CARTESIAN_POINT('',(0.,0.,0.));
#513=CARTESIAN_POINT('',(49.4542939940024,0.,0.));
#514=CARTESIAN_POINT('',(49.4542939940024,0.,9.68493649053891));
#515=CARTESIAN_POINT('',(50.,0.,0.));
#516=CARTESIAN_POINT('',(48.2042939940024,0.,0.));
#517=CARTESIAN_POINT('',(48.2042939940024,0.,9.35));
#518=CARTESIAN_POINT('',(48.2042939940024,0.,0.));
#519=CARTESIAN_POINT('',(6.,0.,0.));
#520=CARTESIAN_POINT('',(6.,0.,9.35));
#521=CARTESIAN_POINT('',(0.,0.,0.));
#522=CARTESIAN_POINT('',(2.06858766203056,0.,0.));
#523=CARTESIAN_POINT('',(2.06858766203056,0.,9.24705234486183));
#524=CARTESIAN_POINT('',(6.,0.,0.));
#525=CARTESIAN_POINT('',(0.9,0.,0.));
#526=CARTESIAN_POINT('',(0.9,0.,8.04746355489116));
#527=CARTESIAN_POINT('',(2.1,0.,0.));
#528=CARTESIAN_POINT('',(0.9,0.,0.));
#529=CARTESIAN_POINT('',(0.9,0.,4.75));
#530=CARTESIAN_POINT('',(0.9,4.75,0.));
#531=CARTESIAN_POINT('',(1.4,0.,0.));
#532=CARTESIAN_POINT('',(1.4,0.,3.88397459621555));
#533=CARTESIAN_POINT('',(0.9,0.,0.));
#534=CARTESIAN_POINT('',(1.4,3.88397459621555,0.));
#535=CARTESIAN_POINT('',(150.,0.,0.));
#536=CARTESIAN_POINT('',(150.,0.,8.75));
#537=CARTESIAN_POINT('',(150.,8.75,0.));
#538=CARTESIAN_POINT('',(149.,0.,0.));
#539=CARTESIAN_POINT('',(149.,0.,9.75));
#540=CARTESIAN_POINT('',(149.,0.,0.));
#541=CARTESIAN_POINT('',(0.,0.,0.));
#542=CARTESIAN_POINT('',(0.0054690410656779,0.,0.));
#543=CARTESIAN_POINT('',(0.0054690410656779,0.,-9.22499005706474));
#544=CARTESIAN_POINT('',(0.0498271380664182,0.,0.));
#545=CARTESIAN_POINT('',(0.0498271380664182,0.,-3.08082689120175));
#546=CARTESIAN_POINT('',(0.0498271380664178,-2.91665916219018,0.992266932414826));
#547=CARTESIAN_POINT('',(6.,0.,0.));
#548=CARTESIAN_POINT('',(0.783369700539918,0.,0.));
#549=CARTESIAN_POINT('',(0.783369700539918,0.,-9.99999727917718));
#550=CARTESIAN_POINT('',(0.818643991580054,-9.19268539961951,0.0559397156009742));
#551=CARTESIAN_POINT('',(6.,0.,0.));
#552=CARTESIAN_POINT('',(7.1370958376612,0.,0.));
#553=CARTESIAN_POINT('',(7.1370958376612,0.,-9.99461881142626));
#554=CARTESIAN_POINT('',(0.783369700539918,-9.99984598153088,-0.0550084467294064));
#555=CARTESIAN_POINT('',(6.,0.,0.));
#556=CARTESIAN_POINT('',(7.9259345792668,0.,0.));
#557=CARTESIAN_POINT('',(7.9259345792668,0.,-9.21302059612702));
#558=CARTESIAN_POINT('',(7.11317291001636,-9.17505088913172,-0.386063923878398));
#559=CARTESIAN_POINT('',(6.,0.,0.));
#560=CARTESIAN_POINT('',(7.97029267626753,0.,0.));
#561=CARTESIAN_POINT('',(7.97029267626753,0.,-2.92713643822769));
#562=CARTESIAN_POINT('',(7.92593457926679,-9.20215745045343,-0.44726587364246));
#563=CARTESIAN_POINT('',(6.,0.,0.));
#564=CARTESIAN_POINT('',(7.1923920167933,0.,0.));
#565=CARTESIAN_POINT('',(7.1923920167933,0.,-2.20228243924589));
#566=CARTESIAN_POINT('',(7.15711772575317,-2.92613121302412,0.489061343171389));
#567=CARTESIAN_POINT('',(6.,0.,0.));
#568=CARTESIAN_POINT('',(0.838665879672009,0.,0.));
#569=CARTESIAN_POINT('',(0.838665879672009,0.,-2.37913049186358));
#570=CARTESIAN_POINT('',(7.1923920167933,-2.11897063111273,0.60000950550177));
#571=CARTESIAN_POINT('',(6.,0.,0.));
#572=CARTESIAN_POINT('',(0.862588807316863,-2.9437657235119,0.931064982650764));
#573=CARTESIAN_POINT('',(6.,0.,0.));
#574=(
GEOMETRIC_REPRESENTATION_CONTEXT(3)
GLOBAL_UNCERTAINTY_ASSIGNED_CONTEXT((#575))
GLOBAL_UNIT_ASSIGNED_CONTEXT((#581,#577,#576))
REPRESENTATION_CONTEXT('AEM90-SPGT07T3-D20-W20-L150-Z03',
'TOP_LEVEL_ASSEMBLY_PART')
);
#575=UNCERTAINTY_MEASURE_WITH_UNIT(LENGTH_MEASURE(2.E-5),#581,
'DISTANCE_ACCURACY_VALUE','Maximum Tolerance applied to model');
#576=(
NAMED_UNIT(*)
SI_UNIT($,.STERADIAN.)
SOLID_ANGLE_UNIT()
);
#577=(
CONVERSION_BASED_UNIT('DEGREE',#579)
NAMED_UNIT(#578)
PLANE_ANGLE_UNIT()
);
#578=DIMENSIONAL_EXPONENTS(0.,0.,0.,0.,0.,0.,0.);
#579=PLANE_ANGLE_MEASURE_WITH_UNIT(PLANE_ANGLE_MEASURE(0.0174532925),#580);
#580=(
NAMED_UNIT(*)
PLANE_ANGLE_UNIT()
SI_UNIT($,.RADIAN.)
);
#581=(
LENGTH_UNIT()
NAMED_UNIT(*)
SI_UNIT(.MILLI.,.METRE.)
);
ENDSEC;
END-ISO-10303-21;
