ISO-10303-21;
HEADER;
/* Generated by software containing ST-Developer
 * from STEP Tools, Inc. (www.steptools.com) 
 */
/* OPTION: using custom schema-name function */

FILE_DESCRIPTION(
/* description */ (''),
/* implementation_level */ '2;1');

FILE_NAME(
/* name */ 'AEM90-SPGT07T3-D25-W25-L150-Z03.stp',
/* time_stamp */ '2023-10-26T22:22:17+03:00',
/* author */ (''),
/* organization */ (''),
/* preprocessor_version */ 'ST-DEVELOPER v19.4',
/* originating_system */ 'SIEMENS PLM Software NX2306.3001',
/* authorisation */ '');

FILE_SCHEMA (('AUTOMOTIVE_DESIGN { 1 0 10303 214 3 1 1 1 }'));
ENDSEC;

DATA;
#10=SHAPE_REPRESENTATION_RELATIONSHIP('None',
'relationship between AEM90-SPGT07T3-D25-W25-L150-Z03-None and AEM90-S
PGT07T3-D25-W25-L150-Z03-None',#22,#11);
#11=ADVANCED_BREP_SHAPE_REPRESENTATION(
'AEM90-SPGT07T3-D25-W25-L150-Z03-None',(#156,#157),#574);
#12=SHAPE_DEFINITION_REPRESENTATION(#13,#22);
#13=PRODUCT_DEFINITION_SHAPE('','',#14);
#14=PRODUCT_DEFINITION(' ','',#16,#15);
#15=PRODUCT_DEFINITION_CONTEXT('part definition',#21,'design');
#16=PRODUCT_DEFINITION_FORMATION_WITH_SPECIFIED_SOURCE(' ',' ',#18,
 .NOT_KNOWN.);
#17=PRODUCT_RELATED_PRODUCT_CATEGORY('part','',(#18));
#18=PRODUCT('AEM90-SPGT07T3-D25-W25-L150-Z03',
'AEM90-SPGT07T3-D25-W25-L150-Z03',' ',(#19));
#19=PRODUCT_CONTEXT(' ',#21,'mechanical');
#20=APPLICATION_PROTOCOL_DEFINITION('international standard',
'automotive_design',2010,#21);
#21=APPLICATION_CONTEXT(
'core data for automotive mechanical design processes');
#22=SHAPE_REPRESENTATION('AEM90-SPGT07T3-D25-W25-L150-Z03-None',(#378),
#574);
#23=DRAUGHTING_PRE_DEFINED_COLOUR('yellow');
#24=SURFACE_OF_REVOLUTION('',#40,#32);
#25=SURFACE_OF_REVOLUTION('',#369,#33);
#26=SURFACE_OF_REVOLUTION('',#41,#34);
#27=SURFACE_OF_REVOLUTION('',#372,#35);
#28=SURFACE_OF_REVOLUTION('',#42,#36);
#29=SURFACE_OF_REVOLUTION('',#375,#37);
#30=SURFACE_OF_REVOLUTION('',#43,#38);
#31=SURFACE_OF_REVOLUTION('',#377,#39);
#32=AXIS1_PLACEMENT('',#547,#473);
#33=AXIS1_PLACEMENT('',#551,#478);
#34=AXIS1_PLACEMENT('',#555,#482);
#35=AXIS1_PLACEMENT('',#559,#487);
#36=AXIS1_PLACEMENT('',#563,#491);
#37=AXIS1_PLACEMENT('',#567,#496);
#38=AXIS1_PLACEMENT('',#571,#500);
#39=AXIS1_PLACEMENT('',#573,#503);
#40=LINE('',#546,#44);
#41=LINE('',#554,#45);
#42=LINE('',#562,#46);
#43=LINE('',#570,#47);
#44=VECTOR('',#472,6.33999999999999);
#45=VECTOR('',#481,6.33999999999998);
#46=VECTOR('',#490,6.34000000000003);
#47=VECTOR('',#499,6.34);
#48=OVER_RIDING_STYLED_ITEM('',(#65),#171,#62);
#49=OVER_RIDING_STYLED_ITEM('',(#66),#172,#62);
#50=OVER_RIDING_STYLED_ITEM('',(#67),#173,#62);
#51=OVER_RIDING_STYLED_ITEM('',(#68),#174,#62);
#52=OVER_RIDING_STYLED_ITEM('',(#69),#175,#62);
#53=OVER_RIDING_STYLED_ITEM('',(#70),#176,#62);
#54=OVER_RIDING_STYLED_ITEM('',(#71),#177,#62);
#55=OVER_RIDING_STYLED_ITEM('',(#72),#178,#62);
#56=OVER_RIDING_STYLED_ITEM('',(#73),#179,#62);
#57=OVER_RIDING_STYLED_ITEM('',(#74),#180,#62);
#58=OVER_RIDING_STYLED_ITEM('',(#75),#181,#62);
#59=OVER_RIDING_STYLED_ITEM('',(#76),#182,#62);
#60=OVER_RIDING_STYLED_ITEM('',(#77),#183,#62);
#61=PRESENTATION_LAYER_ASSIGNMENT('1','Layer 1',(#156,#157));
#62=STYLED_ITEM('',(#64),#156);
#63=STYLED_ITEM('',(#78),#157);
#64=PRESENTATION_STYLE_ASSIGNMENT((#79));
#65=PRESENTATION_STYLE_ASSIGNMENT((#80));
#66=PRESENTATION_STYLE_ASSIGNMENT((#81));
#67=PRESENTATION_STYLE_ASSIGNMENT((#82));
#68=PRESENTATION_STYLE_ASSIGNMENT((#83));
#69=PRESENTATION_STYLE_ASSIGNMENT((#84));
#70=PRESENTATION_STYLE_ASSIGNMENT((#85));
#71=PRESENTATION_STYLE_ASSIGNMENT((#86));
#72=PRESENTATION_STYLE_ASSIGNMENT((#87));
#73=PRESENTATION_STYLE_ASSIGNMENT((#88));
#74=PRESENTATION_STYLE_ASSIGNMENT((#89));
#75=PRESENTATION_STYLE_ASSIGNMENT((#90));
#76=PRESENTATION_STYLE_ASSIGNMENT((#91));
#77=PRESENTATION_STYLE_ASSIGNMENT((#92));
#78=PRESENTATION_STYLE_ASSIGNMENT((#93));
#79=SURFACE_STYLE_USAGE(.BOTH.,#94);
#80=SURFACE_STYLE_USAGE(.BOTH.,#95);
#81=SURFACE_STYLE_USAGE(.BOTH.,#96);
#82=SURFACE_STYLE_USAGE(.BOTH.,#97);
#83=SURFACE_STYLE_USAGE(.BOTH.,#98);
#84=SURFACE_STYLE_USAGE(.BOTH.,#99);
#85=SURFACE_STYLE_USAGE(.BOTH.,#100);
#86=SURFACE_STYLE_USAGE(.BOTH.,#101);
#87=SURFACE_STYLE_USAGE(.BOTH.,#102);
#88=SURFACE_STYLE_USAGE(.BOTH.,#103);
#89=SURFACE_STYLE_USAGE(.BOTH.,#104);
#90=SURFACE_STYLE_USAGE(.BOTH.,#105);
#91=SURFACE_STYLE_USAGE(.BOTH.,#106);
#92=SURFACE_STYLE_USAGE(.BOTH.,#107);
#93=SURFACE_STYLE_USAGE(.BOTH.,#108);
#94=SURFACE_SIDE_STYLE('',(#109));
#95=SURFACE_SIDE_STYLE('',(#110));
#96=SURFACE_SIDE_STYLE('',(#111));
#97=SURFACE_SIDE_STYLE('',(#112));
#98=SURFACE_SIDE_STYLE('',(#113));
#99=SURFACE_SIDE_STYLE('',(#114));
#100=SURFACE_SIDE_STYLE('',(#115));
#101=SURFACE_SIDE_STYLE('',(#116));
#102=SURFACE_SIDE_STYLE('',(#117));
#103=SURFACE_SIDE_STYLE('',(#118));
#104=SURFACE_SIDE_STYLE('',(#119));
#105=SURFACE_SIDE_STYLE('',(#120));
#106=SURFACE_SIDE_STYLE('',(#121));
#107=SURFACE_SIDE_STYLE('',(#122));
#108=SURFACE_SIDE_STYLE('',(#123));
#109=SURFACE_STYLE_FILL_AREA(#124);
#110=SURFACE_STYLE_FILL_AREA(#125);
#111=SURFACE_STYLE_FILL_AREA(#126);
#112=SURFACE_STYLE_FILL_AREA(#127);
#113=SURFACE_STYLE_FILL_AREA(#128);
#114=SURFACE_STYLE_FILL_AREA(#129);
#115=SURFACE_STYLE_FILL_AREA(#130);
#116=SURFACE_STYLE_FILL_AREA(#131);
#117=SURFACE_STYLE_FILL_AREA(#132);
#118=SURFACE_STYLE_FILL_AREA(#133);
#119=SURFACE_STYLE_FILL_AREA(#134);
#120=SURFACE_STYLE_FILL_AREA(#135);
#121=SURFACE_STYLE_FILL_AREA(#136);
#122=SURFACE_STYLE_FILL_AREA(#137);
#123=SURFACE_STYLE_FILL_AREA(#138);
#124=FILL_AREA_STYLE('',(#139));
#125=FILL_AREA_STYLE('',(#140));
#126=FILL_AREA_STYLE('',(#141));
#127=FILL_AREA_STYLE('',(#142));
#128=FILL_AREA_STYLE('',(#143));
#129=FILL_AREA_STYLE('',(#144));
#130=FILL_AREA_STYLE('',(#145));
#131=FILL_AREA_STYLE('',(#146));
#132=FILL_AREA_STYLE('',(#147));
#133=FILL_AREA_STYLE('',(#148));
#134=FILL_AREA_STYLE('',(#149));
#135=FILL_AREA_STYLE('',(#150));
#136=FILL_AREA_STYLE('',(#151));
#137=FILL_AREA_STYLE('',(#152));
#138=FILL_AREA_STYLE('',(#153));
#139=FILL_AREA_STYLE_COLOUR('',#154);
#140=FILL_AREA_STYLE_COLOUR('',#155);
#141=FILL_AREA_STYLE_COLOUR('',#155);
#142=FILL_AREA_STYLE_COLOUR('',#155);
#143=FILL_AREA_STYLE_COLOUR('',#155);
#144=FILL_AREA_STYLE_COLOUR('',#155);
#145=FILL_AREA_STYLE_COLOUR('',#155);
#146=FILL_AREA_STYLE_COLOUR('',#155);
#147=FILL_AREA_STYLE_COLOUR('',#155);
#148=FILL_AREA_STYLE_COLOUR('',#155);
#149=FILL_AREA_STYLE_COLOUR('',#155);
#150=FILL_AREA_STYLE_COLOUR('',#155);
#151=FILL_AREA_STYLE_COLOUR('',#155);
#152=FILL_AREA_STYLE_COLOUR('',#155);
#153=FILL_AREA_STYLE_COLOUR('',#23);
#154=COLOUR_RGB('Medium Steel',0.611764705882353,0.658823529411765,0.670588235294118);
#155=COLOUR_RGB('silver gray',0.6,0.6,0.6);
#156=MANIFOLD_SOLID_BREP('',#158);
#157=MANIFOLD_SOLID_BREP('',#159);
#158=CLOSED_SHELL('',(#171,#172,#173,#174,#175,#176,#177,#178,#179,#180,
#181,#182,#183));
#159=CLOSED_SHELL('',(#184,#185,#186,#187,#188,#189,#190,#191));
#160=FACE_OUTER_BOUND('',#252,.T.);
#161=FACE_OUTER_BOUND('',#253,.T.);
#162=PLANE('',#395);
#163=PLANE('',#398);
#164=PLANE('',#400);
#165=TOROIDAL_SURFACE('',#387,14.25,2.5);
#166=TOROIDAL_SURFACE('',#393,10.4474635548912,1.2);
#167=TOROIDAL_SURFACE('',#402,11.25,1.);
#168=CYLINDRICAL_SURFACE('',#383,12.5);
#169=CYLINDRICAL_SURFACE('',#389,11.75);
#170=CYLINDRICAL_SURFACE('',#403,12.25);
#171=ADVANCED_FACE('',(#196,#197),#192,.T.);
#172=ADVANCED_FACE('',(#198,#199),#168,.T.);
#173=ADVANCED_FACE('',(#200,#201),#193,.T.);
#174=ADVANCED_FACE('',(#202,#203),#165,.F.);
#175=ADVANCED_FACE('',(#204,#205),#169,.T.);
#176=ADVANCED_FACE('',(#206,#207),#194,.T.);
#177=ADVANCED_FACE('',(#208,#209),#166,.T.);
#178=ADVANCED_FACE('',(#210,#211),#162,.F.);
#179=ADVANCED_FACE('',(#212,#213),#195,.F.);
#180=ADVANCED_FACE('',(#160),#163,.F.);
#181=ADVANCED_FACE('',(#161),#164,.F.);
#182=ADVANCED_FACE('',(#214,#215),#167,.T.);
#183=ADVANCED_FACE('',(#216,#217),#170,.T.);
#184=ADVANCED_FACE('',(#218,#219),#24,.T.);
#185=ADVANCED_FACE('',(#220,#221),#25,.T.);
#186=ADVANCED_FACE('',(#222,#223),#26,.T.);
#187=ADVANCED_FACE('',(#224,#225),#27,.T.);
#188=ADVANCED_FACE('',(#226,#227),#28,.T.);
#189=ADVANCED_FACE('',(#228,#229),#29,.T.);
#190=ADVANCED_FACE('',(#230,#231),#30,.T.);
#191=ADVANCED_FACE('',(#232,#233),#31,.T.);
#192=CONICAL_SURFACE('',#381,12.25,9.99999999999958);
#193=CONICAL_SURFACE('',#385,12.5,30.);
#194=CONICAL_SURFACE('',#391,11.75,1.49999999999957);
#195=CONICAL_SURFACE('',#397,7.,60.0000000000001);
#196=FACE_BOUND('',#234,.T.);
#197=FACE_BOUND('',#235,.T.);
#198=FACE_BOUND('',#236,.T.);
#199=FACE_BOUND('',#237,.T.);
#200=FACE_BOUND('',#238,.T.);
#201=FACE_BOUND('',#239,.T.);
#202=FACE_BOUND('',#240,.T.);
#203=FACE_BOUND('',#241,.T.);
#204=FACE_BOUND('',#242,.T.);
#205=FACE_BOUND('',#243,.T.);
#206=FACE_BOUND('',#244,.T.);
#207=FACE_BOUND('',#245,.T.);
#208=FACE_BOUND('',#246,.T.);
#209=FACE_BOUND('',#247,.T.);
#210=FACE_BOUND('',#248,.T.);
#211=FACE_BOUND('',#249,.T.);
#212=FACE_BOUND('',#250,.T.);
#213=FACE_BOUND('',#251,.T.);
#214=FACE_BOUND('',#254,.T.);
#215=FACE_BOUND('',#255,.T.);
#216=FACE_BOUND('',#256,.T.);
#217=FACE_BOUND('',#257,.T.);
#218=FACE_BOUND('',#258,.T.);
#219=FACE_BOUND('',#259,.T.);
#220=FACE_BOUND('',#260,.T.);
#221=FACE_BOUND('',#261,.T.);
#222=FACE_BOUND('',#262,.T.);
#223=FACE_BOUND('',#263,.T.);
#224=FACE_BOUND('',#264,.T.);
#225=FACE_BOUND('',#265,.T.);
#226=FACE_BOUND('',#266,.T.);
#227=FACE_BOUND('',#267,.T.);
#228=FACE_BOUND('',#268,.T.);
#229=FACE_BOUND('',#269,.T.);
#230=FACE_BOUND('',#270,.T.);
#231=FACE_BOUND('',#271,.T.);
#232=FACE_BOUND('',#272,.T.);
#233=FACE_BOUND('',#273,.T.);
#234=EDGE_LOOP('',(#274));
#235=EDGE_LOOP('',(#275));
#236=EDGE_LOOP('',(#276));
#237=EDGE_LOOP('',(#277));
#238=EDGE_LOOP('',(#278));
#239=EDGE_LOOP('',(#279));
#240=EDGE_LOOP('',(#280));
#241=EDGE_LOOP('',(#281));
#242=EDGE_LOOP('',(#282));
#243=EDGE_LOOP('',(#283));
#244=EDGE_LOOP('',(#284));
#245=EDGE_LOOP('',(#285));
#246=EDGE_LOOP('',(#286));
#247=EDGE_LOOP('',(#287));
#248=EDGE_LOOP('',(#288));
#249=EDGE_LOOP('',(#289));
#250=EDGE_LOOP('',(#290));
#251=EDGE_LOOP('',(#291));
#252=EDGE_LOOP('',(#292));
#253=EDGE_LOOP('',(#293));
#254=EDGE_LOOP('',(#294));
#255=EDGE_LOOP('',(#295));
#256=EDGE_LOOP('',(#296));
#257=EDGE_LOOP('',(#297));
#258=EDGE_LOOP('',(#298));
#259=EDGE_LOOP('',(#299));
#260=EDGE_LOOP('',(#300));
#261=EDGE_LOOP('',(#301));
#262=EDGE_LOOP('',(#302));
#263=EDGE_LOOP('',(#303));
#264=EDGE_LOOP('',(#304));
#265=EDGE_LOOP('',(#305));
#266=EDGE_LOOP('',(#306));
#267=EDGE_LOOP('',(#307));
#268=EDGE_LOOP('',(#308));
#269=EDGE_LOOP('',(#309));
#270=EDGE_LOOP('',(#310));
#271=EDGE_LOOP('',(#311));
#272=EDGE_LOOP('',(#312));
#273=EDGE_LOOP('',(#313));
#274=ORIENTED_EDGE('',*,*,#334,.F.);
#275=ORIENTED_EDGE('',*,*,#335,.T.);
#276=ORIENTED_EDGE('',*,*,#336,.F.);
#277=ORIENTED_EDGE('',*,*,#334,.T.);
#278=ORIENTED_EDGE('',*,*,#337,.F.);
#279=ORIENTED_EDGE('',*,*,#336,.T.);
#280=ORIENTED_EDGE('',*,*,#338,.F.);
#281=ORIENTED_EDGE('',*,*,#337,.T.);
#282=ORIENTED_EDGE('',*,*,#339,.F.);
#283=ORIENTED_EDGE('',*,*,#338,.T.);
#284=ORIENTED_EDGE('',*,*,#340,.F.);
#285=ORIENTED_EDGE('',*,*,#339,.T.);
#286=ORIENTED_EDGE('',*,*,#341,.F.);
#287=ORIENTED_EDGE('',*,*,#340,.T.);
#288=ORIENTED_EDGE('',*,*,#342,.F.);
#289=ORIENTED_EDGE('',*,*,#341,.T.);
#290=ORIENTED_EDGE('',*,*,#343,.F.);
#291=ORIENTED_EDGE('',*,*,#342,.T.);
#292=ORIENTED_EDGE('',*,*,#343,.T.);
#293=ORIENTED_EDGE('',*,*,#344,.F.);
#294=ORIENTED_EDGE('',*,*,#345,.F.);
#295=ORIENTED_EDGE('',*,*,#344,.T.);
#296=ORIENTED_EDGE('',*,*,#335,.F.);
#297=ORIENTED_EDGE('',*,*,#345,.T.);
#298=ORIENTED_EDGE('',*,*,#346,.F.);
#299=ORIENTED_EDGE('',*,*,#347,.T.);
#300=ORIENTED_EDGE('',*,*,#348,.F.);
#301=ORIENTED_EDGE('',*,*,#346,.T.);
#302=ORIENTED_EDGE('',*,*,#349,.F.);
#303=ORIENTED_EDGE('',*,*,#348,.T.);
#304=ORIENTED_EDGE('',*,*,#350,.F.);
#305=ORIENTED_EDGE('',*,*,#349,.T.);
#306=ORIENTED_EDGE('',*,*,#351,.F.);
#307=ORIENTED_EDGE('',*,*,#350,.T.);
#308=ORIENTED_EDGE('',*,*,#352,.F.);
#309=ORIENTED_EDGE('',*,*,#351,.T.);
#310=ORIENTED_EDGE('',*,*,#353,.F.);
#311=ORIENTED_EDGE('',*,*,#352,.T.);
#312=ORIENTED_EDGE('',*,*,#347,.F.);
#313=ORIENTED_EDGE('',*,*,#353,.T.);
#314=VERTEX_POINT('',#506);
#315=VERTEX_POINT('',#508);
#316=VERTEX_POINT('',#511);
#317=VERTEX_POINT('',#514);
#318=VERTEX_POINT('',#517);
#319=VERTEX_POINT('',#520);
#320=VERTEX_POINT('',#523);
#321=VERTEX_POINT('',#526);
#322=VERTEX_POINT('',#529);
#323=VERTEX_POINT('',#532);
#324=VERTEX_POINT('',#536);
#325=VERTEX_POINT('',#539);
#326=VERTEX_POINT('',#543);
#327=VERTEX_POINT('',#545);
#328=VERTEX_POINT('',#549);
#329=VERTEX_POINT('',#553);
#330=VERTEX_POINT('',#557);
#331=VERTEX_POINT('',#561);
#332=VERTEX_POINT('',#565);
#333=VERTEX_POINT('',#569);
#334=EDGE_CURVE('',#314,#314,#354,.T.);
#335=EDGE_CURVE('',#315,#315,#355,.T.);
#336=EDGE_CURVE('',#316,#316,#356,.T.);
#337=EDGE_CURVE('',#317,#317,#357,.T.);
#338=EDGE_CURVE('',#318,#318,#358,.T.);
#339=EDGE_CURVE('',#319,#319,#359,.T.);
#340=EDGE_CURVE('',#320,#320,#360,.T.);
#341=EDGE_CURVE('',#321,#321,#361,.T.);
#342=EDGE_CURVE('',#322,#322,#362,.T.);
#343=EDGE_CURVE('',#323,#323,#363,.T.);
#344=EDGE_CURVE('',#324,#324,#364,.T.);
#345=EDGE_CURVE('',#325,#325,#365,.T.);
#346=EDGE_CURVE('',#326,#326,#366,.T.);
#347=EDGE_CURVE('',#327,#327,#367,.T.);
#348=EDGE_CURVE('',#328,#328,#368,.T.);
#349=EDGE_CURVE('',#329,#329,#370,.T.);
#350=EDGE_CURVE('',#330,#330,#371,.T.);
#351=EDGE_CURVE('',#331,#331,#373,.T.);
#352=EDGE_CURVE('',#332,#332,#374,.T.);
#353=EDGE_CURVE('',#333,#333,#376,.T.);
#354=CIRCLE('',#379,12.5);
#355=CIRCLE('',#380,12.25);
#356=CIRCLE('',#382,12.5);
#357=CIRCLE('',#384,12.0849364905389);
#358=CIRCLE('',#386,11.75);
#359=CIRCLE('',#388,11.75);
#360=CIRCLE('',#390,11.6470523448618);
#361=CIRCLE('',#392,10.4474635548912);
#362=CIRCLE('',#394,7.);
#363=CIRCLE('',#396,6.13397459621555);
#364=CIRCLE('',#399,11.25);
#365=CIRCLE('',#401,12.25);
#366=CIRCLE('',#404,11.7102804636534);
#367=CIRCLE('',#405,5.50288638391056);
#368=CIRCLE('',#406,12.4999945135641);
#369=CIRCLE('',#407,0.8);
#370=CIRCLE('',#408,12.4850193534639);
#371=CIRCLE('',#409,11.6874247369048);
#372=CIRCLE('',#410,0.8);
#373=CIRCLE('',#411,5.405775304749);
#374=CIRCLE('',#412,4.63368106532761);
#375=CIRCLE('',#413,0.8);
#376=CIRCLE('',#414,4.72966543744115);
#377=CIRCLE('',#415,0.8);
#378=AXIS2_PLACEMENT_3D('',#504,#416,#417);
#379=AXIS2_PLACEMENT_3D('',#505,#418,#419);
#380=AXIS2_PLACEMENT_3D('',#507,#420,#421);
#381=AXIS2_PLACEMENT_3D('',#509,#422,#423);
#382=AXIS2_PLACEMENT_3D('',#510,#424,#425);
#383=AXIS2_PLACEMENT_3D('',#512,#426,#427);
#384=AXIS2_PLACEMENT_3D('',#513,#428,#429);
#385=AXIS2_PLACEMENT_3D('',#515,#430,#431);
#386=AXIS2_PLACEMENT_3D('',#516,#432,#433);
#387=AXIS2_PLACEMENT_3D('',#518,#434,#435);
#388=AXIS2_PLACEMENT_3D('',#519,#436,#437);
#389=AXIS2_PLACEMENT_3D('',#521,#438,#439);
#390=AXIS2_PLACEMENT_3D('',#522,#440,#441);
#391=AXIS2_PLACEMENT_3D('',#524,#442,#443);
#392=AXIS2_PLACEMENT_3D('',#525,#444,#445);
#393=AXIS2_PLACEMENT_3D('',#527,#446,#447);
#394=AXIS2_PLACEMENT_3D('',#528,#448,#449);
#395=AXIS2_PLACEMENT_3D('',#530,#450,#451);
#396=AXIS2_PLACEMENT_3D('',#531,#452,#453);
#397=AXIS2_PLACEMENT_3D('',#533,#454,#455);
#398=AXIS2_PLACEMENT_3D('',#534,#456,#457);
#399=AXIS2_PLACEMENT_3D('',#535,#458,#459);
#400=AXIS2_PLACEMENT_3D('',#537,#460,#461);
#401=AXIS2_PLACEMENT_3D('',#538,#462,#463);
#402=AXIS2_PLACEMENT_3D('',#540,#464,#465);
#403=AXIS2_PLACEMENT_3D('',#541,#466,#467);
#404=AXIS2_PLACEMENT_3D('',#542,#468,#469);
#405=AXIS2_PLACEMENT_3D('',#544,#470,#471);
#406=AXIS2_PLACEMENT_3D('',#548,#474,#475);
#407=AXIS2_PLACEMENT_3D('',#550,#476,#477);
#408=AXIS2_PLACEMENT_3D('',#552,#479,#480);
#409=AXIS2_PLACEMENT_3D('',#556,#483,#484);
#410=AXIS2_PLACEMENT_3D('',#558,#485,#486);
#411=AXIS2_PLACEMENT_3D('',#560,#488,#489);
#412=AXIS2_PLACEMENT_3D('',#564,#492,#493);
#413=AXIS2_PLACEMENT_3D('',#566,#494,#495);
#414=AXIS2_PLACEMENT_3D('',#568,#497,#498);
#415=AXIS2_PLACEMENT_3D('',#572,#501,#502);
#416=DIRECTION('',(0.,0.,1.));
#417=DIRECTION('',(1.,0.,0.));
#418=DIRECTION('',(-1.,0.,0.));
#419=DIRECTION('',(0.,0.,1.));
#420=DIRECTION('',(-1.,0.,0.));
#421=DIRECTION('',(0.,0.,1.));
#422=DIRECTION('',(-1.,0.,0.));
#423=DIRECTION('',(1.47184324997437E-16,0.,1.));
#424=DIRECTION('',(-1.,0.,0.));
#425=DIRECTION('',(0.,0.,1.));
#426=DIRECTION('',(-1.,0.,0.));
#427=DIRECTION('',(0.,0.,1.));
#428=DIRECTION('',(-1.,0.,0.));
#429=DIRECTION('',(0.,0.,1.));
#430=DIRECTION('',(1.,0.,0.));
#431=DIRECTION('',(7.05829353619554E-17,0.,-1.));
#432=DIRECTION('',(-1.,0.,0.));
#433=DIRECTION('',(0.,0.,1.));
#434=DIRECTION('',(-1.,0.,0.));
#435=DIRECTION('',(0.,0.,1.));
#436=DIRECTION('',(-1.,0.,0.));
#437=DIRECTION('',(0.,0.,1.));
#438=DIRECTION('',(-1.,0.,0.));
#439=DIRECTION('',(0.,0.,1.));
#440=DIRECTION('',(-1.,0.,0.));
#441=DIRECTION('',(0.,0.,1.));
#442=DIRECTION('',(1.,0.,0.));
#443=DIRECTION('',(1.37183181867354E-16,0.,-1.));
#444=DIRECTION('',(-1.,0.,0.));
#445=DIRECTION('',(0.,0.,1.));
#446=DIRECTION('',(-1.,0.,0.));
#447=DIRECTION('',(0.,0.,1.));
#448=DIRECTION('',(-1.,0.,0.));
#449=DIRECTION('',(0.,0.,1.));
#450=DIRECTION('',(1.,0.,0.));
#451=DIRECTION('',(0.,0.,-1.));
#452=DIRECTION('',(-1.,0.,0.));
#453=DIRECTION('',(0.,0.,1.));
#454=DIRECTION('',(-1.,0.,0.));
#455=DIRECTION('',(6.85789273403282E-18,0.,1.));
#456=DIRECTION('',(1.,0.,0.));
#457=DIRECTION('',(0.,0.,-1.));
#458=DIRECTION('',(-1.,0.,0.));
#459=DIRECTION('',(0.,0.,1.));
#460=DIRECTION('',(-1.,0.,0.));
#461=DIRECTION('',(0.,0.,1.));
#462=DIRECTION('',(-1.,0.,0.));
#463=DIRECTION('',(0.,0.,1.));
#464=DIRECTION('',(-1.,0.,0.));
#465=DIRECTION('',(0.,0.,1.));
#466=DIRECTION('',(-1.,0.,0.));
#467=DIRECTION('',(0.,0.,1.));
#468=DIRECTION('',(1.,0.,0.));
#469=DIRECTION('',(0.,0.,-1.));
#470=DIRECTION('',(1.,0.,0.));
#471=DIRECTION('',(0.,0.,-1.));
#472=DIRECTION('',(-0.00522320928668488,-0.991478944589215,-0.130162285324911));
#473=DIRECTION('',(1.,0.,0.));
#474=DIRECTION('',(1.,0.,0.));
#475=DIRECTION('',(0.,0.,-1.));
#476=DIRECTION('',(0.0697564737441252,-0.130208236976027,0.989029751521348));
#477=DIRECTION('',(-0.997550375898647,-0.0039137526557878,0.0698421798386667));
#478=DIRECTION('',(1.,0.,0.));
#479=DIRECTION('',(1.,0.,0.));
#480=DIRECTION('',(0.,0.,-1.));
#481=DIRECTION('',(0.997550375898647,0.00391375265578873,-0.0698421798386667));
#482=DIRECTION('',(1.,0.,0.));
#483=DIRECTION('',(1.,0.,0.));
#484=DIRECTION('',(0.,0.,-1.));
#485=DIRECTION('',(0.0697564737441254,-0.130208236976027,0.989029751521348));
#486=DIRECTION('',(0.997550375898647,0.00391375265578904,-0.0698421798386667));
#487=DIRECTION('',(1.,0.,0.));
#488=DIRECTION('',(1.,0.,0.));
#489=DIRECTION('',(0.,0.,-1.));
#490=DIRECTION('',(0.00522320928668478,0.991478944589215,0.130162285324911));
#491=DIRECTION('',(1.,0.,0.));
#492=DIRECTION('',(1.,0.,0.));
#493=DIRECTION('',(0.,0.,-1.));
#494=DIRECTION('',(0.0697564737441254,-0.130208236976027,0.989029751521348));
#495=DIRECTION('',(0.997550375898647,0.00391375265578904,-0.0698421798386667));
#496=DIRECTION('',(1.,0.,0.));
#497=DIRECTION('',(1.,0.,0.));
#498=DIRECTION('',(0.,0.,-1.));
#499=DIRECTION('',(-0.997550375898647,-0.00391375265578859,0.0698421798386667));
#500=DIRECTION('',(1.,0.,0.));
#501=DIRECTION('',(0.0697564737441254,-0.130208236976027,0.989029751521348));
#502=DIRECTION('',(0.997550375898647,0.00391375265578904,-0.0698421798386667));
#503=DIRECTION('',(1.,0.,0.));
#504=CARTESIAN_POINT('',(0.,0.,0.));
#505=CARTESIAN_POINT('',(144.582179545095,0.,0.));
#506=CARTESIAN_POINT('',(144.582179545095,0.,12.5));
#507=CARTESIAN_POINT('',(146.,0.,0.));
#508=CARTESIAN_POINT('',(146.,0.,12.25));
#509=CARTESIAN_POINT('',(146.,0.,0.));
#510=CARTESIAN_POINT('',(50.,0.,0.));
#511=CARTESIAN_POINT('',(50.,0.,12.5));
#512=CARTESIAN_POINT('',(0.,0.,0.));
#513=CARTESIAN_POINT('',(49.2810889132455,0.,0.));
#514=CARTESIAN_POINT('',(49.2810889132455,0.,12.0849364905389));
#515=CARTESIAN_POINT('',(50.,0.,0.));
#516=CARTESIAN_POINT('',(48.0310889132455,0.,0.));
#517=CARTESIAN_POINT('',(48.0310889132455,0.,11.75));
#518=CARTESIAN_POINT('',(48.0310889132455,0.,0.));
#519=CARTESIAN_POINT('',(6.,0.,0.));
#520=CARTESIAN_POINT('',(6.,0.,11.75));
#521=CARTESIAN_POINT('',(0.,0.,0.));
#522=CARTESIAN_POINT('',(2.06858766203056,0.,0.));
#523=CARTESIAN_POINT('',(2.06858766203056,0.,11.6470523448618));
#524=CARTESIAN_POINT('',(6.,0.,0.));
#525=CARTESIAN_POINT('',(0.9,0.,0.));
#526=CARTESIAN_POINT('',(0.9,0.,10.4474635548912));
#527=CARTESIAN_POINT('',(2.1,0.,0.));
#528=CARTESIAN_POINT('',(0.9,0.,0.));
#529=CARTESIAN_POINT('',(0.9,0.,7.));
#530=CARTESIAN_POINT('',(0.9,7.,0.));
#531=CARTESIAN_POINT('',(1.4,0.,0.));
#532=CARTESIAN_POINT('',(1.4,0.,6.13397459621555));
#533=CARTESIAN_POINT('',(0.9,0.,0.));
#534=CARTESIAN_POINT('',(1.4,6.13397459621555,0.));
#535=CARTESIAN_POINT('',(150.,0.,0.));
#536=CARTESIAN_POINT('',(150.,0.,11.25));
#537=CARTESIAN_POINT('',(150.,11.25,0.));
#538=CARTESIAN_POINT('',(149.,0.,0.));
#539=CARTESIAN_POINT('',(149.,0.,12.25));
#540=CARTESIAN_POINT('',(149.,0.,0.));
#541=CARTESIAN_POINT('',(0.,0.,0.));
#542=CARTESIAN_POINT('',(0.00417856742934795,0.,0.));
#543=CARTESIAN_POINT('',(0.00417856742934795,0.,-11.7102804636534));
#544=CARTESIAN_POINT('',(0.0372937143069303,0.,0.));
#545=CARTESIAN_POINT('',(0.0372937143069303,0.,-5.50288638391056));
#546=CARTESIAN_POINT('',(0.03729371430693,-5.42384097563301,0.929358717219862));
#547=CARTESIAN_POINT('',(6.,0.,0.));
#548=CARTESIAN_POINT('',(0.798040300718927,0.,0.));
#549=CARTESIAN_POINT('',(0.798040300718927,0.,-12.4999945135641));
#550=CARTESIAN_POINT('',(0.802218868148271,-11.706686482204,0.0482560843889962));
#551=CARTESIAN_POINT('',(6.,0.,0.));
#552=CARTESIAN_POINT('',(7.12250968391634,0.,0.));
#553=CARTESIAN_POINT('',(7.12250968391634,0.,-12.4850193534639));
#554=CARTESIAN_POINT('',(0.798040300718927,-12.4998696378754,-0.055873743870934));
#555=CARTESIAN_POINT('',(6.,0.,0.));
#556=CARTESIAN_POINT('',(7.92472855206462,0.,0.));
#557=CARTESIAN_POINT('',(7.92472855206462,0.,-11.6874247369048));
#558=CARTESIAN_POINT('',(7.1266882513457,-11.6818732903663,-0.394543335788151));
#559=CARTESIAN_POINT('',(6.,0.,0.));
#560=CARTESIAN_POINT('',(7.95784369894219,0.,0.));
#561=CARTESIAN_POINT('',(7.95784369894219,0.,-5.405775304749));
#562=CARTESIAN_POINT('',(7.92472855206461,-11.6787422882417,-0.45041707965909));
#563=CARTESIAN_POINT('',(6.,0.,0.));
#564=CARTESIAN_POINT('',(7.16398196565263,0.,0.));
#565=CARTESIAN_POINT('',(7.16398196565263,0.,-4.63368106532761));
#566=CARTESIAN_POINT('',(7.15980339822328,-5.39589678167068,0.430685553171783));
#567=CARTESIAN_POINT('',(6.,0.,0.));
#568=CARTESIAN_POINT('',(0.839512582455205,0.,0.));
#569=CARTESIAN_POINT('',(0.839512582455205,0.,-4.72966543744115));
#570=CARTESIAN_POINT('',(7.16398196565263,-4.6027136259993,0.534815381431711));
#571=CARTESIAN_POINT('',(6.,0.,0.));
#572=CARTESIAN_POINT('',(0.83533401502585,-5.42070997350838,0.873484973348931));
#573=CARTESIAN_POINT('',(6.,0.,0.));
#574=(
GEOMETRIC_REPRESENTATION_CONTEXT(3)
GLOBAL_UNCERTAINTY_ASSIGNED_CONTEXT((#575))
GLOBAL_UNIT_ASSIGNED_CONTEXT((#581,#577,#576))
REPRESENTATION_CONTEXT('AEM90-SPGT07T3-D25-W25-L150-Z03',
'TOP_LEVEL_ASSEMBLY_PART')
);
#575=UNCERTAINTY_MEASURE_WITH_UNIT(LENGTH_MEASURE(2.E-5),#581,
'DISTANCE_ACCURACY_VALUE','Maximum Tolerance applied to model');
#576=(
NAMED_UNIT(*)
SI_UNIT($,.STERADIAN.)
SOLID_ANGLE_UNIT()
);
#577=(
CONVERSION_BASED_UNIT('DEGREE',#579)
NAMED_UNIT(#578)
PLANE_ANGLE_UNIT()
);
#578=DIMENSIONAL_EXPONENTS(0.,0.,0.,0.,0.,0.,0.);
#579=PLANE_ANGLE_MEASURE_WITH_UNIT(PLANE_ANGLE_MEASURE(0.0174532925),#580);
#580=(
NAMED_UNIT(*)
PLANE_ANGLE_UNIT()
SI_UNIT($,.RADIAN.)
);
#581=(
LENGTH_UNIT()
NAMED_UNIT(*)
SI_UNIT(.MILLI.,.METRE.)
);
ENDSEC;
END-ISO-10303-21;
