ISO-10303-21;
HEADER;
/* Generated by software containing ST-Developer
 * from STEP Tools, Inc. (www.steptools.com) 
 */
/* OPTION: using custom schema-name function */

FILE_DESCRIPTION(
/* description */ (''),
/* implementation_level */ '2;1');

FILE_NAME(
/* name */ 'AEM90-SPGT0904-D30-W32-L150-Z03.stp',
/* time_stamp */ '2023-10-26T23:22:52+03:00',
/* author */ (''),
/* organization */ (''),
/* preprocessor_version */ 'ST-DEVELOPER v19.4',
/* originating_system */ 'SIEMENS PLM Software NX2306.3001',
/* authorisation */ '');

FILE_SCHEMA (('AUTOMOTIVE_DESIGN { 1 0 10303 214 3 1 1 1 }'));
ENDSEC;

DATA;
#10=SHAPE_REPRESENTATION_RELATIONSHIP('None',
'relationship between AEM90-SPGT0904-D30-W32-L150-Z03-None and AEM90-S
PGT0904-D30-W32-L150-Z03-None',#22,#11);
#11=ADVANCED_BREP_SHAPE_REPRESENTATION(
'AEM90-SPGT0904-D30-W32-L150-Z03-None',(#170,#171),#628);
#12=SHAPE_DEFINITION_REPRESENTATION(#13,#22);
#13=PRODUCT_DEFINITION_SHAPE('','',#14);
#14=PRODUCT_DEFINITION(' ','',#16,#15);
#15=PRODUCT_DEFINITION_CONTEXT('part definition',#21,'design');
#16=PRODUCT_DEFINITION_FORMATION_WITH_SPECIFIED_SOURCE(' ',' ',#18,
 .NOT_KNOWN.);
#17=PRODUCT_RELATED_PRODUCT_CATEGORY('part','',(#18));
#18=PRODUCT('AEM90-SPGT0904-D30-W32-L150-Z03',
'AEM90-SPGT0904-D30-W32-L150-Z03',' ',(#19));
#19=PRODUCT_CONTEXT(' ',#21,'mechanical');
#20=APPLICATION_PROTOCOL_DEFINITION('international standard',
'automotive_design',2010,#21);
#21=APPLICATION_CONTEXT(
'core data for automotive mechanical design processes');
#22=SHAPE_REPRESENTATION('AEM90-SPGT0904-D30-W32-L150-Z03-None',(#414),
#628);
#23=DRAUGHTING_PRE_DEFINED_COLOUR('yellow');
#24=SURFACE_OF_REVOLUTION('',#40,#32);
#25=SURFACE_OF_REVOLUTION('',#405,#33);
#26=SURFACE_OF_REVOLUTION('',#41,#34);
#27=SURFACE_OF_REVOLUTION('',#408,#35);
#28=SURFACE_OF_REVOLUTION('',#42,#36);
#29=SURFACE_OF_REVOLUTION('',#411,#37);
#30=SURFACE_OF_REVOLUTION('',#43,#38);
#31=SURFACE_OF_REVOLUTION('',#413,#39);
#32=AXIS1_PLACEMENT('',#601,#521);
#33=AXIS1_PLACEMENT('',#605,#526);
#34=AXIS1_PLACEMENT('',#609,#530);
#35=AXIS1_PLACEMENT('',#613,#535);
#36=AXIS1_PLACEMENT('',#617,#539);
#37=AXIS1_PLACEMENT('',#621,#544);
#38=AXIS1_PLACEMENT('',#625,#548);
#39=AXIS1_PLACEMENT('',#627,#551);
#40=LINE('',#600,#44);
#41=LINE('',#608,#45);
#42=LINE('',#616,#46);
#43=LINE('',#624,#47);
#44=VECTOR('',#520,8.19999999999998);
#45=VECTOR('',#529,8.19999999999999);
#46=VECTOR('',#538,8.20000000000002);
#47=VECTOR('',#547,8.19999999999999);
#48=OVER_RIDING_STYLED_ITEM('',(#67),#186,#64);
#49=OVER_RIDING_STYLED_ITEM('',(#68),#187,#64);
#50=OVER_RIDING_STYLED_ITEM('',(#69),#188,#64);
#51=OVER_RIDING_STYLED_ITEM('',(#70),#189,#64);
#52=OVER_RIDING_STYLED_ITEM('',(#71),#190,#64);
#53=OVER_RIDING_STYLED_ITEM('',(#72),#191,#64);
#54=OVER_RIDING_STYLED_ITEM('',(#73),#192,#64);
#55=OVER_RIDING_STYLED_ITEM('',(#74),#193,#64);
#56=OVER_RIDING_STYLED_ITEM('',(#75),#194,#64);
#57=OVER_RIDING_STYLED_ITEM('',(#76),#195,#64);
#58=OVER_RIDING_STYLED_ITEM('',(#77),#196,#64);
#59=OVER_RIDING_STYLED_ITEM('',(#78),#197,#64);
#60=OVER_RIDING_STYLED_ITEM('',(#79),#198,#64);
#61=OVER_RIDING_STYLED_ITEM('',(#80),#199,#64);
#62=OVER_RIDING_STYLED_ITEM('',(#81),#200,#64);
#63=PRESENTATION_LAYER_ASSIGNMENT('1','Layer 1',(#170,#171));
#64=STYLED_ITEM('',(#66),#170);
#65=STYLED_ITEM('',(#82),#171);
#66=PRESENTATION_STYLE_ASSIGNMENT((#83));
#67=PRESENTATION_STYLE_ASSIGNMENT((#84));
#68=PRESENTATION_STYLE_ASSIGNMENT((#85));
#69=PRESENTATION_STYLE_ASSIGNMENT((#86));
#70=PRESENTATION_STYLE_ASSIGNMENT((#87));
#71=PRESENTATION_STYLE_ASSIGNMENT((#88));
#72=PRESENTATION_STYLE_ASSIGNMENT((#89));
#73=PRESENTATION_STYLE_ASSIGNMENT((#90));
#74=PRESENTATION_STYLE_ASSIGNMENT((#91));
#75=PRESENTATION_STYLE_ASSIGNMENT((#92));
#76=PRESENTATION_STYLE_ASSIGNMENT((#93));
#77=PRESENTATION_STYLE_ASSIGNMENT((#94));
#78=PRESENTATION_STYLE_ASSIGNMENT((#95));
#79=PRESENTATION_STYLE_ASSIGNMENT((#96));
#80=PRESENTATION_STYLE_ASSIGNMENT((#97));
#81=PRESENTATION_STYLE_ASSIGNMENT((#98));
#82=PRESENTATION_STYLE_ASSIGNMENT((#99));
#83=SURFACE_STYLE_USAGE(.BOTH.,#100);
#84=SURFACE_STYLE_USAGE(.BOTH.,#101);
#85=SURFACE_STYLE_USAGE(.BOTH.,#102);
#86=SURFACE_STYLE_USAGE(.BOTH.,#103);
#87=SURFACE_STYLE_USAGE(.BOTH.,#104);
#88=SURFACE_STYLE_USAGE(.BOTH.,#105);
#89=SURFACE_STYLE_USAGE(.BOTH.,#106);
#90=SURFACE_STYLE_USAGE(.BOTH.,#107);
#91=SURFACE_STYLE_USAGE(.BOTH.,#108);
#92=SURFACE_STYLE_USAGE(.BOTH.,#109);
#93=SURFACE_STYLE_USAGE(.BOTH.,#110);
#94=SURFACE_STYLE_USAGE(.BOTH.,#111);
#95=SURFACE_STYLE_USAGE(.BOTH.,#112);
#96=SURFACE_STYLE_USAGE(.BOTH.,#113);
#97=SURFACE_STYLE_USAGE(.BOTH.,#114);
#98=SURFACE_STYLE_USAGE(.BOTH.,#115);
#99=SURFACE_STYLE_USAGE(.BOTH.,#116);
#100=SURFACE_SIDE_STYLE('',(#117));
#101=SURFACE_SIDE_STYLE('',(#118));
#102=SURFACE_SIDE_STYLE('',(#119));
#103=SURFACE_SIDE_STYLE('',(#120));
#104=SURFACE_SIDE_STYLE('',(#121));
#105=SURFACE_SIDE_STYLE('',(#122));
#106=SURFACE_SIDE_STYLE('',(#123));
#107=SURFACE_SIDE_STYLE('',(#124));
#108=SURFACE_SIDE_STYLE('',(#125));
#109=SURFACE_SIDE_STYLE('',(#126));
#110=SURFACE_SIDE_STYLE('',(#127));
#111=SURFACE_SIDE_STYLE('',(#128));
#112=SURFACE_SIDE_STYLE('',(#129));
#113=SURFACE_SIDE_STYLE('',(#130));
#114=SURFACE_SIDE_STYLE('',(#131));
#115=SURFACE_SIDE_STYLE('',(#132));
#116=SURFACE_SIDE_STYLE('',(#133));
#117=SURFACE_STYLE_FILL_AREA(#134);
#118=SURFACE_STYLE_FILL_AREA(#135);
#119=SURFACE_STYLE_FILL_AREA(#136);
#120=SURFACE_STYLE_FILL_AREA(#137);
#121=SURFACE_STYLE_FILL_AREA(#138);
#122=SURFACE_STYLE_FILL_AREA(#139);
#123=SURFACE_STYLE_FILL_AREA(#140);
#124=SURFACE_STYLE_FILL_AREA(#141);
#125=SURFACE_STYLE_FILL_AREA(#142);
#126=SURFACE_STYLE_FILL_AREA(#143);
#127=SURFACE_STYLE_FILL_AREA(#144);
#128=SURFACE_STYLE_FILL_AREA(#145);
#129=SURFACE_STYLE_FILL_AREA(#146);
#130=SURFACE_STYLE_FILL_AREA(#147);
#131=SURFACE_STYLE_FILL_AREA(#148);
#132=SURFACE_STYLE_FILL_AREA(#149);
#133=SURFACE_STYLE_FILL_AREA(#150);
#134=FILL_AREA_STYLE('',(#151));
#135=FILL_AREA_STYLE('',(#152));
#136=FILL_AREA_STYLE('',(#153));
#137=FILL_AREA_STYLE('',(#154));
#138=FILL_AREA_STYLE('',(#155));
#139=FILL_AREA_STYLE('',(#156));
#140=FILL_AREA_STYLE('',(#157));
#141=FILL_AREA_STYLE('',(#158));
#142=FILL_AREA_STYLE('',(#159));
#143=FILL_AREA_STYLE('',(#160));
#144=FILL_AREA_STYLE('',(#161));
#145=FILL_AREA_STYLE('',(#162));
#146=FILL_AREA_STYLE('',(#163));
#147=FILL_AREA_STYLE('',(#164));
#148=FILL_AREA_STYLE('',(#165));
#149=FILL_AREA_STYLE('',(#166));
#150=FILL_AREA_STYLE('',(#167));
#151=FILL_AREA_STYLE_COLOUR('',#168);
#152=FILL_AREA_STYLE_COLOUR('',#169);
#153=FILL_AREA_STYLE_COLOUR('',#169);
#154=FILL_AREA_STYLE_COLOUR('',#169);
#155=FILL_AREA_STYLE_COLOUR('',#169);
#156=FILL_AREA_STYLE_COLOUR('',#169);
#157=FILL_AREA_STYLE_COLOUR('',#169);
#158=FILL_AREA_STYLE_COLOUR('',#169);
#159=FILL_AREA_STYLE_COLOUR('',#169);
#160=FILL_AREA_STYLE_COLOUR('',#169);
#161=FILL_AREA_STYLE_COLOUR('',#169);
#162=FILL_AREA_STYLE_COLOUR('',#169);
#163=FILL_AREA_STYLE_COLOUR('',#169);
#164=FILL_AREA_STYLE_COLOUR('',#169);
#165=FILL_AREA_STYLE_COLOUR('',#169);
#166=FILL_AREA_STYLE_COLOUR('',#169);
#167=FILL_AREA_STYLE_COLOUR('',#23);
#168=COLOUR_RGB('Medium Steel',0.611764705882353,0.658823529411765,0.670588235294118);
#169=COLOUR_RGB('silver gray',0.6,0.6,0.6);
#170=MANIFOLD_SOLID_BREP('',#172);
#171=MANIFOLD_SOLID_BREP('',#173);
#172=CLOSED_SHELL('',(#186,#187,#188,#189,#190,#191,#192,#193,#194,#195,
#196,#197,#198,#199,#200));
#173=CLOSED_SHELL('',(#201,#202,#203,#204,#205,#206,#207,#208));
#174=CONICAL_SURFACE('',#426,15.75,9.99999999999958);
#175=CONICAL_SURFACE('',#430,16.,45.0000000000002);
#176=CONICAL_SURFACE('',#436,14.,1.49999999999963);
#177=CONICAL_SURFACE('',#443,7.15192378864669,60.0000000000005);
#178=CYLINDRICAL_SURFACE('',#424,15.75);
#179=CYLINDRICAL_SURFACE('',#428,16.);
#180=CYLINDRICAL_SURFACE('',#434,14.);
#181=PLANE('',#418);
#182=PLANE('',#420);
#183=PLANE('',#440);
#184=FACE_OUTER_BOUND('',#258,.T.);
#185=FACE_OUTER_BOUND('',#259,.T.);
#186=ADVANCED_FACE('',(#214,#215),#209,.F.);
#187=ADVANCED_FACE('',(#184),#181,.F.);
#188=ADVANCED_FACE('',(#185),#182,.F.);
#189=ADVANCED_FACE('',(#216,#217),#210,.T.);
#190=ADVANCED_FACE('',(#218,#219),#178,.T.);
#191=ADVANCED_FACE('',(#220,#221),#174,.T.);
#192=ADVANCED_FACE('',(#222,#223),#179,.T.);
#193=ADVANCED_FACE('',(#224,#225),#175,.T.);
#194=ADVANCED_FACE('',(#226,#227),#211,.F.);
#195=ADVANCED_FACE('',(#228,#229),#180,.T.);
#196=ADVANCED_FACE('',(#230,#231),#176,.T.);
#197=ADVANCED_FACE('',(#232,#233),#212,.T.);
#198=ADVANCED_FACE('',(#234,#235),#183,.F.);
#199=ADVANCED_FACE('',(#236,#237),#213,.T.);
#200=ADVANCED_FACE('',(#238,#239),#177,.F.);
#201=ADVANCED_FACE('',(#240,#241),#24,.T.);
#202=ADVANCED_FACE('',(#242,#243),#25,.T.);
#203=ADVANCED_FACE('',(#244,#245),#26,.T.);
#204=ADVANCED_FACE('',(#246,#247),#27,.T.);
#205=ADVANCED_FACE('',(#248,#249),#28,.T.);
#206=ADVANCED_FACE('',(#250,#251),#29,.T.);
#207=ADVANCED_FACE('',(#252,#253),#30,.T.);
#208=ADVANCED_FACE('',(#254,#255),#31,.T.);
#209=TOROIDAL_SURFACE('',#417,6.05884572681198,1.5);
#210=TOROIDAL_SURFACE('',#422,14.75,1.);
#211=TOROIDAL_SURFACE('',#432,16.5,2.5);
#212=TOROIDAL_SURFACE('',#438,12.6477103039097,1.2);
#213=TOROIDAL_SURFACE('',#442,7.90192378864668,1.5);
#214=FACE_BOUND('',#256,.T.);
#215=FACE_BOUND('',#257,.T.);
#216=FACE_BOUND('',#260,.T.);
#217=FACE_BOUND('',#261,.T.);
#218=FACE_BOUND('',#262,.T.);
#219=FACE_BOUND('',#263,.T.);
#220=FACE_BOUND('',#264,.T.);
#221=FACE_BOUND('',#265,.T.);
#222=FACE_BOUND('',#266,.T.);
#223=FACE_BOUND('',#267,.T.);
#224=FACE_BOUND('',#268,.T.);
#225=FACE_BOUND('',#269,.T.);
#226=FACE_BOUND('',#270,.T.);
#227=FACE_BOUND('',#271,.T.);
#228=FACE_BOUND('',#272,.T.);
#229=FACE_BOUND('',#273,.T.);
#230=FACE_BOUND('',#274,.T.);
#231=FACE_BOUND('',#275,.T.);
#232=FACE_BOUND('',#276,.T.);
#233=FACE_BOUND('',#277,.T.);
#234=FACE_BOUND('',#278,.T.);
#235=FACE_BOUND('',#279,.T.);
#236=FACE_BOUND('',#280,.T.);
#237=FACE_BOUND('',#281,.T.);
#238=FACE_BOUND('',#282,.T.);
#239=FACE_BOUND('',#283,.T.);
#240=FACE_BOUND('',#284,.T.);
#241=FACE_BOUND('',#285,.T.);
#242=FACE_BOUND('',#286,.T.);
#243=FACE_BOUND('',#287,.T.);
#244=FACE_BOUND('',#288,.T.);
#245=FACE_BOUND('',#289,.T.);
#246=FACE_BOUND('',#290,.T.);
#247=FACE_BOUND('',#291,.T.);
#248=FACE_BOUND('',#292,.T.);
#249=FACE_BOUND('',#293,.T.);
#250=FACE_BOUND('',#294,.T.);
#251=FACE_BOUND('',#295,.T.);
#252=FACE_BOUND('',#296,.T.);
#253=FACE_BOUND('',#297,.T.);
#254=FACE_BOUND('',#298,.T.);
#255=FACE_BOUND('',#299,.T.);
#256=EDGE_LOOP('',(#300));
#257=EDGE_LOOP('',(#301));
#258=EDGE_LOOP('',(#302));
#259=EDGE_LOOP('',(#303));
#260=EDGE_LOOP('',(#304));
#261=EDGE_LOOP('',(#305));
#262=EDGE_LOOP('',(#306));
#263=EDGE_LOOP('',(#307));
#264=EDGE_LOOP('',(#308));
#265=EDGE_LOOP('',(#309));
#266=EDGE_LOOP('',(#310));
#267=EDGE_LOOP('',(#311));
#268=EDGE_LOOP('',(#312));
#269=EDGE_LOOP('',(#313));
#270=EDGE_LOOP('',(#314));
#271=EDGE_LOOP('',(#315));
#272=EDGE_LOOP('',(#316));
#273=EDGE_LOOP('',(#317));
#274=EDGE_LOOP('',(#318));
#275=EDGE_LOOP('',(#319));
#276=EDGE_LOOP('',(#320));
#277=EDGE_LOOP('',(#321));
#278=EDGE_LOOP('',(#322));
#279=EDGE_LOOP('',(#323));
#280=EDGE_LOOP('',(#324));
#281=EDGE_LOOP('',(#325));
#282=EDGE_LOOP('',(#326));
#283=EDGE_LOOP('',(#327));
#284=EDGE_LOOP('',(#328));
#285=EDGE_LOOP('',(#329));
#286=EDGE_LOOP('',(#330));
#287=EDGE_LOOP('',(#331));
#288=EDGE_LOOP('',(#332));
#289=EDGE_LOOP('',(#333));
#290=EDGE_LOOP('',(#334));
#291=EDGE_LOOP('',(#335));
#292=EDGE_LOOP('',(#336));
#293=EDGE_LOOP('',(#337));
#294=EDGE_LOOP('',(#338));
#295=EDGE_LOOP('',(#339));
#296=EDGE_LOOP('',(#340));
#297=EDGE_LOOP('',(#341));
#298=EDGE_LOOP('',(#342));
#299=EDGE_LOOP('',(#343));
#300=ORIENTED_EDGE('',*,*,#366,.F.);
#301=ORIENTED_EDGE('',*,*,#367,.T.);
#302=ORIENTED_EDGE('',*,*,#366,.T.);
#303=ORIENTED_EDGE('',*,*,#368,.F.);
#304=ORIENTED_EDGE('',*,*,#369,.F.);
#305=ORIENTED_EDGE('',*,*,#368,.T.);
#306=ORIENTED_EDGE('',*,*,#370,.F.);
#307=ORIENTED_EDGE('',*,*,#369,.T.);
#308=ORIENTED_EDGE('',*,*,#371,.F.);
#309=ORIENTED_EDGE('',*,*,#370,.T.);
#310=ORIENTED_EDGE('',*,*,#372,.F.);
#311=ORIENTED_EDGE('',*,*,#371,.T.);
#312=ORIENTED_EDGE('',*,*,#373,.F.);
#313=ORIENTED_EDGE('',*,*,#372,.T.);
#314=ORIENTED_EDGE('',*,*,#374,.F.);
#315=ORIENTED_EDGE('',*,*,#373,.T.);
#316=ORIENTED_EDGE('',*,*,#375,.F.);
#317=ORIENTED_EDGE('',*,*,#374,.T.);
#318=ORIENTED_EDGE('',*,*,#376,.F.);
#319=ORIENTED_EDGE('',*,*,#375,.T.);
#320=ORIENTED_EDGE('',*,*,#377,.F.);
#321=ORIENTED_EDGE('',*,*,#376,.T.);
#322=ORIENTED_EDGE('',*,*,#378,.F.);
#323=ORIENTED_EDGE('',*,*,#377,.T.);
#324=ORIENTED_EDGE('',*,*,#379,.F.);
#325=ORIENTED_EDGE('',*,*,#378,.T.);
#326=ORIENTED_EDGE('',*,*,#367,.F.);
#327=ORIENTED_EDGE('',*,*,#379,.T.);
#328=ORIENTED_EDGE('',*,*,#380,.F.);
#329=ORIENTED_EDGE('',*,*,#381,.T.);
#330=ORIENTED_EDGE('',*,*,#382,.F.);
#331=ORIENTED_EDGE('',*,*,#380,.T.);
#332=ORIENTED_EDGE('',*,*,#383,.F.);
#333=ORIENTED_EDGE('',*,*,#382,.T.);
#334=ORIENTED_EDGE('',*,*,#384,.F.);
#335=ORIENTED_EDGE('',*,*,#383,.T.);
#336=ORIENTED_EDGE('',*,*,#385,.F.);
#337=ORIENTED_EDGE('',*,*,#384,.T.);
#338=ORIENTED_EDGE('',*,*,#386,.F.);
#339=ORIENTED_EDGE('',*,*,#385,.T.);
#340=ORIENTED_EDGE('',*,*,#387,.F.);
#341=ORIENTED_EDGE('',*,*,#386,.T.);
#342=ORIENTED_EDGE('',*,*,#381,.F.);
#343=ORIENTED_EDGE('',*,*,#387,.T.);
#344=VERTEX_POINT('',#554);
#345=VERTEX_POINT('',#556);
#346=VERTEX_POINT('',#560);
#347=VERTEX_POINT('',#563);
#348=VERTEX_POINT('',#566);
#349=VERTEX_POINT('',#569);
#350=VERTEX_POINT('',#572);
#351=VERTEX_POINT('',#575);
#352=VERTEX_POINT('',#578);
#353=VERTEX_POINT('',#581);
#354=VERTEX_POINT('',#584);
#355=VERTEX_POINT('',#587);
#356=VERTEX_POINT('',#590);
#357=VERTEX_POINT('',#593);
#358=VERTEX_POINT('',#597);
#359=VERTEX_POINT('',#599);
#360=VERTEX_POINT('',#603);
#361=VERTEX_POINT('',#607);
#362=VERTEX_POINT('',#611);
#363=VERTEX_POINT('',#615);
#364=VERTEX_POINT('',#619);
#365=VERTEX_POINT('',#623);
#366=EDGE_CURVE('',#344,#344,#388,.T.);
#367=EDGE_CURVE('',#345,#345,#389,.T.);
#368=EDGE_CURVE('',#346,#346,#390,.T.);
#369=EDGE_CURVE('',#347,#347,#391,.T.);
#370=EDGE_CURVE('',#348,#348,#392,.T.);
#371=EDGE_CURVE('',#349,#349,#393,.T.);
#372=EDGE_CURVE('',#350,#350,#394,.T.);
#373=EDGE_CURVE('',#351,#351,#395,.T.);
#374=EDGE_CURVE('',#352,#352,#396,.T.);
#375=EDGE_CURVE('',#353,#353,#397,.T.);
#376=EDGE_CURVE('',#354,#354,#398,.T.);
#377=EDGE_CURVE('',#355,#355,#399,.T.);
#378=EDGE_CURVE('',#356,#356,#400,.T.);
#379=EDGE_CURVE('',#357,#357,#401,.T.);
#380=EDGE_CURVE('',#358,#358,#402,.T.);
#381=EDGE_CURVE('',#359,#359,#403,.T.);
#382=EDGE_CURVE('',#360,#360,#404,.T.);
#383=EDGE_CURVE('',#361,#361,#406,.T.);
#384=EDGE_CURVE('',#362,#362,#407,.T.);
#385=EDGE_CURVE('',#363,#363,#409,.T.);
#386=EDGE_CURVE('',#364,#364,#410,.T.);
#387=EDGE_CURVE('',#365,#365,#412,.T.);
#388=CIRCLE('',#415,6.05884572681198);
#389=CIRCLE('',#416,6.80884572681197);
#390=CIRCLE('',#419,14.75);
#391=CIRCLE('',#421,15.75);
#392=CIRCLE('',#423,15.75);
#393=CIRCLE('',#425,16.);
#394=CIRCLE('',#427,16.);
#395=CIRCLE('',#429,14.7322330470336);
#396=CIRCLE('',#431,14.);
#397=CIRCLE('',#433,14.);
#398=CIRCLE('',#435,13.8472990938804);
#399=CIRCLE('',#437,12.6477103039097);
#400=CIRCLE('',#439,7.90192378864668);
#401=CIRCLE('',#441,7.15192378864669);
#402=CIRCLE('',#444,14.2097131169909);
#403=CIRCLE('',#445,6.20534851480671);
#404=CIRCLE('',#446,14.9999977112005);
#405=CIRCLE('',#447,0.8);
#406=CIRCLE('',#448,14.9922460776143);
#407=CIRCLE('',#449,14.1960967681228);
#408=CIRCLE('',#450,0.8);
#409=CIRCLE('',#451,6.08301122621605);
#410=CIRCLE('',#452,5.31484471835636);
#411=CIRCLE('',#453,0.8);
#412=CIRCLE('',#454,5.44027613813732);
#413=CIRCLE('',#455,0.8);
#414=AXIS2_PLACEMENT_3D('',#552,#456,#457);
#415=AXIS2_PLACEMENT_3D('',#553,#458,#459);
#416=AXIS2_PLACEMENT_3D('',#555,#460,#461);
#417=AXIS2_PLACEMENT_3D('',#557,#462,#463);
#418=AXIS2_PLACEMENT_3D('',#558,#464,#465);
#419=AXIS2_PLACEMENT_3D('',#559,#466,#467);
#420=AXIS2_PLACEMENT_3D('',#561,#468,#469);
#421=AXIS2_PLACEMENT_3D('',#562,#470,#471);
#422=AXIS2_PLACEMENT_3D('',#564,#472,#473);
#423=AXIS2_PLACEMENT_3D('',#565,#474,#475);
#424=AXIS2_PLACEMENT_3D('',#567,#476,#477);
#425=AXIS2_PLACEMENT_3D('',#568,#478,#479);
#426=AXIS2_PLACEMENT_3D('',#570,#480,#481);
#427=AXIS2_PLACEMENT_3D('',#571,#482,#483);
#428=AXIS2_PLACEMENT_3D('',#573,#484,#485);
#429=AXIS2_PLACEMENT_3D('',#574,#486,#487);
#430=AXIS2_PLACEMENT_3D('',#576,#488,#489);
#431=AXIS2_PLACEMENT_3D('',#577,#490,#491);
#432=AXIS2_PLACEMENT_3D('',#579,#492,#493);
#433=AXIS2_PLACEMENT_3D('',#580,#494,#495);
#434=AXIS2_PLACEMENT_3D('',#582,#496,#497);
#435=AXIS2_PLACEMENT_3D('',#583,#498,#499);
#436=AXIS2_PLACEMENT_3D('',#585,#500,#501);
#437=AXIS2_PLACEMENT_3D('',#586,#502,#503);
#438=AXIS2_PLACEMENT_3D('',#588,#504,#505);
#439=AXIS2_PLACEMENT_3D('',#589,#506,#507);
#440=AXIS2_PLACEMENT_3D('',#591,#508,#509);
#441=AXIS2_PLACEMENT_3D('',#592,#510,#511);
#442=AXIS2_PLACEMENT_3D('',#594,#512,#513);
#443=AXIS2_PLACEMENT_3D('',#595,#514,#515);
#444=AXIS2_PLACEMENT_3D('',#596,#516,#517);
#445=AXIS2_PLACEMENT_3D('',#598,#518,#519);
#446=AXIS2_PLACEMENT_3D('',#602,#522,#523);
#447=AXIS2_PLACEMENT_3D('',#604,#524,#525);
#448=AXIS2_PLACEMENT_3D('',#606,#527,#528);
#449=AXIS2_PLACEMENT_3D('',#610,#531,#532);
#450=AXIS2_PLACEMENT_3D('',#612,#533,#534);
#451=AXIS2_PLACEMENT_3D('',#614,#536,#537);
#452=AXIS2_PLACEMENT_3D('',#618,#540,#541);
#453=AXIS2_PLACEMENT_3D('',#620,#542,#543);
#454=AXIS2_PLACEMENT_3D('',#622,#545,#546);
#455=AXIS2_PLACEMENT_3D('',#626,#549,#550);
#456=DIRECTION('',(0.,0.,1.));
#457=DIRECTION('',(1.,0.,0.));
#458=DIRECTION('',(-1.,0.,0.));
#459=DIRECTION('',(0.,0.,1.));
#460=DIRECTION('',(-1.,0.,0.));
#461=DIRECTION('',(0.,0.,1.));
#462=DIRECTION('',(-1.,0.,0.));
#463=DIRECTION('',(0.,0.,1.));
#464=DIRECTION('',(1.,0.,0.));
#465=DIRECTION('',(0.,0.,-1.));
#466=DIRECTION('',(-1.,0.,0.));
#467=DIRECTION('',(0.,0.,1.));
#468=DIRECTION('',(-1.,0.,0.));
#469=DIRECTION('',(0.,0.,1.));
#470=DIRECTION('',(-1.,0.,0.));
#471=DIRECTION('',(0.,0.,1.));
#472=DIRECTION('',(-1.,0.,0.));
#473=DIRECTION('',(0.,0.,1.));
#474=DIRECTION('',(-1.,0.,0.));
#475=DIRECTION('',(0.,0.,1.));
#476=DIRECTION('',(-1.,0.,0.));
#477=DIRECTION('',(0.,0.,1.));
#478=DIRECTION('',(-1.,0.,0.));
#479=DIRECTION('',(0.,0.,1.));
#480=DIRECTION('',(-1.,0.,0.));
#481=DIRECTION('',(1.44502352719494E-16,0.,1.));
#482=DIRECTION('',(-1.,0.,0.));
#483=DIRECTION('',(0.,0.,1.));
#484=DIRECTION('',(-1.,0.,0.));
#485=DIRECTION('',(0.,0.,1.));
#486=DIRECTION('',(-1.,0.,0.));
#487=DIRECTION('',(0.,0.,1.));
#488=DIRECTION('',(1.,0.,0.));
#489=DIRECTION('',(4.09777199049637E-17,0.,-1.));
#490=DIRECTION('',(-1.,0.,0.));
#491=DIRECTION('',(0.,0.,1.));
#492=DIRECTION('',(-1.,0.,0.));
#493=DIRECTION('',(0.,0.,1.));
#494=DIRECTION('',(-1.,0.,0.));
#495=DIRECTION('',(0.,0.,1.));
#496=DIRECTION('',(-1.,0.,0.));
#497=DIRECTION('',(0.,0.,1.));
#498=DIRECTION('',(-1.,0.,0.));
#499=DIRECTION('',(0.,0.,1.));
#500=DIRECTION('',(1.,0.,0.));
#501=DIRECTION('',(1.72669771724952E-16,0.,-1.));
#502=DIRECTION('',(-1.,0.,0.));
#503=DIRECTION('',(0.,0.,1.));
#504=DIRECTION('',(-1.,0.,0.));
#505=DIRECTION('',(0.,0.,1.));
#506=DIRECTION('',(-1.,0.,0.));
#507=DIRECTION('',(0.,0.,1.));
#508=DIRECTION('',(1.,0.,0.));
#509=DIRECTION('',(0.,0.,-1.));
#510=DIRECTION('',(-1.,0.,0.));
#511=DIRECTION('',(0.,0.,1.));
#512=DIRECTION('',(-1.,0.,0.));
#513=DIRECTION('',(0.,0.,1.));
#514=DIRECTION('',(-1.,0.,0.));
#515=DIRECTION('',(3.19175851270241E-17,0.,1.));
#516=DIRECTION('',(1.,0.,0.));
#517=DIRECTION('',(0.,0.,-1.));
#518=DIRECTION('',(1.,0.,0.));
#519=DIRECTION('',(0.,0.,-1.));
#520=DIRECTION('',(-0.00696425429875265,-0.990789788514292,-0.135229782732458));
#521=DIRECTION('',(1.,0.,0.));
#522=DIRECTION('',(1.,0.,0.));
#523=DIRECTION('',(0.,0.,-1.));
#524=DIRECTION('',(0.0697564737441254,-0.135384976120895,0.988334428526867));
#525=DIRECTION('',(-0.997539740327596,-0.00255014049612725,0.0700568572703812));
#526=DIRECTION('',(1.,0.,0.));
#527=DIRECTION('',(1.,0.,0.));
#528=DIRECTION('',(0.,0.,-1.));
#529=DIRECTION('',(0.997539740327596,0.00255014049612685,-0.0700568572703811));
#530=DIRECTION('',(1.,0.,0.));
#531=DIRECTION('',(1.,0.,0.));
#532=DIRECTION('',(0.,0.,-1.));
#533=DIRECTION('',(0.0697564737441254,-0.135384976120895,0.988334428526867));
#534=DIRECTION('',(-0.997539740327596,-0.00255014049612725,0.0700568572703812));
#535=DIRECTION('',(1.,0.,0.));
#536=DIRECTION('',(1.,0.,0.));
#537=DIRECTION('',(0.,0.,-1.));
#538=DIRECTION('',(0.00696425429875251,0.990789788514292,0.135229782732458));
#539=DIRECTION('',(1.,0.,0.));
#540=DIRECTION('',(1.,0.,0.));
#541=DIRECTION('',(0.,0.,-1.));
#542=DIRECTION('',(0.0697564737441254,-0.135384976120895,0.988334428526867));
#543=DIRECTION('',(-0.997539740327596,-0.00255014049612725,0.0700568572703812));
#544=DIRECTION('',(1.,0.,0.));
#545=DIRECTION('',(1.,0.,0.));
#546=DIRECTION('',(0.,0.,-1.));
#547=DIRECTION('',(-0.997539740327596,-0.00255014049612706,0.0700568572703811));
#548=DIRECTION('',(1.,0.,0.));
#549=DIRECTION('',(0.0697564737441254,-0.135384976120895,0.988334428526867));
#550=DIRECTION('',(-0.997539740327596,-0.00255014049612725,0.0700568572703812));
#551=DIRECTION('',(1.,0.,0.));
#552=CARTESIAN_POINT('',(0.,0.,0.));
#553=CARTESIAN_POINT('',(1.6,0.,0.));
#554=CARTESIAN_POINT('',(1.6,0.,6.05884572681198));
#555=CARTESIAN_POINT('',(1.39903810567666,0.,0.));
#556=CARTESIAN_POINT('',(1.39903810567666,0.,6.80884572681197));
#557=CARTESIAN_POINT('',(0.1,0.,0.));
#558=CARTESIAN_POINT('',(1.6,6.05884572681198,0.));
#559=CARTESIAN_POINT('',(150.,0.,0.));
#560=CARTESIAN_POINT('',(150.,0.,14.75));
#561=CARTESIAN_POINT('',(150.,14.75,0.));
#562=CARTESIAN_POINT('',(149.,0.,0.));
#563=CARTESIAN_POINT('',(149.,0.,15.75));
#564=CARTESIAN_POINT('',(149.,0.,0.));
#565=CARTESIAN_POINT('',(146.,0.,0.));
#566=CARTESIAN_POINT('',(146.,0.,15.75));
#567=CARTESIAN_POINT('',(0.,0.,0.));
#568=CARTESIAN_POINT('',(144.582179545095,0.,0.));
#569=CARTESIAN_POINT('',(144.582179545095,0.,16.));
#570=CARTESIAN_POINT('',(146.,0.,0.));
#571=CARTESIAN_POINT('',(50.,0.,0.));
#572=CARTESIAN_POINT('',(50.,0.,16.));
#573=CARTESIAN_POINT('',(0.,0.,0.));
#574=CARTESIAN_POINT('',(48.7322330470337,0.,0.));
#575=CARTESIAN_POINT('',(48.7322330470337,0.,14.7322330470336));
#576=CARTESIAN_POINT('',(50.,0.,0.));
#577=CARTESIAN_POINT('',(46.9644660940673,0.,0.));
#578=CARTESIAN_POINT('',(46.9644660940673,0.,14.));
#579=CARTESIAN_POINT('',(46.9644660940673,0.,0.));
#580=CARTESIAN_POINT('',(8.,0.,0.));
#581=CARTESIAN_POINT('',(8.,0.,14.));
#582=CARTESIAN_POINT('',(0.,0.,0.));
#583=CARTESIAN_POINT('',(2.16858766203056,0.,0.));
#584=CARTESIAN_POINT('',(2.16858766203056,0.,13.8472990938804));
#585=CARTESIAN_POINT('',(8.,0.,0.));
#586=CARTESIAN_POINT('',(1.,0.,0.));
#587=CARTESIAN_POINT('',(1.,0.,12.6477103039097));
#588=CARTESIAN_POINT('',(2.2,0.,0.));
#589=CARTESIAN_POINT('',(1.,0.,0.));
#590=CARTESIAN_POINT('',(1.,0.,7.90192378864668));
#591=CARTESIAN_POINT('',(1.,7.90192378864668,0.));
#592=CARTESIAN_POINT('',(1.20096189432334,0.,0.));
#593=CARTESIAN_POINT('',(1.20096189432334,0.,7.15192378864669));
#594=CARTESIAN_POINT('',(2.5,0.,0.));
#595=CARTESIAN_POINT('',(1.20096189432334,0.,0.));
#596=CARTESIAN_POINT('',(0.00557140343900205,0.,0.));
#597=CARTESIAN_POINT('',(0.00557140343900205,0.,-14.2097131169909));
#598=CARTESIAN_POINT('',(0.0626782886887743,0.,0.));
#599=CARTESIAN_POINT('',(0.0626782886887743,0.,-6.20534851480671));
#600=CARTESIAN_POINT('',(0.0626782886887738,-6.08482502337138,1.21706804459212));
#601=CARTESIAN_POINT('',(8.,0.,0.));
#602=CARTESIAN_POINT('',(0.798031792262085,0.,0.));
#603=CARTESIAN_POINT('',(0.798031792262085,0.,-14.9999977112005));
#604=CARTESIAN_POINT('',(0.803603195701082,-14.2072611767917,0.0521383403696615));
#605=CARTESIAN_POINT('',(8.,0.,0.));
#606=CARTESIAN_POINT('',(8.97785766294836,0.,0.));
#607=CARTESIAN_POINT('',(8.97785766294836,0.,-14.9922460776143));
#608=CARTESIAN_POINT('',(0.798031792262085,-14.9998930076031,-0.0560454858163054));
#609=CARTESIAN_POINT('',(8.,0.,0.));
#610=CARTESIAN_POINT('',(9.78146085864946,0.,0.));
#611=CARTESIAN_POINT('',(9.78146085864946,0.,-14.1960967681228));
#612=CARTESIAN_POINT('',(8.98342906638739,-14.1863500247234,-0.522327889247465));
#613=CARTESIAN_POINT('',(8.,0.,0.));
#614=CARTESIAN_POINT('',(9.83856774389922,0.,0.));
#615=CARTESIAN_POINT('',(9.83856774389922,0.,-6.08301122621605));
#616=CARTESIAN_POINT('',(9.78146085864945,-14.1843099123265,-0.578373375063771));
#617=CARTESIAN_POINT('',(8.,0.,0.));
#618=CARTESIAN_POINT('',(9.04610735507614,0.,0.));
#619=CARTESIAN_POINT('',(9.04610735507614,0.,-5.31484471835636));
#620=CARTESIAN_POINT('',(9.04053595163714,-6.06187375890623,0.58655632915869));
#621=CARTESIAN_POINT('',(8.,0.,0.));
#622=CARTESIAN_POINT('',(0.866281484389858,0.,0.));
#623=CARTESIAN_POINT('',(0.866281484389858,0.,-5.44027613813732));
#624=CARTESIAN_POINT('',(9.04610735507614,-5.2692419280948,0.694740155344657));
#625=CARTESIAN_POINT('',(8.,0.,0.));
#626=CARTESIAN_POINT('',(0.860710080950853,-6.08278491097447,1.16102255877582));
#627=CARTESIAN_POINT('',(8.,0.,0.));
#628=(
GEOMETRIC_REPRESENTATION_CONTEXT(3)
GLOBAL_UNCERTAINTY_ASSIGNED_CONTEXT((#629))
GLOBAL_UNIT_ASSIGNED_CONTEXT((#635,#631,#630))
REPRESENTATION_CONTEXT('AEM90-SPGT0904-D30-W32-L150-Z03',
'TOP_LEVEL_ASSEMBLY_PART')
);
#629=UNCERTAINTY_MEASURE_WITH_UNIT(LENGTH_MEASURE(2.E-5),#635,
'DISTANCE_ACCURACY_VALUE','Maximum Tolerance applied to model');
#630=(
NAMED_UNIT(*)
SI_UNIT($,.STERADIAN.)
SOLID_ANGLE_UNIT()
);
#631=(
CONVERSION_BASED_UNIT('DEGREE',#633)
NAMED_UNIT(#632)
PLANE_ANGLE_UNIT()
);
#632=DIMENSIONAL_EXPONENTS(0.,0.,0.,0.,0.,0.,0.);
#633=PLANE_ANGLE_MEASURE_WITH_UNIT(PLANE_ANGLE_MEASURE(0.0174532925),#634);
#634=(
NAMED_UNIT(*)
PLANE_ANGLE_UNIT()
SI_UNIT($,.RADIAN.)
);
#635=(
LENGTH_UNIT()
NAMED_UNIT(*)
SI_UNIT(.MILLI.,.METRE.)
);
ENDSEC;
END-ISO-10303-21;
