ISO-10303-21;
HEADER;
/* Generated by software containing ST-Developer
 * from STEP Tools, Inc. (www.steptools.com) 
 */
/* OPTION: using custom schema-name function */

FILE_DESCRIPTION(
/* description */ (''),
/* implementation_level */ '2;1');

FILE_NAME(
/* name */ 'AEM90-WNG08-D40-W40-L110-Z03-H.stp',
/* time_stamp */ '2023-10-27T11:35:17+03:00',
/* author */ (''),
/* organization */ (''),
/* preprocessor_version */ 'ST-DEVELOPER v19.4',
/* originating_system */ 'SIEMENS PLM Software NX2306.3001',
/* authorisation */ '');

FILE_SCHEMA (('AUTOMOTIVE_DESIGN { 1 0 10303 214 3 1 1 1 }'));
ENDSEC;

DATA;
#10=SHAPE_REPRESENTATION_RELATIONSHIP('None',
'relationship between AEM90-WNG08-D40-W40-L110-Z03-H-None and AEM90-WN
G08-D40-W40-L110-Z03-H-None',#22,#11);
#11=ADVANCED_BREP_SHAPE_REPRESENTATION(
'AEM90-WNG08-D40-W40-L110-Z03-H-None',(#141,#142),#698);
#12=SHAPE_DEFINITION_REPRESENTATION(#13,#22);
#13=PRODUCT_DEFINITION_SHAPE('','',#14);
#14=PRODUCT_DEFINITION(' ','',#16,#15);
#15=PRODUCT_DEFINITION_CONTEXT('part definition',#21,'design');
#16=PRODUCT_DEFINITION_FORMATION_WITH_SPECIFIED_SOURCE(' ',' ',#18,
 .NOT_KNOWN.);
#17=PRODUCT_RELATED_PRODUCT_CATEGORY('part','',(#18));
#18=PRODUCT('AEM90-WNG08-D40-W40-L110-Z03-H',
'AEM90-WNG08-D40-W40-L110-Z03-H',' ',(#19));
#19=PRODUCT_CONTEXT(' ',#21,'mechanical');
#20=APPLICATION_PROTOCOL_DEFINITION('international standard',
'automotive_design',2010,#21);
#21=APPLICATION_CONTEXT(
'core data for automotive mechanical design processes');
#22=SHAPE_REPRESENTATION('AEM90-WNG08-D40-W40-L110-Z03-H-None',(#441),#698);
#23=DRAUGHTING_PRE_DEFINED_COLOUR('yellow');
#24=SURFACE_OF_REVOLUTION('',#30,#27);
#25=SURFACE_OF_REVOLUTION('',#31,#28);
#26=SURFACE_OF_REVOLUTION('',#32,#29);
#27=AXIS1_PLACEMENT('',#658,#559);
#28=AXIS1_PLACEMENT('',#674,#580);
#29=AXIS1_PLACEMENT('',#690,#601);
#30=ELLIPSE('',#471,0.811012727355402,0.767750174582231);
#31=ELLIPSE('',#481,0.811276746219403,0.778832062660323);
#32=ELLIPSE('',#491,0.800153591641286,0.724827284876728);
#33=OVER_RIDING_STYLED_ITEM('',(#50),#168,#47);
#34=OVER_RIDING_STYLED_ITEM('',(#51),#169,#47);
#35=OVER_RIDING_STYLED_ITEM('',(#52),#170,#47);
#36=OVER_RIDING_STYLED_ITEM('',(#53),#171,#47);
#37=OVER_RIDING_STYLED_ITEM('',(#54),#172,#47);
#38=OVER_RIDING_STYLED_ITEM('',(#55),#173,#47);
#39=OVER_RIDING_STYLED_ITEM('',(#56),#174,#47);
#40=OVER_RIDING_STYLED_ITEM('',(#57),#175,#47);
#41=OVER_RIDING_STYLED_ITEM('',(#58),#176,#47);
#42=OVER_RIDING_STYLED_ITEM('',(#59),#177,#47);
#43=OVER_RIDING_STYLED_ITEM('',(#60),#178,#47);
#44=OVER_RIDING_STYLED_ITEM('',(#61),#179,#47);
#45=OVER_RIDING_STYLED_ITEM('',(#62),#180,#47);
#46=PRESENTATION_LAYER_ASSIGNMENT('1','Layer 1',(#141,#142));
#47=STYLED_ITEM('',(#49),#141);
#48=STYLED_ITEM('',(#63),#142);
#49=PRESENTATION_STYLE_ASSIGNMENT((#64));
#50=PRESENTATION_STYLE_ASSIGNMENT((#65));
#51=PRESENTATION_STYLE_ASSIGNMENT((#66));
#52=PRESENTATION_STYLE_ASSIGNMENT((#67));
#53=PRESENTATION_STYLE_ASSIGNMENT((#68));
#54=PRESENTATION_STYLE_ASSIGNMENT((#69));
#55=PRESENTATION_STYLE_ASSIGNMENT((#70));
#56=PRESENTATION_STYLE_ASSIGNMENT((#71));
#57=PRESENTATION_STYLE_ASSIGNMENT((#72));
#58=PRESENTATION_STYLE_ASSIGNMENT((#73));
#59=PRESENTATION_STYLE_ASSIGNMENT((#74));
#60=PRESENTATION_STYLE_ASSIGNMENT((#75));
#61=PRESENTATION_STYLE_ASSIGNMENT((#76));
#62=PRESENTATION_STYLE_ASSIGNMENT((#77));
#63=PRESENTATION_STYLE_ASSIGNMENT((#78));
#64=SURFACE_STYLE_USAGE(.BOTH.,#79);
#65=SURFACE_STYLE_USAGE(.BOTH.,#80);
#66=SURFACE_STYLE_USAGE(.BOTH.,#81);
#67=SURFACE_STYLE_USAGE(.BOTH.,#82);
#68=SURFACE_STYLE_USAGE(.BOTH.,#83);
#69=SURFACE_STYLE_USAGE(.BOTH.,#84);
#70=SURFACE_STYLE_USAGE(.BOTH.,#85);
#71=SURFACE_STYLE_USAGE(.BOTH.,#86);
#72=SURFACE_STYLE_USAGE(.BOTH.,#87);
#73=SURFACE_STYLE_USAGE(.BOTH.,#88);
#74=SURFACE_STYLE_USAGE(.BOTH.,#89);
#75=SURFACE_STYLE_USAGE(.BOTH.,#90);
#76=SURFACE_STYLE_USAGE(.BOTH.,#91);
#77=SURFACE_STYLE_USAGE(.BOTH.,#92);
#78=SURFACE_STYLE_USAGE(.BOTH.,#93);
#79=SURFACE_SIDE_STYLE('',(#94));
#80=SURFACE_SIDE_STYLE('',(#95));
#81=SURFACE_SIDE_STYLE('',(#96));
#82=SURFACE_SIDE_STYLE('',(#97));
#83=SURFACE_SIDE_STYLE('',(#98));
#84=SURFACE_SIDE_STYLE('',(#99));
#85=SURFACE_SIDE_STYLE('',(#100));
#86=SURFACE_SIDE_STYLE('',(#101));
#87=SURFACE_SIDE_STYLE('',(#102));
#88=SURFACE_SIDE_STYLE('',(#103));
#89=SURFACE_SIDE_STYLE('',(#104));
#90=SURFACE_SIDE_STYLE('',(#105));
#91=SURFACE_SIDE_STYLE('',(#106));
#92=SURFACE_SIDE_STYLE('',(#107));
#93=SURFACE_SIDE_STYLE('',(#108));
#94=SURFACE_STYLE_FILL_AREA(#109);
#95=SURFACE_STYLE_FILL_AREA(#110);
#96=SURFACE_STYLE_FILL_AREA(#111);
#97=SURFACE_STYLE_FILL_AREA(#112);
#98=SURFACE_STYLE_FILL_AREA(#113);
#99=SURFACE_STYLE_FILL_AREA(#114);
#100=SURFACE_STYLE_FILL_AREA(#115);
#101=SURFACE_STYLE_FILL_AREA(#116);
#102=SURFACE_STYLE_FILL_AREA(#117);
#103=SURFACE_STYLE_FILL_AREA(#118);
#104=SURFACE_STYLE_FILL_AREA(#119);
#105=SURFACE_STYLE_FILL_AREA(#120);
#106=SURFACE_STYLE_FILL_AREA(#121);
#107=SURFACE_STYLE_FILL_AREA(#122);
#108=SURFACE_STYLE_FILL_AREA(#123);
#109=FILL_AREA_STYLE('',(#124));
#110=FILL_AREA_STYLE('',(#125));
#111=FILL_AREA_STYLE('',(#126));
#112=FILL_AREA_STYLE('',(#127));
#113=FILL_AREA_STYLE('',(#128));
#114=FILL_AREA_STYLE('',(#129));
#115=FILL_AREA_STYLE('',(#130));
#116=FILL_AREA_STYLE('',(#131));
#117=FILL_AREA_STYLE('',(#132));
#118=FILL_AREA_STYLE('',(#133));
#119=FILL_AREA_STYLE('',(#134));
#120=FILL_AREA_STYLE('',(#135));
#121=FILL_AREA_STYLE('',(#136));
#122=FILL_AREA_STYLE('',(#137));
#123=FILL_AREA_STYLE('',(#138));
#124=FILL_AREA_STYLE_COLOUR('',#139);
#125=FILL_AREA_STYLE_COLOUR('',#140);
#126=FILL_AREA_STYLE_COLOUR('',#140);
#127=FILL_AREA_STYLE_COLOUR('',#140);
#128=FILL_AREA_STYLE_COLOUR('',#140);
#129=FILL_AREA_STYLE_COLOUR('',#140);
#130=FILL_AREA_STYLE_COLOUR('',#140);
#131=FILL_AREA_STYLE_COLOUR('',#140);
#132=FILL_AREA_STYLE_COLOUR('',#140);
#133=FILL_AREA_STYLE_COLOUR('',#140);
#134=FILL_AREA_STYLE_COLOUR('',#140);
#135=FILL_AREA_STYLE_COLOUR('',#140);
#136=FILL_AREA_STYLE_COLOUR('',#140);
#137=FILL_AREA_STYLE_COLOUR('',#140);
#138=FILL_AREA_STYLE_COLOUR('',#23);
#139=COLOUR_RGB('Medium Steel',0.611764705882353,0.658823529411765,0.670588235294118);
#140=COLOUR_RGB('silver gray',0.6,0.6,0.6);
#141=MANIFOLD_SOLID_BREP('',#143);
#142=MANIFOLD_SOLID_BREP('',#144);
#143=CLOSED_SHELL('',(#168,#169,#170,#171,#172,#173,#174,#175,#176,#177,
#178,#179,#180));
#144=CLOSED_SHELL('',(#181,#182,#183,#184,#185,#186,#187,#188,#189,#190,
#191,#192,#193,#194,#195));
#145=CYLINDRICAL_SURFACE('',#459,19.15);
#146=CYLINDRICAL_SURFACE('',#463,20.);
#147=CYLINDRICAL_SURFACE('',#466,19.75);
#148=CONICAL_SURFACE('',#451,10.5558703499424,59.5000000000004);
#149=CONICAL_SURFACE('',#455,17.908120603957,88.0000000000004);
#150=CONICAL_SURFACE('',#461,20.,30.0000000000001);
#151=CONICAL_SURFACE('',#465,19.75,10.0000000000001);
#152=CONICAL_SURFACE('',#469,17.5884050063229,87.6719021103572);
#153=CONICAL_SURFACE('',#473,19.9999145714005,0.43726690139449);
#154=CONICAL_SURFACE('',#475,19.9444498713515,25.595962709084);
#155=CONICAL_SURFACE('',#477,18.1423667697063,8.77878889994398);
#156=CONICAL_SURFACE('',#479,18.0010786338588,25.5363019202006);
#157=CONICAL_SURFACE('',#483,16.2042089357343,62.326265006478);
#158=CONICAL_SURFACE('',#485,9.75927816653657,32.6159457562819);
#159=CONICAL_SURFACE('',#487,7.4573553831597,13.6511659682643);
#160=CONICAL_SURFACE('',#489,7.174948147811,32.5314119620206);
#161=CONICAL_SURFACE('',#493,6.45615547481532,57.6296246616283);
#162=CONICAL_SURFACE('',#495,11.9582286902643,87.7017612883389);
#163=CONICAL_SURFACE('',#496,16.0622345752863,82.7670056900778);
#164=PLANE('',#445);
#165=PLANE('',#447);
#166=FACE_OUTER_BOUND('',#254,.T.);
#167=FACE_OUTER_BOUND('',#255,.T.);
#168=ADVANCED_FACE('',(#200,#201),#196,.T.);
#169=ADVANCED_FACE('',(#166),#164,.F.);
#170=ADVANCED_FACE('',(#167),#165,.F.);
#171=ADVANCED_FACE('',(#202,#203),#197,.F.);
#172=ADVANCED_FACE('',(#204,#205),#148,.F.);
#173=ADVANCED_FACE('',(#206,#207),#198,.T.);
#174=ADVANCED_FACE('',(#208,#209),#149,.F.);
#175=ADVANCED_FACE('',(#210,#211),#199,.T.);
#176=ADVANCED_FACE('',(#212,#213),#145,.T.);
#177=ADVANCED_FACE('',(#214,#215),#150,.T.);
#178=ADVANCED_FACE('',(#216,#217),#146,.T.);
#179=ADVANCED_FACE('',(#218,#219),#151,.T.);
#180=ADVANCED_FACE('',(#220,#221),#147,.T.);
#181=ADVANCED_FACE('',(#222,#223),#152,.F.);
#182=ADVANCED_FACE('',(#224,#225),#24,.T.);
#183=ADVANCED_FACE('',(#226,#227),#153,.T.);
#184=ADVANCED_FACE('',(#228,#229),#154,.T.);
#185=ADVANCED_FACE('',(#230,#231),#155,.T.);
#186=ADVANCED_FACE('',(#232,#233),#156,.T.);
#187=ADVANCED_FACE('',(#234,#235),#25,.T.);
#188=ADVANCED_FACE('',(#236,#237),#157,.F.);
#189=ADVANCED_FACE('',(#238,#239),#158,.F.);
#190=ADVANCED_FACE('',(#240,#241),#159,.F.);
#191=ADVANCED_FACE('',(#242,#243),#160,.F.);
#192=ADVANCED_FACE('',(#244,#245),#26,.T.);
#193=ADVANCED_FACE('',(#246,#247),#161,.F.);
#194=ADVANCED_FACE('',(#248,#249),#162,.F.);
#195=ADVANCED_FACE('',(#250,#251),#163,.F.);
#196=TOROIDAL_SURFACE('',#444,18.75,1.);
#197=TOROIDAL_SURFACE('',#449,5.76493550542895,0.8);
#198=TOROIDAL_SURFACE('',#453,13.0935621647459,5.);
#199=TOROIDAL_SURFACE('',#457,17.95,1.2);
#200=FACE_BOUND('',#252,.T.);
#201=FACE_BOUND('',#253,.T.);
#202=FACE_BOUND('',#256,.T.);
#203=FACE_BOUND('',#257,.T.);
#204=FACE_BOUND('',#258,.T.);
#205=FACE_BOUND('',#259,.T.);
#206=FACE_BOUND('',#260,.T.);
#207=FACE_BOUND('',#261,.T.);
#208=FACE_BOUND('',#262,.T.);
#209=FACE_BOUND('',#263,.T.);
#210=FACE_BOUND('',#264,.T.);
#211=FACE_BOUND('',#265,.T.);
#212=FACE_BOUND('',#266,.T.);
#213=FACE_BOUND('',#267,.T.);
#214=FACE_BOUND('',#268,.T.);
#215=FACE_BOUND('',#269,.T.);
#216=FACE_BOUND('',#270,.T.);
#217=FACE_BOUND('',#271,.T.);
#218=FACE_BOUND('',#272,.T.);
#219=FACE_BOUND('',#273,.T.);
#220=FACE_BOUND('',#274,.T.);
#221=FACE_BOUND('',#275,.T.);
#222=FACE_BOUND('',#276,.T.);
#223=FACE_BOUND('',#277,.T.);
#224=FACE_BOUND('',#278,.T.);
#225=FACE_BOUND('',#279,.T.);
#226=FACE_BOUND('',#280,.T.);
#227=FACE_BOUND('',#281,.T.);
#228=FACE_BOUND('',#282,.T.);
#229=FACE_BOUND('',#283,.T.);
#230=FACE_BOUND('',#284,.T.);
#231=FACE_BOUND('',#285,.T.);
#232=FACE_BOUND('',#286,.T.);
#233=FACE_BOUND('',#287,.T.);
#234=FACE_BOUND('',#288,.T.);
#235=FACE_BOUND('',#289,.T.);
#236=FACE_BOUND('',#290,.T.);
#237=FACE_BOUND('',#291,.T.);
#238=FACE_BOUND('',#292,.T.);
#239=FACE_BOUND('',#293,.T.);
#240=FACE_BOUND('',#294,.T.);
#241=FACE_BOUND('',#295,.T.);
#242=FACE_BOUND('',#296,.T.);
#243=FACE_BOUND('',#297,.T.);
#244=FACE_BOUND('',#298,.T.);
#245=FACE_BOUND('',#299,.T.);
#246=FACE_BOUND('',#300,.T.);
#247=FACE_BOUND('',#301,.T.);
#248=FACE_BOUND('',#302,.T.);
#249=FACE_BOUND('',#303,.T.);
#250=FACE_BOUND('',#304,.T.);
#251=FACE_BOUND('',#305,.T.);
#252=EDGE_LOOP('',(#306));
#253=EDGE_LOOP('',(#307));
#254=EDGE_LOOP('',(#308));
#255=EDGE_LOOP('',(#309));
#256=EDGE_LOOP('',(#310));
#257=EDGE_LOOP('',(#311));
#258=EDGE_LOOP('',(#312));
#259=EDGE_LOOP('',(#313));
#260=EDGE_LOOP('',(#314));
#261=EDGE_LOOP('',(#315));
#262=EDGE_LOOP('',(#316));
#263=EDGE_LOOP('',(#317));
#264=EDGE_LOOP('',(#318));
#265=EDGE_LOOP('',(#319));
#266=EDGE_LOOP('',(#320));
#267=EDGE_LOOP('',(#321));
#268=EDGE_LOOP('',(#322));
#269=EDGE_LOOP('',(#323));
#270=EDGE_LOOP('',(#324));
#271=EDGE_LOOP('',(#325));
#272=EDGE_LOOP('',(#326));
#273=EDGE_LOOP('',(#327));
#274=EDGE_LOOP('',(#328));
#275=EDGE_LOOP('',(#329));
#276=EDGE_LOOP('',(#330));
#277=EDGE_LOOP('',(#331));
#278=EDGE_LOOP('',(#332));
#279=EDGE_LOOP('',(#333));
#280=EDGE_LOOP('',(#334));
#281=EDGE_LOOP('',(#335));
#282=EDGE_LOOP('',(#336));
#283=EDGE_LOOP('',(#337));
#284=EDGE_LOOP('',(#338));
#285=EDGE_LOOP('',(#339));
#286=EDGE_LOOP('',(#340));
#287=EDGE_LOOP('',(#341));
#288=EDGE_LOOP('',(#342));
#289=EDGE_LOOP('',(#343));
#290=EDGE_LOOP('',(#344));
#291=EDGE_LOOP('',(#345));
#292=EDGE_LOOP('',(#346));
#293=EDGE_LOOP('',(#347));
#294=EDGE_LOOP('',(#348));
#295=EDGE_LOOP('',(#349));
#296=EDGE_LOOP('',(#350));
#297=EDGE_LOOP('',(#351));
#298=EDGE_LOOP('',(#352));
#299=EDGE_LOOP('',(#353));
#300=EDGE_LOOP('',(#354));
#301=EDGE_LOOP('',(#355));
#302=EDGE_LOOP('',(#356));
#303=EDGE_LOOP('',(#357));
#304=EDGE_LOOP('',(#358));
#305=EDGE_LOOP('',(#359));
#306=ORIENTED_EDGE('',*,*,#387,.F.);
#307=ORIENTED_EDGE('',*,*,#388,.T.);
#308=ORIENTED_EDGE('',*,*,#388,.F.);
#309=ORIENTED_EDGE('',*,*,#389,.T.);
#310=ORIENTED_EDGE('',*,*,#389,.F.);
#311=ORIENTED_EDGE('',*,*,#390,.T.);
#312=ORIENTED_EDGE('',*,*,#390,.F.);
#313=ORIENTED_EDGE('',*,*,#391,.T.);
#314=ORIENTED_EDGE('',*,*,#391,.F.);
#315=ORIENTED_EDGE('',*,*,#392,.T.);
#316=ORIENTED_EDGE('',*,*,#392,.F.);
#317=ORIENTED_EDGE('',*,*,#393,.T.);
#318=ORIENTED_EDGE('',*,*,#393,.F.);
#319=ORIENTED_EDGE('',*,*,#394,.T.);
#320=ORIENTED_EDGE('',*,*,#394,.F.);
#321=ORIENTED_EDGE('',*,*,#395,.T.);
#322=ORIENTED_EDGE('',*,*,#395,.F.);
#323=ORIENTED_EDGE('',*,*,#396,.T.);
#324=ORIENTED_EDGE('',*,*,#396,.F.);
#325=ORIENTED_EDGE('',*,*,#397,.T.);
#326=ORIENTED_EDGE('',*,*,#397,.F.);
#327=ORIENTED_EDGE('',*,*,#398,.T.);
#328=ORIENTED_EDGE('',*,*,#398,.F.);
#329=ORIENTED_EDGE('',*,*,#387,.T.);
#330=ORIENTED_EDGE('',*,*,#399,.F.);
#331=ORIENTED_EDGE('',*,*,#400,.T.);
#332=ORIENTED_EDGE('',*,*,#401,.F.);
#333=ORIENTED_EDGE('',*,*,#399,.T.);
#334=ORIENTED_EDGE('',*,*,#402,.F.);
#335=ORIENTED_EDGE('',*,*,#401,.T.);
#336=ORIENTED_EDGE('',*,*,#403,.F.);
#337=ORIENTED_EDGE('',*,*,#402,.T.);
#338=ORIENTED_EDGE('',*,*,#404,.F.);
#339=ORIENTED_EDGE('',*,*,#403,.T.);
#340=ORIENTED_EDGE('',*,*,#405,.F.);
#341=ORIENTED_EDGE('',*,*,#404,.T.);
#342=ORIENTED_EDGE('',*,*,#406,.F.);
#343=ORIENTED_EDGE('',*,*,#405,.T.);
#344=ORIENTED_EDGE('',*,*,#407,.F.);
#345=ORIENTED_EDGE('',*,*,#406,.T.);
#346=ORIENTED_EDGE('',*,*,#408,.F.);
#347=ORIENTED_EDGE('',*,*,#407,.T.);
#348=ORIENTED_EDGE('',*,*,#409,.F.);
#349=ORIENTED_EDGE('',*,*,#408,.T.);
#350=ORIENTED_EDGE('',*,*,#410,.F.);
#351=ORIENTED_EDGE('',*,*,#409,.T.);
#352=ORIENTED_EDGE('',*,*,#411,.F.);
#353=ORIENTED_EDGE('',*,*,#410,.T.);
#354=ORIENTED_EDGE('',*,*,#412,.F.);
#355=ORIENTED_EDGE('',*,*,#411,.T.);
#356=ORIENTED_EDGE('',*,*,#413,.F.);
#357=ORIENTED_EDGE('',*,*,#412,.T.);
#358=ORIENTED_EDGE('',*,*,#400,.F.);
#359=ORIENTED_EDGE('',*,*,#413,.T.);
#360=VERTEX_POINT('',#614);
#361=VERTEX_POINT('',#616);
#362=VERTEX_POINT('',#620);
#363=VERTEX_POINT('',#623);
#364=VERTEX_POINT('',#626);
#365=VERTEX_POINT('',#629);
#366=VERTEX_POINT('',#632);
#367=VERTEX_POINT('',#635);
#368=VERTEX_POINT('',#638);
#369=VERTEX_POINT('',#641);
#370=VERTEX_POINT('',#644);
#371=VERTEX_POINT('',#647);
#372=VERTEX_POINT('',#651);
#373=VERTEX_POINT('',#653);
#374=VERTEX_POINT('',#656);
#375=VERTEX_POINT('',#660);
#376=VERTEX_POINT('',#663);
#377=VERTEX_POINT('',#666);
#378=VERTEX_POINT('',#669);
#379=VERTEX_POINT('',#672);
#380=VERTEX_POINT('',#676);
#381=VERTEX_POINT('',#679);
#382=VERTEX_POINT('',#682);
#383=VERTEX_POINT('',#685);
#384=VERTEX_POINT('',#688);
#385=VERTEX_POINT('',#692);
#386=VERTEX_POINT('',#695);
#387=EDGE_CURVE('',#360,#360,#414,.T.);
#388=EDGE_CURVE('',#361,#361,#415,.T.);
#389=EDGE_CURVE('',#362,#362,#416,.T.);
#390=EDGE_CURVE('',#363,#363,#417,.T.);
#391=EDGE_CURVE('',#364,#364,#418,.T.);
#392=EDGE_CURVE('',#365,#365,#419,.T.);
#393=EDGE_CURVE('',#366,#366,#420,.T.);
#394=EDGE_CURVE('',#367,#367,#421,.T.);
#395=EDGE_CURVE('',#368,#368,#422,.T.);
#396=EDGE_CURVE('',#369,#369,#423,.T.);
#397=EDGE_CURVE('',#370,#370,#424,.T.);
#398=EDGE_CURVE('',#371,#371,#425,.T.);
#399=EDGE_CURVE('',#372,#372,#426,.T.);
#400=EDGE_CURVE('',#373,#373,#427,.T.);
#401=EDGE_CURVE('',#374,#374,#428,.T.);
#402=EDGE_CURVE('',#375,#375,#429,.T.);
#403=EDGE_CURVE('',#376,#376,#430,.T.);
#404=EDGE_CURVE('',#377,#377,#431,.T.);
#405=EDGE_CURVE('',#378,#378,#432,.T.);
#406=EDGE_CURVE('',#379,#379,#433,.T.);
#407=EDGE_CURVE('',#380,#380,#434,.T.);
#408=EDGE_CURVE('',#381,#381,#435,.T.);
#409=EDGE_CURVE('',#382,#382,#436,.T.);
#410=EDGE_CURVE('',#383,#383,#437,.T.);
#411=EDGE_CURVE('',#384,#384,#438,.T.);
#412=EDGE_CURVE('',#385,#385,#439,.T.);
#413=EDGE_CURVE('',#386,#386,#440,.T.);
#414=CIRCLE('',#442,19.75);
#415=CIRCLE('',#443,18.75);
#416=CIRCLE('',#446,5.76493550542895);
#417=CIRCLE('',#448,6.17096619579751);
#418=CIRCLE('',#450,10.5558703499424);
#419=CIRCLE('',#452,12.9190646812334);
#420=CIRCLE('',#454,17.908120603957);
#421=CIRCLE('',#456,19.15);
#422=CIRCLE('',#458,19.15);
#423=CIRCLE('',#460,20.);
#424=CIRCLE('',#462,20.);
#425=CIRCLE('',#464,19.75);
#426=CIRCLE('',#467,19.214249941454);
#427=CIRCLE('',#468,17.5884050063229);
#428=CIRCLE('',#470,19.9999145714005);
#429=CIRCLE('',#472,19.9444498713515);
#430=CIRCLE('',#474,18.1423667697063);
#431=CIRCLE('',#476,18.0010786338588);
#432=CIRCLE('',#478,17.2905533905733);
#433=CIRCLE('',#480,16.2042089357343);
#434=CIRCLE('',#482,9.75927816653657);
#435=CIRCLE('',#484,7.4573553831597);
#436=CIRCLE('',#486,7.174948147811);
#437=CIRCLE('',#488,6.26669298053967);
#438=CIRCLE('',#490,6.45615547481532);
#439=CIRCLE('',#492,11.9582286902643);
#440=CIRCLE('',#494,16.0622345752863);
#441=AXIS2_PLACEMENT_3D('',#612,#497,#498);
#442=AXIS2_PLACEMENT_3D('',#613,#499,#500);
#443=AXIS2_PLACEMENT_3D('',#615,#501,#502);
#444=AXIS2_PLACEMENT_3D('',#617,#503,#504);
#445=AXIS2_PLACEMENT_3D('',#618,#505,#506);
#446=AXIS2_PLACEMENT_3D('',#619,#507,#508);
#447=AXIS2_PLACEMENT_3D('',#621,#509,#510);
#448=AXIS2_PLACEMENT_3D('',#622,#511,#512);
#449=AXIS2_PLACEMENT_3D('',#624,#513,#514);
#450=AXIS2_PLACEMENT_3D('',#625,#515,#516);
#451=AXIS2_PLACEMENT_3D('',#627,#517,#518);
#452=AXIS2_PLACEMENT_3D('',#628,#519,#520);
#453=AXIS2_PLACEMENT_3D('',#630,#521,#522);
#454=AXIS2_PLACEMENT_3D('',#631,#523,#524);
#455=AXIS2_PLACEMENT_3D('',#633,#525,#526);
#456=AXIS2_PLACEMENT_3D('',#634,#527,#528);
#457=AXIS2_PLACEMENT_3D('',#636,#529,#530);
#458=AXIS2_PLACEMENT_3D('',#637,#531,#532);
#459=AXIS2_PLACEMENT_3D('',#639,#533,#534);
#460=AXIS2_PLACEMENT_3D('',#640,#535,#536);
#461=AXIS2_PLACEMENT_3D('',#642,#537,#538);
#462=AXIS2_PLACEMENT_3D('',#643,#539,#540);
#463=AXIS2_PLACEMENT_3D('',#645,#541,#542);
#464=AXIS2_PLACEMENT_3D('',#646,#543,#544);
#465=AXIS2_PLACEMENT_3D('',#648,#545,#546);
#466=AXIS2_PLACEMENT_3D('',#649,#547,#548);
#467=AXIS2_PLACEMENT_3D('',#650,#549,#550);
#468=AXIS2_PLACEMENT_3D('',#652,#551,#552);
#469=AXIS2_PLACEMENT_3D('',#654,#553,#554);
#470=AXIS2_PLACEMENT_3D('',#655,#555,#556);
#471=AXIS2_PLACEMENT_3D('',#657,#557,#558);
#472=AXIS2_PLACEMENT_3D('',#659,#560,#561);
#473=AXIS2_PLACEMENT_3D('',#661,#562,#563);
#474=AXIS2_PLACEMENT_3D('',#662,#564,#565);
#475=AXIS2_PLACEMENT_3D('',#664,#566,#567);
#476=AXIS2_PLACEMENT_3D('',#665,#568,#569);
#477=AXIS2_PLACEMENT_3D('',#667,#570,#571);
#478=AXIS2_PLACEMENT_3D('',#668,#572,#573);
#479=AXIS2_PLACEMENT_3D('',#670,#574,#575);
#480=AXIS2_PLACEMENT_3D('',#671,#576,#577);
#481=AXIS2_PLACEMENT_3D('',#673,#578,#579);
#482=AXIS2_PLACEMENT_3D('',#675,#581,#582);
#483=AXIS2_PLACEMENT_3D('',#677,#583,#584);
#484=AXIS2_PLACEMENT_3D('',#678,#585,#586);
#485=AXIS2_PLACEMENT_3D('',#680,#587,#588);
#486=AXIS2_PLACEMENT_3D('',#681,#589,#590);
#487=AXIS2_PLACEMENT_3D('',#683,#591,#592);
#488=AXIS2_PLACEMENT_3D('',#684,#593,#594);
#489=AXIS2_PLACEMENT_3D('',#686,#595,#596);
#490=AXIS2_PLACEMENT_3D('',#687,#597,#598);
#491=AXIS2_PLACEMENT_3D('',#689,#599,#600);
#492=AXIS2_PLACEMENT_3D('',#691,#602,#603);
#493=AXIS2_PLACEMENT_3D('',#693,#604,#605);
#494=AXIS2_PLACEMENT_3D('',#694,#606,#607);
#495=AXIS2_PLACEMENT_3D('',#696,#608,#609);
#496=AXIS2_PLACEMENT_3D('',#697,#610,#611);
#497=DIRECTION('',(0.,0.,1.));
#498=DIRECTION('',(1.,0.,0.));
#499=DIRECTION('',(-1.,0.,0.));
#500=DIRECTION('',(0.,0.,1.));
#501=DIRECTION('',(-1.,0.,0.));
#502=DIRECTION('',(0.,0.,1.));
#503=DIRECTION('',(-1.,0.,0.));
#504=DIRECTION('',(0.,0.,1.));
#505=DIRECTION('',(-1.,0.,0.));
#506=DIRECTION('',(0.,0.,1.));
#507=DIRECTION('',(-1.,0.,0.));
#508=DIRECTION('',(0.,0.,1.));
#509=DIRECTION('',(1.,0.,0.));
#510=DIRECTION('',(0.,0.,-1.));
#511=DIRECTION('',(-1.,0.,0.));
#512=DIRECTION('',(0.,0.,1.));
#513=DIRECTION('',(-1.,0.,0.));
#514=DIRECTION('',(0.,0.,1.));
#515=DIRECTION('',(-1.,0.,0.));
#516=DIRECTION('',(0.,0.,1.));
#517=DIRECTION('',(-1.,0.,0.));
#518=DIRECTION('',(1.14245534224157E-17,0.,1.));
#519=DIRECTION('',(-1.,0.,0.));
#520=DIRECTION('',(0.,0.,1.));
#521=DIRECTION('',(-1.,0.,0.));
#522=DIRECTION('',(0.,0.,1.));
#523=DIRECTION('',(-1.,0.,0.));
#524=DIRECTION('',(0.,0.,1.));
#525=DIRECTION('',(-1.,0.,0.));
#526=DIRECTION('',(-1.88430809156873E-18,0.,1.));
#527=DIRECTION('',(-1.,0.,0.));
#528=DIRECTION('',(0.,0.,1.));
#529=DIRECTION('',(-1.,0.,0.));
#530=DIRECTION('',(0.,0.,1.));
#531=DIRECTION('',(-1.,0.,0.));
#532=DIRECTION('',(0.,0.,1.));
#533=DIRECTION('',(-1.,0.,0.));
#534=DIRECTION('',(0.,0.,1.));
#535=DIRECTION('',(-1.,0.,0.));
#536=DIRECTION('',(0.,0.,1.));
#537=DIRECTION('',(1.,0.,0.));
#538=DIRECTION('',(5.808061251333E-17,0.,-1.));
#539=DIRECTION('',(-1.,0.,0.));
#540=DIRECTION('',(0.,0.,1.));
#541=DIRECTION('',(-1.,0.,0.));
#542=DIRECTION('',(0.,0.,1.));
#543=DIRECTION('',(-1.,0.,0.));
#544=DIRECTION('',(0.,0.,1.));
#545=DIRECTION('',(-1.,0.,0.));
#546=DIRECTION('',(-7.07772414572643E-17,0.,1.));
#547=DIRECTION('',(-1.,0.,0.));
#548=DIRECTION('',(0.,0.,1.));
#549=DIRECTION('',(1.,0.,0.));
#550=DIRECTION('',(0.,0.,-1.));
#551=DIRECTION('',(1.,0.,0.));
#552=DIRECTION('',(0.,0.,-1.));
#553=DIRECTION('',(-1.,0.,0.));
#554=DIRECTION('',(-1.97331110311368E-18,0.,1.));
#555=DIRECTION('',(1.,0.,0.));
#556=DIRECTION('',(0.,0.,-1.));
#557=DIRECTION('',(0.,0.,1.));
#558=DIRECTION('',(-0.988191646021681,-0.153222944538217,0.));
#559=DIRECTION('',(1.,0.,0.));
#560=DIRECTION('',(1.,0.,0.));
#561=DIRECTION('',(0.,0.,-1.));
#562=DIRECTION('',(-1.,0.,0.));
#563=DIRECTION('',(1.25559887930179E-15,0.,1.));
#564=DIRECTION('',(1.,0.,0.));
#565=DIRECTION('',(0.,0.,-1.));
#566=DIRECTION('',(-1.,0.,0.));
#567=DIRECTION('',(4.17186752139392E-17,0.,1.));
#568=DIRECTION('',(1.,0.,0.));
#569=DIRECTION('',(0.,0.,-1.));
#570=DIRECTION('',(-1.,0.,0.));
#571=DIRECTION('',(-2.4125284518424E-16,0.,1.));
#572=DIRECTION('',(1.,0.,0.));
#573=DIRECTION('',(0.,0.,-1.));
#574=DIRECTION('',(-1.,0.,0.));
#575=DIRECTION('',(0.,0.,1.));
#576=DIRECTION('',(1.,0.,0.));
#577=DIRECTION('',(0.,0.,-1.));
#578=DIRECTION('',(0.,0.,1.));
#579=DIRECTION('',(0.526502691518023,-0.850173462197144,0.));
#580=DIRECTION('',(1.,0.,0.));
#581=DIRECTION('',(1.,0.,0.));
#582=DIRECTION('',(0.,0.,-1.));
#583=DIRECTION('',(1.,0.,0.));
#584=DIRECTION('',(-2.88662494614902E-17,0.,-1.));
#585=DIRECTION('',(1.,0.,0.));
#586=DIRECTION('',(0.,0.,-1.));
#587=DIRECTION('',(1.,0.,0.));
#588=DIRECTION('',(-1.12145352064628E-16,0.,-1.));
#589=DIRECTION('',(1.,0.,0.));
#590=DIRECTION('',(0.,0.,-1.));
#591=DIRECTION('',(1.,0.,0.));
#592=DIRECTION('',(-3.88068444391396E-16,0.,-1.));
#593=DIRECTION('',(1.,0.,0.));
#594=DIRECTION('',(0.,0.,-1.));
#595=DIRECTION('',(1.,0.,0.));
#596=DIRECTION('',(5.3788521818276E-17,0.,-1.));
#597=DIRECTION('',(1.,0.,0.));
#598=DIRECTION('',(0.,0.,-1.));
#599=DIRECTION('',(0.,0.,1.));
#600=DIRECTION('',(-0.910115030776623,0.414355681455517,0.));
#601=DIRECTION('',(1.,0.,0.));
#602=DIRECTION('',(1.,0.,0.));
#603=DIRECTION('',(0.,0.,-1.));
#604=DIRECTION('',(-1.,0.,0.));
#605=DIRECTION('',(-2.62835836274808E-17,0.,1.));
#606=DIRECTION('',(1.,0.,0.));
#607=DIRECTION('',(0.,0.,-1.));
#608=DIRECTION('',(-1.,0.,0.));
#609=DIRECTION('',(-8.35042606255932E-19,0.,1.));
#610=DIRECTION('',(-1.,0.,0.));
#611=DIRECTION('',(-4.39427237649833E-18,0.,1.));
#612=CARTESIAN_POINT('',(0.,0.,0.));
#613=CARTESIAN_POINT('',(109.,0.,0.));
#614=CARTESIAN_POINT('',(109.,0.,19.75));
#615=CARTESIAN_POINT('',(110.,0.,0.));
#616=CARTESIAN_POINT('',(110.,0.,18.75));
#617=CARTESIAN_POINT('',(109.,0.,0.));
#618=CARTESIAN_POINT('',(110.,0.,0.));
#619=CARTESIAN_POINT('',(4.5,0.,0.));
#620=CARTESIAN_POINT('',(4.5,0.,5.76493550542895));
#621=CARTESIAN_POINT('',(4.5,5.76493550542895,0.));
#622=CARTESIAN_POINT('',(4.38930332835322,0.,0.));
#623=CARTESIAN_POINT('',(4.38930332835322,0.,6.17096619579751));
#624=CARTESIAN_POINT('',(3.7,0.,0.));
#625=CARTESIAN_POINT('',(1.80639738887243,0.,0.));
#626=CARTESIAN_POINT('',(1.80639738887243,0.,10.5558703499424));
#627=CARTESIAN_POINT('',(1.80639738887243,0.,0.));
#628=CARTESIAN_POINT('',(1.11758905598459,0.,0.));
#629=CARTESIAN_POINT('',(1.11758905598459,0.,12.9190646812334));
#630=CARTESIAN_POINT('',(6.11454319108007,0.,0.));
#631=CARTESIAN_POINT('',(0.943367384125758,0.,0.));
#632=CARTESIAN_POINT('',(0.943367384125758,0.,17.908120603957));
#633=CARTESIAN_POINT('',(0.943367384125758,0.,0.));
#634=CARTESIAN_POINT('',(2.14263637654867,0.,0.));
#635=CARTESIAN_POINT('',(2.14263637654867,0.,19.15));
#636=CARTESIAN_POINT('',(2.14263637654867,0.,0.));
#637=CARTESIAN_POINT('',(38.5277568135665,0.,0.));
#638=CARTESIAN_POINT('',(38.5277568135665,0.,19.15));
#639=CARTESIAN_POINT('',(0.,0.,0.));
#640=CARTESIAN_POINT('',(40.,0.,0.));
#641=CARTESIAN_POINT('',(40.,0.,20.));
#642=CARTESIAN_POINT('',(40.,0.,0.));
#643=CARTESIAN_POINT('',(104.582179545096,0.,0.));
#644=CARTESIAN_POINT('',(104.582179545096,0.,20.));
#645=CARTESIAN_POINT('',(0.,0.,0.));
#646=CARTESIAN_POINT('',(106.,0.,0.));
#647=CARTESIAN_POINT('',(106.,0.,19.75));
#648=CARTESIAN_POINT('',(106.,0.,0.));
#649=CARTESIAN_POINT('',(0.,0.,0.));
#650=CARTESIAN_POINT('',(1.96426902521196E-9,0.,0.));
#651=CARTESIAN_POINT('',(1.96426902521196E-9,0.,-19.214249941454));
#652=CARTESIAN_POINT('',(0.0660992976003125,0.,0.));
#653=CARTESIAN_POINT('',(0.0660992976003125,0.,-17.5884050063229));
#654=CARTESIAN_POINT('',(0.0660992976003125,0.,0.));
#655=CARTESIAN_POINT('',(0.802481513962859,0.,0.));
#656=CARTESIAN_POINT('',(0.802481513962859,0.,-19.9999145714005));
#657=CARTESIAN_POINT('',(0.809420582412276,-19.231145656515,0.));
#658=CARTESIAN_POINT('',(40.,0.,0.));
#659=CARTESIAN_POINT('',(8.0699685273212,0.,0.));
#660=CARTESIAN_POINT('',(8.0699685273212,0.,-19.9444498713515));
#661=CARTESIAN_POINT('',(0.802481513962859,0.,0.));
#662=CARTESIAN_POINT('',(11.8318863540669,0.,0.));
#663=CARTESIAN_POINT('',(11.8318863540669,0.,-18.1423667697063));
#664=CARTESIAN_POINT('',(8.0699685273212,0.,0.));
#665=CARTESIAN_POINT('',(12.7467923713731,0.,0.));
#666=CARTESIAN_POINT('',(12.7467923713731,0.,-18.0010786338588));
#667=CARTESIAN_POINT('',(11.8318863540669,0.,0.));
#668=CARTESIAN_POINT('',(14.2340137985106,0.,0.));
#669=CARTESIAN_POINT('',(14.2340137985106,0.,-17.2905533905733));
#670=CARTESIAN_POINT('',(12.7467923713731,0.,0.));
#671=CARTESIAN_POINT('',(14.5703315512161,0.,0.));
#672=CARTESIAN_POINT('',(14.5703315512161,0.,-16.2042089357343));
#673=CARTESIAN_POINT('',(13.8782518879182,-16.561826828741,0.));
#674=CARTESIAN_POINT('',(40.,0.,0.));
#675=CARTESIAN_POINT('',(11.1904351204667,0.,0.));
#676=CARTESIAN_POINT('',(11.1904351204667,0.,-9.75927816653657));
#677=CARTESIAN_POINT('',(14.5703315512161,0.,0.));
#678=CARTESIAN_POINT('',(7.59322483579937,0.,0.));
#679=CARTESIAN_POINT('',(7.59322483579937,0.,-7.4573553831597));
#680=CARTESIAN_POINT('',(11.1904351204667,0.,0.));
#681=CARTESIAN_POINT('',(6.43043760434577,0.,0.));
#682=CARTESIAN_POINT('',(6.43043760434577,0.,-7.174948147811));
#683=CARTESIAN_POINT('',(7.59322483579937,0.,0.));
#684=CARTESIAN_POINT('',(5.00648591887589,0.,0.));
#685=CARTESIAN_POINT('',(5.00648591887589,0.,-6.26669298053967));
#686=CARTESIAN_POINT('',(6.43043760434577,0.,0.));
#687=CARTESIAN_POINT('',(3.9122325306719,0.,0.));
#688=CARTESIAN_POINT('',(3.9122325306719,0.,-6.45615547481532));
#689=CARTESIAN_POINT('',(4.59737312552029,-6.86730649669411,0.));
#690=CARTESIAN_POINT('',(40.,0.,0.));
#691=CARTESIAN_POINT('',(0.424499952011569,0.,0.));
#692=CARTESIAN_POINT('',(0.424499952011569,0.,-11.9582286902643));
#693=CARTESIAN_POINT('',(3.9122325306719,0.,0.));
#694=CARTESIAN_POINT('',(0.259792409933159,0.,0.));
#695=CARTESIAN_POINT('',(0.259792409933159,0.,-16.0622345752863));
#696=CARTESIAN_POINT('',(0.424499952011569,0.,0.));
#697=CARTESIAN_POINT('',(0.259792409933159,0.,0.));
#698=(
GEOMETRIC_REPRESENTATION_CONTEXT(3)
GLOBAL_UNCERTAINTY_ASSIGNED_CONTEXT((#699))
GLOBAL_UNIT_ASSIGNED_CONTEXT((#705,#701,#700))
REPRESENTATION_CONTEXT('AEM90-WNG08-D40-W40-L110-Z03-H',
'TOP_LEVEL_ASSEMBLY_PART')
);
#699=UNCERTAINTY_MEASURE_WITH_UNIT(LENGTH_MEASURE(2.E-5),#705,
'DISTANCE_ACCURACY_VALUE','Maximum Tolerance applied to model');
#700=(
NAMED_UNIT(*)
SI_UNIT($,.STERADIAN.)
SOLID_ANGLE_UNIT()
);
#701=(
CONVERSION_BASED_UNIT('DEGREE',#703)
NAMED_UNIT(#702)
PLANE_ANGLE_UNIT()
);
#702=DIMENSIONAL_EXPONENTS(0.,0.,0.,0.,0.,0.,0.);
#703=PLANE_ANGLE_MEASURE_WITH_UNIT(PLANE_ANGLE_MEASURE(0.0174532925),#704);
#704=(
NAMED_UNIT(*)
PLANE_ANGLE_UNIT()
SI_UNIT($,.RADIAN.)
);
#705=(
LENGTH_UNIT()
NAMED_UNIT(*)
SI_UNIT(.MILLI.,.METRE.)
);
ENDSEC;
END-ISO-10303-21;
