ISO-10303-21;
HEADER;
/* Generated by software containing ST-Developer
 * from STEP Tools, Inc. (www.steptools.com) 
 */
/* OPTION: using custom schema-name function */

FILE_DESCRIPTION(
/* description */ (''),
/* implementation_level */ '2;1');

FILE_NAME(
/* name */ 'AEM90-XO09-D20-W20-L150-Z03.stp',
/* time_stamp */ '2023-10-27T14:43:53+03:00',
/* author */ (''),
/* organization */ (''),
/* preprocessor_version */ 'ST-DEVELOPER v19.4',
/* originating_system */ 'SIEMENS PLM Software NX2306.3001',
/* authorisation */ '');

FILE_SCHEMA (('AUTOMOTIVE_DESIGN { 1 0 10303 214 3 1 1 1 }'));
ENDSEC;

DATA;
#10=SHAPE_REPRESENTATION_RELATIONSHIP('None',
'relationship between AEM90-XO09-D20-W20-L150-Z03-None and AEM90-XO09-
D20-W20-L150-Z03-None',#22,#11);
#11=ADVANCED_BREP_SHAPE_REPRESENTATION(
'AEM90-XO09-D20-W20-L150-Z03-None',(#174,#175),#670);
#12=SHAPE_DEFINITION_REPRESENTATION(#13,#22);
#13=PRODUCT_DEFINITION_SHAPE('','',#14);
#14=PRODUCT_DEFINITION(' ','',#16,#15);
#15=PRODUCT_DEFINITION_CONTEXT('part definition',#21,'design');
#16=PRODUCT_DEFINITION_FORMATION_WITH_SPECIFIED_SOURCE(' ',' ',#18,
 .NOT_KNOWN.);
#17=PRODUCT_RELATED_PRODUCT_CATEGORY('part','',(#18));
#18=PRODUCT('AEM90-XO09-D20-W20-L150-Z03','AEM90-XO09-D20-W20-L150-Z03',
' ',(#19));
#19=PRODUCT_CONTEXT(' ',#21,'mechanical');
#20=APPLICATION_PROTOCOL_DEFINITION('international standard',
'automotive_design',2010,#21);
#21=APPLICATION_CONTEXT(
'core data for automotive mechanical design processes');
#22=SHAPE_REPRESENTATION('AEM90-XO09-D20-W20-L150-Z03-None',(#432),#670);
#23=DRAUGHTING_PRE_DEFINED_COLOUR('yellow');
#24=B_SPLINE_CURVE_WITH_KNOTS('',3,(#617,#618,#619,#620,#621),
 .UNSPECIFIED.,.F.,.F.,(4,1,4),(0.,0.5,1.),.UNSPECIFIED.);
#25=B_SPLINE_CURVE_WITH_KNOTS('',3,(#651,#652,#653,#654,#655),
 .UNSPECIFIED.,.F.,.F.,(4,1,4),(0.,0.5,1.),.UNSPECIFIED.);
#26=(
BOUNDED_CURVE()
B_SPLINE_CURVE(3,(#610,#611,#612,#613),.UNSPECIFIED.,.F.,.F.)
B_SPLINE_CURVE_WITH_KNOTS((4,4),(0.,1.),.UNSPECIFIED.)
CURVE()
GEOMETRIC_REPRESENTATION_ITEM()
RATIONAL_B_SPLINE_CURVE((0.58469509338807,0.471768302203977,0.471768302203977,
0.58469509338807))
REPRESENTATION_ITEM('')
);
#27=(
BOUNDED_CURVE()
B_SPLINE_CURVE(3,(#625,#626,#627,#628),.UNSPECIFIED.,.F.,.F.)
B_SPLINE_CURVE_WITH_KNOTS((4,4),(0.,1.),.UNSPECIFIED.)
CURVE()
GEOMETRIC_REPRESENTATION_ITEM()
RATIONAL_B_SPLINE_CURVE((0.569455825991322,0.476848058002893,0.476848058002893,
0.569455825991322))
REPRESENTATION_ITEM('')
);
#28=(
BOUNDED_CURVE()
B_SPLINE_CURVE(3,(#644,#645,#646,#647),.UNSPECIFIED.,.F.,.F.)
B_SPLINE_CURVE_WITH_KNOTS((4,4),(0.,1.),.UNSPECIFIED.)
CURVE()
GEOMETRIC_REPRESENTATION_ITEM()
RATIONAL_B_SPLINE_CURVE((0.58469509338807,0.471768302203977,0.471768302203977,
0.58469509338807))
REPRESENTATION_ITEM('')
);
#29=(
BOUNDED_CURVE()
B_SPLINE_CURVE(3,(#659,#660,#661,#662),.UNSPECIFIED.,.F.,.F.)
B_SPLINE_CURVE_WITH_KNOTS((4,4),(0.,1.),.UNSPECIFIED.)
CURVE()
GEOMETRIC_REPRESENTATION_ITEM()
RATIONAL_B_SPLINE_CURVE((0.569455825991326,0.476848058002891,0.476848058002891,
0.569455825991326))
REPRESENTATION_ITEM('')
);
#30=SURFACE_OF_REVOLUTION('',#54,#42);
#31=SURFACE_OF_REVOLUTION('',#26,#43);
#32=SURFACE_OF_REVOLUTION('',#24,#44);
#33=SURFACE_OF_REVOLUTION('',#27,#45);
#34=SURFACE_OF_REVOLUTION('',#55,#46);
#35=SURFACE_OF_REVOLUTION('',#56,#47);
#36=SURFACE_OF_REVOLUTION('',#57,#48);
#37=SURFACE_OF_REVOLUTION('',#28,#49);
#38=SURFACE_OF_REVOLUTION('',#25,#50);
#39=SURFACE_OF_REVOLUTION('',#29,#51);
#40=SURFACE_OF_REVOLUTION('',#58,#52);
#41=SURFACE_OF_REVOLUTION('',#59,#53);
#42=AXIS1_PLACEMENT('',#607,#527);
#43=AXIS1_PLACEMENT('',#614,#530);
#44=AXIS1_PLACEMENT('',#622,#533);
#45=AXIS1_PLACEMENT('',#629,#536);
#46=AXIS1_PLACEMENT('',#633,#540);
#47=AXIS1_PLACEMENT('',#637,#544);
#48=AXIS1_PLACEMENT('',#641,#548);
#49=AXIS1_PLACEMENT('',#648,#551);
#50=AXIS1_PLACEMENT('',#656,#554);
#51=AXIS1_PLACEMENT('',#663,#557);
#52=AXIS1_PLACEMENT('',#667,#561);
#53=AXIS1_PLACEMENT('',#669,#563);
#54=LINE('',#606,#60);
#55=LINE('',#632,#61);
#56=LINE('',#636,#62);
#57=LINE('',#640,#63);
#58=LINE('',#666,#64);
#59=LINE('',#668,#65);
#60=VECTOR('',#526,1.0425284055101);
#61=VECTOR('',#539,3.49225715102072);
#62=VECTOR('',#543,0.721233481889152);
#63=VECTOR('',#547,1.04252840551009);
#64=VECTOR('',#560,3.49225715102068);
#65=VECTOR('',#562,0.72123348188915);
#66=OVER_RIDING_STYLED_ITEM('',(#83),#190,#80);
#67=OVER_RIDING_STYLED_ITEM('',(#84),#191,#80);
#68=OVER_RIDING_STYLED_ITEM('',(#85),#192,#80);
#69=OVER_RIDING_STYLED_ITEM('',(#86),#193,#80);
#70=OVER_RIDING_STYLED_ITEM('',(#87),#194,#80);
#71=OVER_RIDING_STYLED_ITEM('',(#88),#195,#80);
#72=OVER_RIDING_STYLED_ITEM('',(#89),#196,#80);
#73=OVER_RIDING_STYLED_ITEM('',(#90),#197,#80);
#74=OVER_RIDING_STYLED_ITEM('',(#91),#198,#80);
#75=OVER_RIDING_STYLED_ITEM('',(#92),#199,#80);
#76=OVER_RIDING_STYLED_ITEM('',(#93),#200,#80);
#77=OVER_RIDING_STYLED_ITEM('',(#94),#201,#80);
#78=OVER_RIDING_STYLED_ITEM('',(#95),#202,#80);
#79=PRESENTATION_LAYER_ASSIGNMENT('1','Layer 1',(#174,#175));
#80=STYLED_ITEM('',(#82),#174);
#81=STYLED_ITEM('',(#96),#175);
#82=PRESENTATION_STYLE_ASSIGNMENT((#97));
#83=PRESENTATION_STYLE_ASSIGNMENT((#98));
#84=PRESENTATION_STYLE_ASSIGNMENT((#99));
#85=PRESENTATION_STYLE_ASSIGNMENT((#100));
#86=PRESENTATION_STYLE_ASSIGNMENT((#101));
#87=PRESENTATION_STYLE_ASSIGNMENT((#102));
#88=PRESENTATION_STYLE_ASSIGNMENT((#103));
#89=PRESENTATION_STYLE_ASSIGNMENT((#104));
#90=PRESENTATION_STYLE_ASSIGNMENT((#105));
#91=PRESENTATION_STYLE_ASSIGNMENT((#106));
#92=PRESENTATION_STYLE_ASSIGNMENT((#107));
#93=PRESENTATION_STYLE_ASSIGNMENT((#108));
#94=PRESENTATION_STYLE_ASSIGNMENT((#109));
#95=PRESENTATION_STYLE_ASSIGNMENT((#110));
#96=PRESENTATION_STYLE_ASSIGNMENT((#111));
#97=SURFACE_STYLE_USAGE(.BOTH.,#112);
#98=SURFACE_STYLE_USAGE(.BOTH.,#113);
#99=SURFACE_STYLE_USAGE(.BOTH.,#114);
#100=SURFACE_STYLE_USAGE(.BOTH.,#115);
#101=SURFACE_STYLE_USAGE(.BOTH.,#116);
#102=SURFACE_STYLE_USAGE(.BOTH.,#117);
#103=SURFACE_STYLE_USAGE(.BOTH.,#118);
#104=SURFACE_STYLE_USAGE(.BOTH.,#119);
#105=SURFACE_STYLE_USAGE(.BOTH.,#120);
#106=SURFACE_STYLE_USAGE(.BOTH.,#121);
#107=SURFACE_STYLE_USAGE(.BOTH.,#122);
#108=SURFACE_STYLE_USAGE(.BOTH.,#123);
#109=SURFACE_STYLE_USAGE(.BOTH.,#124);
#110=SURFACE_STYLE_USAGE(.BOTH.,#125);
#111=SURFACE_STYLE_USAGE(.BOTH.,#126);
#112=SURFACE_SIDE_STYLE('',(#127));
#113=SURFACE_SIDE_STYLE('',(#128));
#114=SURFACE_SIDE_STYLE('',(#129));
#115=SURFACE_SIDE_STYLE('',(#130));
#116=SURFACE_SIDE_STYLE('',(#131));
#117=SURFACE_SIDE_STYLE('',(#132));
#118=SURFACE_SIDE_STYLE('',(#133));
#119=SURFACE_SIDE_STYLE('',(#134));
#120=SURFACE_SIDE_STYLE('',(#135));
#121=SURFACE_SIDE_STYLE('',(#136));
#122=SURFACE_SIDE_STYLE('',(#137));
#123=SURFACE_SIDE_STYLE('',(#138));
#124=SURFACE_SIDE_STYLE('',(#139));
#125=SURFACE_SIDE_STYLE('',(#140));
#126=SURFACE_SIDE_STYLE('',(#141));
#127=SURFACE_STYLE_FILL_AREA(#142);
#128=SURFACE_STYLE_FILL_AREA(#143);
#129=SURFACE_STYLE_FILL_AREA(#144);
#130=SURFACE_STYLE_FILL_AREA(#145);
#131=SURFACE_STYLE_FILL_AREA(#146);
#132=SURFACE_STYLE_FILL_AREA(#147);
#133=SURFACE_STYLE_FILL_AREA(#148);
#134=SURFACE_STYLE_FILL_AREA(#149);
#135=SURFACE_STYLE_FILL_AREA(#150);
#136=SURFACE_STYLE_FILL_AREA(#151);
#137=SURFACE_STYLE_FILL_AREA(#152);
#138=SURFACE_STYLE_FILL_AREA(#153);
#139=SURFACE_STYLE_FILL_AREA(#154);
#140=SURFACE_STYLE_FILL_AREA(#155);
#141=SURFACE_STYLE_FILL_AREA(#156);
#142=FILL_AREA_STYLE('',(#157));
#143=FILL_AREA_STYLE('',(#158));
#144=FILL_AREA_STYLE('',(#159));
#145=FILL_AREA_STYLE('',(#160));
#146=FILL_AREA_STYLE('',(#161));
#147=FILL_AREA_STYLE('',(#162));
#148=FILL_AREA_STYLE('',(#163));
#149=FILL_AREA_STYLE('',(#164));
#150=FILL_AREA_STYLE('',(#165));
#151=FILL_AREA_STYLE('',(#166));
#152=FILL_AREA_STYLE('',(#167));
#153=FILL_AREA_STYLE('',(#168));
#154=FILL_AREA_STYLE('',(#169));
#155=FILL_AREA_STYLE('',(#170));
#156=FILL_AREA_STYLE('',(#171));
#157=FILL_AREA_STYLE_COLOUR('',#172);
#158=FILL_AREA_STYLE_COLOUR('',#173);
#159=FILL_AREA_STYLE_COLOUR('',#173);
#160=FILL_AREA_STYLE_COLOUR('',#173);
#161=FILL_AREA_STYLE_COLOUR('',#173);
#162=FILL_AREA_STYLE_COLOUR('',#173);
#163=FILL_AREA_STYLE_COLOUR('',#173);
#164=FILL_AREA_STYLE_COLOUR('',#173);
#165=FILL_AREA_STYLE_COLOUR('',#173);
#166=FILL_AREA_STYLE_COLOUR('',#173);
#167=FILL_AREA_STYLE_COLOUR('',#173);
#168=FILL_AREA_STYLE_COLOUR('',#173);
#169=FILL_AREA_STYLE_COLOUR('',#173);
#170=FILL_AREA_STYLE_COLOUR('',#173);
#171=FILL_AREA_STYLE_COLOUR('',#23);
#172=COLOUR_RGB('Medium Steel',0.611764705882353,0.658823529411765,0.670588235294118);
#173=COLOUR_RGB('silver gray',0.6,0.6,0.6);
#174=MANIFOLD_SOLID_BREP('',#176);
#175=MANIFOLD_SOLID_BREP('',#177);
#176=CLOSED_SHELL('',(#190,#191,#192,#193,#194,#195,#196,#197,#198,#199,
#200,#201,#202));
#177=CLOSED_SHELL('',(#203,#204,#205,#206,#207,#208,#209,#210,#211,#212,
#213,#214));
#178=PLANE('',#442);
#179=PLANE('',#444);
#180=PLANE('',#450);
#181=FACE_OUTER_BOUND('',#272,.T.);
#182=FACE_OUTER_BOUND('',#273,.T.);
#183=TOROIDAL_SURFACE('',#441,8.75,1.);
#184=TOROIDAL_SURFACE('',#446,3.7024615149207,2.);
#185=TOROIDAL_SURFACE('',#452,8.45130564110469,0.7);
#186=CONICAL_SURFACE('',#437,9.75,10.);
#187=CONICAL_SURFACE('',#448,7.4,82.0000000000004);
#188=CONICAL_SURFACE('',#454,9.5,3.50000000000022);
#189=CONICAL_SURFACE('',#457,10.,30.);
#190=ADVANCED_FACE('',(#218,#219),#215,.T.);
#191=ADVANCED_FACE('',(#220,#221),#186,.T.);
#192=ADVANCED_FACE('',(#222,#223),#216,.T.);
#193=ADVANCED_FACE('',(#224,#225),#183,.T.);
#194=ADVANCED_FACE('',(#181),#178,.F.);
#195=ADVANCED_FACE('',(#182),#179,.F.);
#196=ADVANCED_FACE('',(#226,#227),#184,.F.);
#197=ADVANCED_FACE('',(#228,#229),#187,.F.);
#198=ADVANCED_FACE('',(#230,#231),#180,.F.);
#199=ADVANCED_FACE('',(#232,#233),#185,.T.);
#200=ADVANCED_FACE('',(#234,#235),#188,.T.);
#201=ADVANCED_FACE('',(#236,#237),#217,.T.);
#202=ADVANCED_FACE('',(#238,#239),#189,.T.);
#203=ADVANCED_FACE('',(#240,#241),#30,.T.);
#204=ADVANCED_FACE('',(#242,#243),#31,.T.);
#205=ADVANCED_FACE('',(#244,#245),#32,.T.);
#206=ADVANCED_FACE('',(#246,#247),#33,.T.);
#207=ADVANCED_FACE('',(#248,#249),#34,.T.);
#208=ADVANCED_FACE('',(#250,#251),#35,.T.);
#209=ADVANCED_FACE('',(#252,#253),#36,.T.);
#210=ADVANCED_FACE('',(#254,#255),#37,.T.);
#211=ADVANCED_FACE('',(#256,#257),#38,.T.);
#212=ADVANCED_FACE('',(#258,#259),#39,.T.);
#213=ADVANCED_FACE('',(#260,#261),#40,.T.);
#214=ADVANCED_FACE('',(#262,#263),#41,.T.);
#215=CYLINDRICAL_SURFACE('',#435,10.);
#216=CYLINDRICAL_SURFACE('',#439,9.75);
#217=CYLINDRICAL_SURFACE('',#456,9.5);
#218=FACE_BOUND('',#264,.T.);
#219=FACE_BOUND('',#265,.T.);
#220=FACE_BOUND('',#266,.T.);
#221=FACE_BOUND('',#267,.T.);
#222=FACE_BOUND('',#268,.T.);
#223=FACE_BOUND('',#269,.T.);
#224=FACE_BOUND('',#270,.T.);
#225=FACE_BOUND('',#271,.T.);
#226=FACE_BOUND('',#274,.T.);
#227=FACE_BOUND('',#275,.T.);
#228=FACE_BOUND('',#276,.T.);
#229=FACE_BOUND('',#277,.T.);
#230=FACE_BOUND('',#278,.T.);
#231=FACE_BOUND('',#279,.T.);
#232=FACE_BOUND('',#280,.T.);
#233=FACE_BOUND('',#281,.T.);
#234=FACE_BOUND('',#282,.T.);
#235=FACE_BOUND('',#283,.T.);
#236=FACE_BOUND('',#284,.T.);
#237=FACE_BOUND('',#285,.T.);
#238=FACE_BOUND('',#286,.T.);
#239=FACE_BOUND('',#287,.T.);
#240=FACE_BOUND('',#288,.T.);
#241=FACE_BOUND('',#289,.T.);
#242=FACE_BOUND('',#290,.T.);
#243=FACE_BOUND('',#291,.T.);
#244=FACE_BOUND('',#292,.T.);
#245=FACE_BOUND('',#293,.T.);
#246=FACE_BOUND('',#294,.T.);
#247=FACE_BOUND('',#295,.T.);
#248=FACE_BOUND('',#296,.T.);
#249=FACE_BOUND('',#297,.T.);
#250=FACE_BOUND('',#298,.T.);
#251=FACE_BOUND('',#299,.T.);
#252=FACE_BOUND('',#300,.T.);
#253=FACE_BOUND('',#301,.T.);
#254=FACE_BOUND('',#302,.T.);
#255=FACE_BOUND('',#303,.T.);
#256=FACE_BOUND('',#304,.T.);
#257=FACE_BOUND('',#305,.T.);
#258=FACE_BOUND('',#306,.T.);
#259=FACE_BOUND('',#307,.T.);
#260=FACE_BOUND('',#308,.T.);
#261=FACE_BOUND('',#309,.T.);
#262=FACE_BOUND('',#310,.T.);
#263=FACE_BOUND('',#311,.T.);
#264=EDGE_LOOP('',(#312));
#265=EDGE_LOOP('',(#313));
#266=EDGE_LOOP('',(#314));
#267=EDGE_LOOP('',(#315));
#268=EDGE_LOOP('',(#316));
#269=EDGE_LOOP('',(#317));
#270=EDGE_LOOP('',(#318));
#271=EDGE_LOOP('',(#319));
#272=EDGE_LOOP('',(#320));
#273=EDGE_LOOP('',(#321));
#274=EDGE_LOOP('',(#322));
#275=EDGE_LOOP('',(#323));
#276=EDGE_LOOP('',(#324));
#277=EDGE_LOOP('',(#325));
#278=EDGE_LOOP('',(#326));
#279=EDGE_LOOP('',(#327));
#280=EDGE_LOOP('',(#328));
#281=EDGE_LOOP('',(#329));
#282=EDGE_LOOP('',(#330));
#283=EDGE_LOOP('',(#331));
#284=EDGE_LOOP('',(#332));
#285=EDGE_LOOP('',(#333));
#286=EDGE_LOOP('',(#334));
#287=EDGE_LOOP('',(#335));
#288=EDGE_LOOP('',(#336));
#289=EDGE_LOOP('',(#337));
#290=EDGE_LOOP('',(#338));
#291=EDGE_LOOP('',(#339));
#292=EDGE_LOOP('',(#340));
#293=EDGE_LOOP('',(#341));
#294=EDGE_LOOP('',(#342));
#295=EDGE_LOOP('',(#343));
#296=EDGE_LOOP('',(#344));
#297=EDGE_LOOP('',(#345));
#298=EDGE_LOOP('',(#346));
#299=EDGE_LOOP('',(#347));
#300=EDGE_LOOP('',(#348));
#301=EDGE_LOOP('',(#349));
#302=EDGE_LOOP('',(#350));
#303=EDGE_LOOP('',(#351));
#304=EDGE_LOOP('',(#352));
#305=EDGE_LOOP('',(#353));
#306=EDGE_LOOP('',(#354));
#307=EDGE_LOOP('',(#355));
#308=EDGE_LOOP('',(#356));
#309=EDGE_LOOP('',(#357));
#310=EDGE_LOOP('',(#358));
#311=EDGE_LOOP('',(#359));
#312=ORIENTED_EDGE('',*,*,#384,.F.);
#313=ORIENTED_EDGE('',*,*,#385,.T.);
#314=ORIENTED_EDGE('',*,*,#385,.F.);
#315=ORIENTED_EDGE('',*,*,#386,.T.);
#316=ORIENTED_EDGE('',*,*,#386,.F.);
#317=ORIENTED_EDGE('',*,*,#387,.T.);
#318=ORIENTED_EDGE('',*,*,#387,.F.);
#319=ORIENTED_EDGE('',*,*,#388,.T.);
#320=ORIENTED_EDGE('',*,*,#388,.F.);
#321=ORIENTED_EDGE('',*,*,#389,.T.);
#322=ORIENTED_EDGE('',*,*,#389,.F.);
#323=ORIENTED_EDGE('',*,*,#390,.T.);
#324=ORIENTED_EDGE('',*,*,#390,.F.);
#325=ORIENTED_EDGE('',*,*,#391,.T.);
#326=ORIENTED_EDGE('',*,*,#391,.F.);
#327=ORIENTED_EDGE('',*,*,#392,.T.);
#328=ORIENTED_EDGE('',*,*,#392,.F.);
#329=ORIENTED_EDGE('',*,*,#393,.T.);
#330=ORIENTED_EDGE('',*,*,#393,.F.);
#331=ORIENTED_EDGE('',*,*,#394,.T.);
#332=ORIENTED_EDGE('',*,*,#394,.F.);
#333=ORIENTED_EDGE('',*,*,#395,.T.);
#334=ORIENTED_EDGE('',*,*,#395,.F.);
#335=ORIENTED_EDGE('',*,*,#384,.T.);
#336=ORIENTED_EDGE('',*,*,#396,.F.);
#337=ORIENTED_EDGE('',*,*,#397,.T.);
#338=ORIENTED_EDGE('',*,*,#398,.F.);
#339=ORIENTED_EDGE('',*,*,#396,.T.);
#340=ORIENTED_EDGE('',*,*,#399,.F.);
#341=ORIENTED_EDGE('',*,*,#398,.T.);
#342=ORIENTED_EDGE('',*,*,#400,.F.);
#343=ORIENTED_EDGE('',*,*,#399,.T.);
#344=ORIENTED_EDGE('',*,*,#401,.F.);
#345=ORIENTED_EDGE('',*,*,#400,.T.);
#346=ORIENTED_EDGE('',*,*,#402,.F.);
#347=ORIENTED_EDGE('',*,*,#401,.T.);
#348=ORIENTED_EDGE('',*,*,#403,.F.);
#349=ORIENTED_EDGE('',*,*,#402,.T.);
#350=ORIENTED_EDGE('',*,*,#404,.F.);
#351=ORIENTED_EDGE('',*,*,#403,.T.);
#352=ORIENTED_EDGE('',*,*,#405,.F.);
#353=ORIENTED_EDGE('',*,*,#404,.T.);
#354=ORIENTED_EDGE('',*,*,#406,.F.);
#355=ORIENTED_EDGE('',*,*,#405,.T.);
#356=ORIENTED_EDGE('',*,*,#407,.F.);
#357=ORIENTED_EDGE('',*,*,#406,.T.);
#358=ORIENTED_EDGE('',*,*,#397,.F.);
#359=ORIENTED_EDGE('',*,*,#407,.T.);
#360=VERTEX_POINT('',#566);
#361=VERTEX_POINT('',#568);
#362=VERTEX_POINT('',#571);
#363=VERTEX_POINT('',#574);
#364=VERTEX_POINT('',#577);
#365=VERTEX_POINT('',#581);
#366=VERTEX_POINT('',#584);
#367=VERTEX_POINT('',#587);
#368=VERTEX_POINT('',#590);
#369=VERTEX_POINT('',#593);
#370=VERTEX_POINT('',#596);
#371=VERTEX_POINT('',#599);
#372=VERTEX_POINT('',#603);
#373=VERTEX_POINT('',#605);
#374=VERTEX_POINT('',#609);
#375=VERTEX_POINT('',#616);
#376=VERTEX_POINT('',#624);
#377=VERTEX_POINT('',#631);
#378=VERTEX_POINT('',#635);
#379=VERTEX_POINT('',#639);
#380=VERTEX_POINT('',#643);
#381=VERTEX_POINT('',#650);
#382=VERTEX_POINT('',#658);
#383=VERTEX_POINT('',#665);
#384=EDGE_CURVE('',#360,#360,#408,.T.);
#385=EDGE_CURVE('',#361,#361,#409,.T.);
#386=EDGE_CURVE('',#362,#362,#410,.T.);
#387=EDGE_CURVE('',#363,#363,#411,.T.);
#388=EDGE_CURVE('',#364,#364,#412,.T.);
#389=EDGE_CURVE('',#365,#365,#413,.T.);
#390=EDGE_CURVE('',#366,#366,#414,.T.);
#391=EDGE_CURVE('',#367,#367,#415,.T.);
#392=EDGE_CURVE('',#368,#368,#416,.T.);
#393=EDGE_CURVE('',#369,#369,#417,.T.);
#394=EDGE_CURVE('',#370,#370,#418,.T.);
#395=EDGE_CURVE('',#371,#371,#419,.T.);
#396=EDGE_CURVE('',#372,#372,#420,.T.);
#397=EDGE_CURVE('',#373,#373,#421,.T.);
#398=EDGE_CURVE('',#374,#374,#422,.T.);
#399=EDGE_CURVE('',#375,#375,#423,.T.);
#400=EDGE_CURVE('',#376,#376,#424,.T.);
#401=EDGE_CURVE('',#377,#377,#425,.T.);
#402=EDGE_CURVE('',#378,#378,#426,.T.);
#403=EDGE_CURVE('',#379,#379,#427,.T.);
#404=EDGE_CURVE('',#380,#380,#428,.T.);
#405=EDGE_CURVE('',#381,#381,#429,.T.);
#406=EDGE_CURVE('',#382,#382,#430,.T.);
#407=EDGE_CURVE('',#383,#383,#431,.T.);
#408=CIRCLE('',#433,10.);
#409=CIRCLE('',#434,10.);
#410=CIRCLE('',#436,9.75);
#411=CIRCLE('',#438,9.75);
#412=CIRCLE('',#440,8.75);
#413=CIRCLE('',#443,3.7024615149207);
#414=CIRCLE('',#445,3.98080771684082);
#415=CIRCLE('',#447,7.4);
#416=CIRCLE('',#449,8.45130564110469);
#417=CIRCLE('',#451,9.15);
#418=CIRCLE('',#453,9.5);
#419=CIRCLE('',#455,9.5);
#420=CIRCLE('',#458,9.22729526932703);
#421=CIRCLE('',#459,8.20157374842348);
#422=CIRCLE('',#460,9.9983070452893);
#423=CIRCLE('',#461,9.9335789915577);
#424=CIRCLE('',#462,9.59203343324213);
#425=CIRCLE('',#463,6.1787939251874);
#426=CIRCLE('',#464,5.46533050404791);
#427=CIRCLE('',#465,4.42302570376558);
#428=CIRCLE('',#466,3.62935193381499);
#429=CIRCLE('',#467,3.84532251150169);
#430=CIRCLE('',#468,4.18352636144397);
#431=CIRCLE('',#469,7.49950146094561);
#432=AXIS2_PLACEMENT_3D('',#564,#470,#471);
#433=AXIS2_PLACEMENT_3D('',#565,#472,#473);
#434=AXIS2_PLACEMENT_3D('',#567,#474,#475);
#435=AXIS2_PLACEMENT_3D('',#569,#476,#477);
#436=AXIS2_PLACEMENT_3D('',#570,#478,#479);
#437=AXIS2_PLACEMENT_3D('',#572,#480,#481);
#438=AXIS2_PLACEMENT_3D('',#573,#482,#483);
#439=AXIS2_PLACEMENT_3D('',#575,#484,#485);
#440=AXIS2_PLACEMENT_3D('',#576,#486,#487);
#441=AXIS2_PLACEMENT_3D('',#578,#488,#489);
#442=AXIS2_PLACEMENT_3D('',#579,#490,#491);
#443=AXIS2_PLACEMENT_3D('',#580,#492,#493);
#444=AXIS2_PLACEMENT_3D('',#582,#494,#495);
#445=AXIS2_PLACEMENT_3D('',#583,#496,#497);
#446=AXIS2_PLACEMENT_3D('',#585,#498,#499);
#447=AXIS2_PLACEMENT_3D('',#586,#500,#501);
#448=AXIS2_PLACEMENT_3D('',#588,#502,#503);
#449=AXIS2_PLACEMENT_3D('',#589,#504,#505);
#450=AXIS2_PLACEMENT_3D('',#591,#506,#507);
#451=AXIS2_PLACEMENT_3D('',#592,#508,#509);
#452=AXIS2_PLACEMENT_3D('',#594,#510,#511);
#453=AXIS2_PLACEMENT_3D('',#595,#512,#513);
#454=AXIS2_PLACEMENT_3D('',#597,#514,#515);
#455=AXIS2_PLACEMENT_3D('',#598,#516,#517);
#456=AXIS2_PLACEMENT_3D('',#600,#518,#519);
#457=AXIS2_PLACEMENT_3D('',#601,#520,#521);
#458=AXIS2_PLACEMENT_3D('',#602,#522,#523);
#459=AXIS2_PLACEMENT_3D('',#604,#524,#525);
#460=AXIS2_PLACEMENT_3D('',#608,#528,#529);
#461=AXIS2_PLACEMENT_3D('',#615,#531,#532);
#462=AXIS2_PLACEMENT_3D('',#623,#534,#535);
#463=AXIS2_PLACEMENT_3D('',#630,#537,#538);
#464=AXIS2_PLACEMENT_3D('',#634,#541,#542);
#465=AXIS2_PLACEMENT_3D('',#638,#545,#546);
#466=AXIS2_PLACEMENT_3D('',#642,#549,#550);
#467=AXIS2_PLACEMENT_3D('',#649,#552,#553);
#468=AXIS2_PLACEMENT_3D('',#657,#555,#556);
#469=AXIS2_PLACEMENT_3D('',#664,#558,#559);
#470=DIRECTION('',(0.,0.,1.));
#471=DIRECTION('',(1.,0.,0.));
#472=DIRECTION('',(-1.,0.,0.));
#473=DIRECTION('',(0.,0.,1.));
#474=DIRECTION('',(-1.,0.,0.));
#475=DIRECTION('',(0.,0.,1.));
#476=DIRECTION('',(-1.,0.,0.));
#477=DIRECTION('',(0.,0.,1.));
#478=DIRECTION('',(-1.,0.,0.));
#479=DIRECTION('',(0.,0.,1.));
#480=DIRECTION('',(-1.,0.,0.));
#481=DIRECTION('',(1.49161790512469E-16,0.,1.));
#482=DIRECTION('',(-1.,0.,0.));
#483=DIRECTION('',(0.,0.,1.));
#484=DIRECTION('',(-1.,0.,0.));
#485=DIRECTION('',(0.,0.,1.));
#486=DIRECTION('',(-1.,0.,0.));
#487=DIRECTION('',(0.,0.,1.));
#488=DIRECTION('',(-1.,0.,0.));
#489=DIRECTION('',(0.,0.,1.));
#490=DIRECTION('',(-1.,0.,0.));
#491=DIRECTION('',(0.,0.,1.));
#492=DIRECTION('',(-1.,0.,0.));
#493=DIRECTION('',(0.,0.,1.));
#494=DIRECTION('',(1.,0.,0.));
#495=DIRECTION('',(0.,0.,-1.));
#496=DIRECTION('',(-1.,0.,0.));
#497=DIRECTION('',(0.,0.,1.));
#498=DIRECTION('',(-1.,0.,0.));
#499=DIRECTION('',(0.,0.,1.));
#500=DIRECTION('',(-1.,0.,0.));
#501=DIRECTION('',(0.,0.,1.));
#502=DIRECTION('',(-1.,0.,0.));
#503=DIRECTION('',(7.07806134208394E-18,0.,1.));
#504=DIRECTION('',(-1.,0.,0.));
#505=DIRECTION('',(0.,0.,1.));
#506=DIRECTION('',(1.,0.,0.));
#507=DIRECTION('',(0.,0.,-1.));
#508=DIRECTION('',(-1.,0.,0.));
#509=DIRECTION('',(0.,0.,1.));
#510=DIRECTION('',(-1.,0.,0.));
#511=DIRECTION('',(0.,0.,1.));
#512=DIRECTION('',(-1.,0.,0.));
#513=DIRECTION('',(0.,0.,1.));
#514=DIRECTION('',(1.,0.,0.));
#515=DIRECTION('',(1.10472207586853E-16,0.,-1.));
#516=DIRECTION('',(-1.,0.,0.));
#517=DIRECTION('',(0.,0.,1.));
#518=DIRECTION('',(-1.,0.,0.));
#519=DIRECTION('',(0.,0.,1.));
#520=DIRECTION('',(1.,0.,0.));
#521=DIRECTION('',(7.08833648461342E-17,0.,-1.));
#522=DIRECTION('',(1.,0.,0.));
#523=DIRECTION('',(0.,0.,-1.));
#524=DIRECTION('',(1.,0.,0.));
#525=DIRECTION('',(0.,0.,-1.));
#526=DIRECTION('',(-0.00864160945477935,-0.987840721951861,-0.155228961987306));
#527=DIRECTION('',(1.,0.,0.));
#528=DIRECTION('',(1.,0.,0.));
#529=DIRECTION('',(0.,0.,-1.));
#530=DIRECTION('',(1.,0.,0.));
#531=DIRECTION('',(1.,0.,0.));
#532=DIRECTION('',(0.,0.,-1.));
#533=DIRECTION('',(1.,0.,0.));
#534=DIRECTION('',(1.,0.,0.));
#535=DIRECTION('',(0.,0.,-1.));
#536=DIRECTION('',(1.,0.,0.));
#537=DIRECTION('',(1.,0.,0.));
#538=DIRECTION('',(0.,0.,-1.));
#539=DIRECTION('',(0.211313578256213,0.969584770508436,0.123498762919553));
#540=DIRECTION('',(1.,0.,0.));
#541=DIRECTION('',(1.,0.,0.));
#542=DIRECTION('',(0.,0.,-1.));
#543=DIRECTION('',(0.14637094010114,0.980057465006711,0.134398337707456));
#544=DIRECTION('',(1.,0.,0.));
#545=DIRECTION('',(1.,0.,0.));
#546=DIRECTION('',(0.,0.,-1.));
#547=DIRECTION('',(0.0086416094547808,0.987840721951861,0.155228961987307));
#548=DIRECTION('',(1.,0.,0.));
#549=DIRECTION('',(1.,0.,0.));
#550=DIRECTION('',(0.,0.,-1.));
#551=DIRECTION('',(1.,0.,0.));
#552=DIRECTION('',(1.,0.,0.));
#553=DIRECTION('',(0.,0.,-1.));
#554=DIRECTION('',(1.,0.,0.));
#555=DIRECTION('',(1.,0.,0.));
#556=DIRECTION('',(0.,0.,-1.));
#557=DIRECTION('',(1.,0.,0.));
#558=DIRECTION('',(1.,0.,0.));
#559=DIRECTION('',(0.,0.,-1.));
#560=DIRECTION('',(-0.211313578256219,-0.969584770508434,-0.123498762919552));
#561=DIRECTION('',(1.,0.,0.));
#562=DIRECTION('',(-0.146370940101139,-0.980057465006711,-0.134398337707457));
#563=DIRECTION('',(1.,0.,0.));
#564=CARTESIAN_POINT('',(0.,0.,0.));
#565=CARTESIAN_POINT('',(50.,0.,0.));
#566=CARTESIAN_POINT('',(50.,0.,10.));
#567=CARTESIAN_POINT('',(144.582179545096,0.,0.));
#568=CARTESIAN_POINT('',(144.582179545096,0.,10.));
#569=CARTESIAN_POINT('',(0.,0.,0.));
#570=CARTESIAN_POINT('',(146.,0.,0.));
#571=CARTESIAN_POINT('',(146.,0.,9.75));
#572=CARTESIAN_POINT('',(146.,0.,0.));
#573=CARTESIAN_POINT('',(149.,0.,0.));
#574=CARTESIAN_POINT('',(149.,0.,9.75));
#575=CARTESIAN_POINT('',(0.,0.,0.));
#576=CARTESIAN_POINT('',(150.,0.,0.));
#577=CARTESIAN_POINT('',(150.,0.,8.75));
#578=CARTESIAN_POINT('',(149.,0.,0.));
#579=CARTESIAN_POINT('',(150.,0.,0.));
#580=CARTESIAN_POINT('',(1.05,0.,0.));
#581=CARTESIAN_POINT('',(1.05,0.,3.7024615149207));
#582=CARTESIAN_POINT('',(1.05,3.7024615149207,0.));
#583=CARTESIAN_POINT('',(1.03053613748314,0.,0.));
#584=CARTESIAN_POINT('',(1.03053613748314,0.,3.98080771684082));
#585=CARTESIAN_POINT('',(-0.95,0.,0.));
#586=CARTESIAN_POINT('',(0.55,0.,0.));
#587=CARTESIAN_POINT('',(0.55,0.,7.4));
#588=CARTESIAN_POINT('',(0.55,0.,0.));
#589=CARTESIAN_POINT('',(0.55,0.,0.));
#590=CARTESIAN_POINT('',(0.55,0.,8.45130564110469));
#591=CARTESIAN_POINT('',(0.55,8.45130564110469,0.));
#592=CARTESIAN_POINT('',(1.2072660223256,0.,0.));
#593=CARTESIAN_POINT('',(1.2072660223256,0.,9.15));
#594=CARTESIAN_POINT('',(1.25,0.,0.));
#595=CARTESIAN_POINT('',(6.92971543896003,0.,0.));
#596=CARTESIAN_POINT('',(6.92971543896003,0.,9.5));
#597=CARTESIAN_POINT('',(6.92971543896003,0.,0.));
#598=CARTESIAN_POINT('',(49.1339745962156,0.,0.));
#599=CARTESIAN_POINT('',(49.1339745962156,0.,9.5));
#600=CARTESIAN_POINT('',(0.,0.,0.));
#601=CARTESIAN_POINT('',(50.,0.,0.));
#602=CARTESIAN_POINT('',(0.00685501811823613,0.,0.));
#603=CARTESIAN_POINT('',(0.00685501811823613,0.,-9.22729526932703));
#604=CARTESIAN_POINT('',(0.015864141444168,0.,0.));
#605=CARTESIAN_POINT('',(0.015864141444168,0.,-8.20157374842348));
#606=CARTESIAN_POINT('',(0.0158641414441682,-8.19662160370874,0.284967079579844));
#607=CARTESIAN_POINT('',(6.92971543896003,0.,0.));
#608=CARTESIAN_POINT('',(0.812730242097832,0.,0.));
#609=CARTESIAN_POINT('',(0.812730242097832,0.,-9.9983070452893));
#610=CARTESIAN_POINT('',(0.00685501811823752,-9.22647361646317,0.123136477350228));
#611=CARTESIAN_POINT('',(0.00283196605911438,-9.68635723783392,0.0508705182801358));
#612=CARTESIAN_POINT('',(0.335754025478413,-10.0056260411707,-0.0470690691380559));
#613=CARTESIAN_POINT('',(0.812730242097832,-9.99766078371578,-0.113677727076023));
#614=CARTESIAN_POINT('',(6.92971543896003,0.,0.));
#615=CARTESIAN_POINT('',(9.19214088221567,0.,0.));
#616=CARTESIAN_POINT('',(9.19214088221567,0.,-9.9335789915577));
#617=CARTESIAN_POINT('',(0.812730242097832,-9.99766078371578,-0.113677727076023));
#618=CARTESIAN_POINT('',(2.20929212696544,-9.97433891864778,-0.308704459305257));
#619=CARTESIAN_POINT('',(5.00243322240924,-9.92443416879414,-0.698243894302609));
#620=CARTESIAN_POINT('',(7.79557431785304,-9.87452941894049,-1.08778332929996));
#621=CARTESIAN_POINT('',(9.19214088221567,-9.8504167202382,-1.28268547164459));
#622=CARTESIAN_POINT('',(6.92971543896003,0.,0.));
#623=CARTESIAN_POINT('',(9.59289990590668,0.,0.));
#624=CARTESIAN_POINT('',(9.59289990590668,0.,-9.59203343324213));
#625=CARTESIAN_POINT('',(9.19214088221567,-9.8504167202382,-1.28268547164459));
#626=CARTESIAN_POINT('',(9.40286839926587,-9.84677836224183,-1.31209419842647));
#627=CARTESIAN_POINT('',(9.56239670790439,-9.70983523234994,-1.3131042502294));
#628=CARTESIAN_POINT('',(9.59289990590668,-9.50555879414097,-1.28509042310804));
#629=CARTESIAN_POINT('',(6.92971543896003,0.,0.));
#630=CARTESIAN_POINT('',(10.3308612606797,0.,0.));
#631=CARTESIAN_POINT('',(10.3308612606797,0.,-6.1787939251874));
#632=CARTESIAN_POINT('',(9.59289990590667,-9.50555879414097,-1.28509042310804));
#633=CARTESIAN_POINT('',(6.92971543896003,0.,0.));
#634=CARTESIAN_POINT('',(10.4364288834562,0.,0.));
#635=CARTESIAN_POINT('',(10.4364288834562,0.,-5.46533050404791));
#636=CARTESIAN_POINT('',(10.3308612606797,-6.11951944581211,-0.853800985160026));
#637=CARTESIAN_POINT('',(6.92971543896003,0.,0.));
#638=CARTESIAN_POINT('',(10.4454380067822,0.,0.));
#639=CARTESIAN_POINT('',(10.4454380067822,0.,-4.42302570376558));
#640=CARTESIAN_POINT('',(10.4364288834562,-5.41266918787386,-0.756868404095162));
#641=CARTESIAN_POINT('',(6.92971543896003,0.,0.));
#642=CARTESIAN_POINT('',(9.63956278280261,0.,0.));
#643=CARTESIAN_POINT('',(9.63956278280261,0.,-3.62935193381499));
#644=CARTESIAN_POINT('',(10.4454380067822,-4.38281717511945,-0.595037801865552));
#645=CARTESIAN_POINT('',(10.4494610588413,-3.92293355374871,-0.52277184279546));
#646=CARTESIAN_POINT('',(10.116538999422,-3.60366475041196,-0.424832255377268));
#647=CARTESIAN_POINT('',(9.63956278280261,-3.61163000786685,-0.358223597439301));
#648=CARTESIAN_POINT('',(6.92971543896003,0.,0.));
#649=CARTESIAN_POINT('',(1.26015214268476,0.,0.));
#650=CARTESIAN_POINT('',(1.26015214268476,0.,-3.84532251150169));
#651=CARTESIAN_POINT('',(9.63956278280261,-3.61163000786685,-0.358223597439301));
#652=CARTESIAN_POINT('',(8.243000897935,-3.63495187293485,-0.163196865210066));
#653=CARTESIAN_POINT('',(5.44985980249119,-3.6848566227885,0.226342569787287));
#654=CARTESIAN_POINT('',(2.65671870704739,-3.73476137264214,0.61588200478464));
#655=CARTESIAN_POINT('',(1.26015214268476,-3.75887407134444,0.810784147129271));
#656=CARTESIAN_POINT('',(6.92971543896003,0.,0.));
#657=CARTESIAN_POINT('',(0.859393118993751,0.,0.));
#658=CARTESIAN_POINT('',(0.859393118993751,0.,-4.18352636144397));
#659=CARTESIAN_POINT('',(1.26015214268476,-3.75887407134444,0.810784147129271));
#660=CARTESIAN_POINT('',(1.04942462563456,-3.76251242934081,0.84019287391115));
#661=CARTESIAN_POINT('',(0.889896316996038,-3.89945555923269,0.841202925714076));
#662=CARTESIAN_POINT('',(0.859393118993752,-4.10373199744167,0.81318909859272));
#663=CARTESIAN_POINT('',(6.92971543896003,0.,0.));
#664=CARTESIAN_POINT('',(0.1214317642207,0.,0.));
#665=CARTESIAN_POINT('',(0.1214317642207,0.,-7.49950146094561));
#666=CARTESIAN_POINT('',(0.85939311899375,-4.10373199744167,0.81318909859272));
#667=CARTESIAN_POINT('',(6.92971543896003,0.,0.));
#668=CARTESIAN_POINT('',(0.1214317642207,-7.4897713457705,0.381899660644706));
#669=CARTESIAN_POINT('',(6.92971543896003,0.,0.));
#670=(
GEOMETRIC_REPRESENTATION_CONTEXT(3)
GLOBAL_UNCERTAINTY_ASSIGNED_CONTEXT((#671))
GLOBAL_UNIT_ASSIGNED_CONTEXT((#677,#673,#672))
REPRESENTATION_CONTEXT('AEM90-XO09-D20-W20-L150-Z03',
'TOP_LEVEL_ASSEMBLY_PART')
);
#671=UNCERTAINTY_MEASURE_WITH_UNIT(LENGTH_MEASURE(2.E-5),#677,
'DISTANCE_ACCURACY_VALUE','Maximum Tolerance applied to model');
#672=(
NAMED_UNIT(*)
SI_UNIT($,.STERADIAN.)
SOLID_ANGLE_UNIT()
);
#673=(
CONVERSION_BASED_UNIT('DEGREE',#675)
NAMED_UNIT(#674)
PLANE_ANGLE_UNIT()
);
#674=DIMENSIONAL_EXPONENTS(0.,0.,0.,0.,0.,0.,0.);
#675=PLANE_ANGLE_MEASURE_WITH_UNIT(PLANE_ANGLE_MEASURE(0.0174532925),#676);
#676=(
NAMED_UNIT(*)
PLANE_ANGLE_UNIT()
SI_UNIT($,.RADIAN.)
);
#677=(
LENGTH_UNIT()
NAMED_UNIT(*)
SI_UNIT(.MILLI.,.METRE.)
);
ENDSEC;
END-ISO-10303-21;
