ISO-10303-21;
HEADER;
/* Generated by software containing ST-Developer
 * from STEP Tools, Inc. (www.steptools.com) 
 */
/* OPTION: using custom schema-name function */

FILE_DESCRIPTION(
/* description */ (''),
/* implementation_level */ '2;1');

FILE_NAME(
/* name */ 'AEMR-RC10T3-D40-M16-L43-Z05-H.stp',
/* time_stamp */ '2023-10-19T19:00:30+03:00',
/* author */ (''),
/* organization */ (''),
/* preprocessor_version */ 'ST-DEVELOPER v19.4',
/* originating_system */ 'SIEMENS PLM Software NX2306.5001',
/* authorisation */ '');

FILE_SCHEMA (('AUTOMOTIVE_DESIGN { 1 0 10303 214 3 1 1 1 }'));
ENDSEC;

DATA;
#10=PROPERTY_DEFINITION_REPRESENTATION(#14,#12);
#11=PROPERTY_DEFINITION_REPRESENTATION(#15,#13);
#12=REPRESENTATION('',(#16),#512);
#13=REPRESENTATION('',(#17),#512);
#14=PROPERTY_DEFINITION('pmi validation property','',#21);
#15=PROPERTY_DEFINITION('pmi validation property','',#21);
#16=VALUE_REPRESENTATION_ITEM('number of annotations',COUNT_MEASURE(0.));
#17=VALUE_REPRESENTATION_ITEM('number of views',COUNT_MEASURE(0.));
#18=SHAPE_REPRESENTATION_RELATIONSHIP('None',
'relationship between AEMR-RC10T3-D40-M16-L43-Z05-H-LIGHT_x_t_objects-
None and AEMR-RC10T3-D40-M16-L43-Z05-H-LIGHT_x_t_objects-None',#30,#19);
#19=ADVANCED_BREP_SHAPE_REPRESENTATION(
'AEMR-RC10T3-D40-M16-L43-Z05-H-LIGHT_x_t_objects-None',(#68,#69),#512);
#20=SHAPE_DEFINITION_REPRESENTATION(#21,#30);
#21=PRODUCT_DEFINITION_SHAPE('','',#22);
#22=PRODUCT_DEFINITION(' ','',#24,#23);
#23=PRODUCT_DEFINITION_CONTEXT('part definition',#29,'design');
#24=PRODUCT_DEFINITION_FORMATION_WITH_SPECIFIED_SOURCE(' ',' ',#26,
 .NOT_KNOWN.);
#25=PRODUCT_RELATED_PRODUCT_CATEGORY('part','',(#26));
#26=PRODUCT('AEMR-RC10T3-D40-M16-L43-Z05-H-LIGHT_x_t_objects',
'AEMR-RC10T3-D40-M16-L43-Z05-H-LIGHT_x_t_objects',' ',(#27));
#27=PRODUCT_CONTEXT(' ',#29,'mechanical');
#28=APPLICATION_PROTOCOL_DEFINITION('international standard',
'automotive_design',2010,#29);
#29=APPLICATION_CONTEXT(
'core data for automotive mechanical design processes');
#30=SHAPE_REPRESENTATION(
'AEMR-RC10T3-D40-M16-L43-Z05-H-LIGHT_x_t_objects-None',(#263),#512);
#31=COLOUR_RGB('silver gray',0.6,0.6,0.6);
#32=FACE_OUTER_BOUND('',#154,.T.);
#33=FACE_OUTER_BOUND('',#155,.T.);
#34=CYLINDRICAL_SURFACE('',#276,14.5);
#35=CYLINDRICAL_SURFACE('',#280,14.3);
#36=CYLINDRICAL_SURFACE('',#293,7.875);
#37=CYLINDRICAL_SURFACE('',#297,8.5);
#38=CYLINDRICAL_SURFACE('',#300,8.3);
#39=PLANE('',#272);
#40=PLANE('',#287);
#41=PLANE('',#289);
#42=CONICAL_SURFACE('',#270,8.80352761804101,74.9999999999999);
#43=CONICAL_SURFACE('',#274,14.,45.0000000000007);
#44=CONICAL_SURFACE('',#278,14.5,44.9999999999992);
#45=CONICAL_SURFACE('',#284,15.2046106882113,19.9999999999996);
#46=CONICAL_SURFACE('',#291,5.875,45.0000000000002);
#47=CONICAL_SURFACE('',#295,7.875,30.0000000000004);
#48=CONICAL_SURFACE('',#299,8.5,15.);
#49=TOROIDAL_SURFACE('',#268,8.7,0.4);
#50=TOROIDAL_SURFACE('',#282,29.3,15.);
#51=TOROIDAL_SURFACE('',#286,14.9353526362061,4.36767706702893);
#52=PRESENTATION_LAYER_ASSIGNMENT('1','Layer 1',(#68,#69));
#53=STYLED_ITEM('',(#55),#68);
#54=STYLED_ITEM('',(#56),#69);
#55=PRESENTATION_STYLE_ASSIGNMENT((#57));
#56=PRESENTATION_STYLE_ASSIGNMENT((#58));
#57=SURFACE_STYLE_USAGE(.BOTH.,#59);
#58=SURFACE_STYLE_USAGE(.BOTH.,#60);
#59=SURFACE_SIDE_STYLE('',(#61));
#60=SURFACE_SIDE_STYLE('',(#62));
#61=SURFACE_STYLE_FILL_AREA(#63);
#62=SURFACE_STYLE_FILL_AREA(#64);
#63=FILL_AREA_STYLE('',(#65));
#64=FILL_AREA_STYLE('',(#66));
#65=FILL_AREA_STYLE_COLOUR('',#67);
#66=FILL_AREA_STYLE_COLOUR('',#31);
#67=DRAUGHTING_PRE_DEFINED_COLOUR('yellow');
#68=MANIFOLD_SOLID_BREP('',#70);
#69=MANIFOLD_SOLID_BREP('',#71);
#70=CLOSED_SHELL('',(#72,#73));
#71=CLOSED_SHELL('',(#74,#75,#76,#77,#78,#79,#80,#81,#82,#83,#84,#85,#86,
#87,#88,#89,#90,#91));
#72=ADVANCED_FACE('',(#94,#95),#92,.F.);
#73=ADVANCED_FACE('',(#96,#97),#93,.F.);
#74=ADVANCED_FACE('',(#98,#99),#49,.F.);
#75=ADVANCED_FACE('',(#100,#101),#42,.F.);
#76=ADVANCED_FACE('',(#102,#103),#39,.F.);
#77=ADVANCED_FACE('',(#104,#105),#43,.T.);
#78=ADVANCED_FACE('',(#106,#107),#34,.T.);
#79=ADVANCED_FACE('',(#108,#109),#44,.T.);
#80=ADVANCED_FACE('',(#110,#111),#35,.T.);
#81=ADVANCED_FACE('',(#112,#113),#50,.F.);
#82=ADVANCED_FACE('',(#114,#115),#45,.T.);
#83=ADVANCED_FACE('',(#116,#117),#51,.T.);
#84=ADVANCED_FACE('',(#32),#40,.F.);
#85=ADVANCED_FACE('',(#33),#41,.F.);
#86=ADVANCED_FACE('',(#118,#119),#46,.T.);
#87=ADVANCED_FACE('',(#120,#121),#36,.T.);
#88=ADVANCED_FACE('',(#122,#123),#47,.T.);
#89=ADVANCED_FACE('',(#124,#125),#37,.T.);
#90=ADVANCED_FACE('',(#126,#127),#48,.T.);
#91=ADVANCED_FACE('',(#128,#129),#38,.T.);
#92=(
BOUNDED_SURFACE()
B_SPLINE_SURFACE(3,3,((#382,#383,#384,#385,#386,#387,#388),(#389,#390,#391,
#392,#393,#394,#395),(#396,#397,#398,#399,#400,#401,#402),(#403,#404,#405,
#406,#407,#408,#409),(#410,#411,#412,#413,#414,#415,#416),(#417,#418,#419,
#420,#421,#422,#423),(#424,#425,#426,#427,#428,#429,#430)),
 .UNSPECIFIED.,.T.,.F.,.F.)
B_SPLINE_SURFACE_WITH_KNOTS((1,3,3,3,1),(4,3,4),(-0.5,0.,0.5,1.,1.5),(0.,
0.5,1.),.UNSPECIFIED.)
GEOMETRIC_REPRESENTATION_ITEM()
RATIONAL_B_SPLINE_SURFACE(((1.,0.548774680605943,0.548774680605943,1.,0.548774680605943,
0.548774680605943,1.),(0.333333333333334,0.182924893535314,0.182924893535314,
0.333333333333334,0.182924893535314,0.182924893535314,0.333333333333334),
(0.333333333333334,0.182924893535314,0.182924893535314,0.333333333333334,
0.182924893535314,0.182924893535314,0.333333333333334),(1.,0.548774680605943,
0.548774680605943,1.,0.548774680605943,0.548774680605943,1.),(0.333333333333334,
0.182924893535314,0.182924893535314,0.333333333333334,0.182924893535314,
0.182924893535314,0.333333333333334),(0.333333333333334,0.182924893535314,
0.182924893535314,0.333333333333334,0.182924893535314,0.182924893535314,
0.333333333333334),(1.,0.548774680605943,0.548774680605943,1.,0.548774680605943,
0.548774680605943,1.)))
REPRESENTATION_ITEM('')
SURFACE()
);
#93=(
BOUNDED_SURFACE()
B_SPLINE_SURFACE(3,3,((#431,#432,#433,#434),(#435,#436,#437,#438),(#439,
#440,#441,#442),(#443,#444,#445,#446),(#447,#448,#449,#450),(#451,#452,
#453,#454),(#455,#456,#457,#458)),.UNSPECIFIED.,.T.,.F.,.F.)
B_SPLINE_SURFACE_WITH_KNOTS((1,3,3,3,1),(4,4),(-0.5,0.,0.5,1.,1.5),(0.,
1.),.UNSPECIFIED.)
GEOMETRIC_REPRESENTATION_ITEM()
RATIONAL_B_SPLINE_SURFACE(((1.,0.860755077656089,0.860755077656089,1.),
(0.333333333333334,0.286918359218697,0.286918359218697,0.333333333333334),
(0.333333333333334,0.286918359218697,0.286918359218697,0.333333333333334),
(1.,0.860755077656089,0.860755077656089,1.),(0.333333333333334,0.286918359218697,
0.286918359218697,0.333333333333334),(0.333333333333334,0.286918359218697,
0.286918359218697,0.333333333333334),(1.,0.860755077656089,0.860755077656089,
1.)))
REPRESENTATION_ITEM('')
SURFACE()
);
#94=FACE_BOUND('',#130,.T.);
#95=FACE_BOUND('',#131,.T.);
#96=FACE_BOUND('',#132,.T.);
#97=FACE_BOUND('',#133,.T.);
#98=FACE_BOUND('',#134,.T.);
#99=FACE_BOUND('',#135,.T.);
#100=FACE_BOUND('',#136,.T.);
#101=FACE_BOUND('',#137,.T.);
#102=FACE_BOUND('',#138,.T.);
#103=FACE_BOUND('',#139,.T.);
#104=FACE_BOUND('',#140,.T.);
#105=FACE_BOUND('',#141,.T.);
#106=FACE_BOUND('',#142,.T.);
#107=FACE_BOUND('',#143,.T.);
#108=FACE_BOUND('',#144,.T.);
#109=FACE_BOUND('',#145,.T.);
#110=FACE_BOUND('',#146,.T.);
#111=FACE_BOUND('',#147,.T.);
#112=FACE_BOUND('',#148,.T.);
#113=FACE_BOUND('',#149,.T.);
#114=FACE_BOUND('',#150,.T.);
#115=FACE_BOUND('',#151,.T.);
#116=FACE_BOUND('',#152,.T.);
#117=FACE_BOUND('',#153,.T.);
#118=FACE_BOUND('',#156,.T.);
#119=FACE_BOUND('',#157,.T.);
#120=FACE_BOUND('',#158,.T.);
#121=FACE_BOUND('',#159,.T.);
#122=FACE_BOUND('',#160,.T.);
#123=FACE_BOUND('',#161,.T.);
#124=FACE_BOUND('',#162,.T.);
#125=FACE_BOUND('',#163,.T.);
#126=FACE_BOUND('',#164,.T.);
#127=FACE_BOUND('',#165,.T.);
#128=FACE_BOUND('',#166,.T.);
#129=FACE_BOUND('',#167,.T.);
#130=EDGE_LOOP('',(#168));
#131=EDGE_LOOP('',(#169));
#132=EDGE_LOOP('',(#170));
#133=EDGE_LOOP('',(#171));
#134=EDGE_LOOP('',(#172));
#135=EDGE_LOOP('',(#173));
#136=EDGE_LOOP('',(#174));
#137=EDGE_LOOP('',(#175));
#138=EDGE_LOOP('',(#176));
#139=EDGE_LOOP('',(#177));
#140=EDGE_LOOP('',(#178));
#141=EDGE_LOOP('',(#179));
#142=EDGE_LOOP('',(#180));
#143=EDGE_LOOP('',(#181));
#144=EDGE_LOOP('',(#182));
#145=EDGE_LOOP('',(#183));
#146=EDGE_LOOP('',(#184));
#147=EDGE_LOOP('',(#185));
#148=EDGE_LOOP('',(#186));
#149=EDGE_LOOP('',(#187));
#150=EDGE_LOOP('',(#188));
#151=EDGE_LOOP('',(#189));
#152=EDGE_LOOP('',(#190));
#153=EDGE_LOOP('',(#191));
#154=EDGE_LOOP('',(#192));
#155=EDGE_LOOP('',(#193));
#156=EDGE_LOOP('',(#194));
#157=EDGE_LOOP('',(#195));
#158=EDGE_LOOP('',(#196));
#159=EDGE_LOOP('',(#197));
#160=EDGE_LOOP('',(#198));
#161=EDGE_LOOP('',(#199));
#162=EDGE_LOOP('',(#200));
#163=EDGE_LOOP('',(#201));
#164=EDGE_LOOP('',(#202));
#165=EDGE_LOOP('',(#203));
#166=EDGE_LOOP('',(#204));
#167=EDGE_LOOP('',(#205));
#168=ORIENTED_EDGE('',*,*,#225,.F.);
#169=ORIENTED_EDGE('',*,*,#226,.F.);
#170=ORIENTED_EDGE('',*,*,#226,.T.);
#171=ORIENTED_EDGE('',*,*,#225,.T.);
#172=ORIENTED_EDGE('',*,*,#227,.F.);
#173=ORIENTED_EDGE('',*,*,#228,.T.);
#174=ORIENTED_EDGE('',*,*,#229,.F.);
#175=ORIENTED_EDGE('',*,*,#227,.T.);
#176=ORIENTED_EDGE('',*,*,#230,.F.);
#177=ORIENTED_EDGE('',*,*,#229,.T.);
#178=ORIENTED_EDGE('',*,*,#231,.F.);
#179=ORIENTED_EDGE('',*,*,#230,.T.);
#180=ORIENTED_EDGE('',*,*,#232,.F.);
#181=ORIENTED_EDGE('',*,*,#231,.T.);
#182=ORIENTED_EDGE('',*,*,#233,.F.);
#183=ORIENTED_EDGE('',*,*,#232,.T.);
#184=ORIENTED_EDGE('',*,*,#234,.F.);
#185=ORIENTED_EDGE('',*,*,#233,.T.);
#186=ORIENTED_EDGE('',*,*,#235,.F.);
#187=ORIENTED_EDGE('',*,*,#234,.T.);
#188=ORIENTED_EDGE('',*,*,#236,.F.);
#189=ORIENTED_EDGE('',*,*,#235,.T.);
#190=ORIENTED_EDGE('',*,*,#237,.F.);
#191=ORIENTED_EDGE('',*,*,#236,.T.);
#192=ORIENTED_EDGE('',*,*,#237,.T.);
#193=ORIENTED_EDGE('',*,*,#238,.F.);
#194=ORIENTED_EDGE('',*,*,#239,.F.);
#195=ORIENTED_EDGE('',*,*,#238,.T.);
#196=ORIENTED_EDGE('',*,*,#240,.F.);
#197=ORIENTED_EDGE('',*,*,#239,.T.);
#198=ORIENTED_EDGE('',*,*,#241,.F.);
#199=ORIENTED_EDGE('',*,*,#240,.T.);
#200=ORIENTED_EDGE('',*,*,#242,.F.);
#201=ORIENTED_EDGE('',*,*,#241,.T.);
#202=ORIENTED_EDGE('',*,*,#243,.F.);
#203=ORIENTED_EDGE('',*,*,#242,.T.);
#204=ORIENTED_EDGE('',*,*,#228,.F.);
#205=ORIENTED_EDGE('',*,*,#243,.T.);
#206=VERTEX_POINT('',#379);
#207=VERTEX_POINT('',#381);
#208=VERTEX_POINT('',#460);
#209=VERTEX_POINT('',#462);
#210=VERTEX_POINT('',#465);
#211=VERTEX_POINT('',#468);
#212=VERTEX_POINT('',#471);
#213=VERTEX_POINT('',#474);
#214=VERTEX_POINT('',#477);
#215=VERTEX_POINT('',#480);
#216=VERTEX_POINT('',#483);
#217=VERTEX_POINT('',#486);
#218=VERTEX_POINT('',#489);
#219=VERTEX_POINT('',#493);
#220=VERTEX_POINT('',#496);
#221=VERTEX_POINT('',#499);
#222=VERTEX_POINT('',#502);
#223=VERTEX_POINT('',#505);
#224=VERTEX_POINT('',#508);
#225=EDGE_CURVE('',#206,#206,#244,.T.);
#226=EDGE_CURVE('',#207,#207,#245,.T.);
#227=EDGE_CURVE('',#208,#208,#246,.T.);
#228=EDGE_CURVE('',#209,#209,#247,.T.);
#229=EDGE_CURVE('',#210,#210,#248,.T.);
#230=EDGE_CURVE('',#211,#211,#249,.T.);
#231=EDGE_CURVE('',#212,#212,#250,.T.);
#232=EDGE_CURVE('',#213,#213,#251,.T.);
#233=EDGE_CURVE('',#214,#214,#252,.T.);
#234=EDGE_CURVE('',#215,#215,#253,.T.);
#235=EDGE_CURVE('',#216,#216,#254,.T.);
#236=EDGE_CURVE('',#217,#217,#255,.T.);
#237=EDGE_CURVE('',#218,#218,#256,.T.);
#238=EDGE_CURVE('',#219,#219,#257,.T.);
#239=EDGE_CURVE('',#220,#220,#258,.T.);
#240=EDGE_CURVE('',#221,#221,#259,.T.);
#241=EDGE_CURVE('',#222,#222,#260,.T.);
#242=EDGE_CURVE('',#223,#223,#261,.T.);
#243=EDGE_CURVE('',#224,#224,#262,.T.);
#244=CIRCLE('',#264,5.);
#245=CIRCLE('',#265,5.);
#246=CIRCLE('',#266,8.80352761804101);
#247=CIRCLE('',#267,8.3);
#248=CIRCLE('',#269,10.);
#249=CIRCLE('',#271,14.);
#250=CIRCLE('',#273,14.5);
#251=CIRCLE('',#275,14.5);
#252=CIRCLE('',#277,14.3);
#253=CIRCLE('',#279,14.3);
#254=CIRCLE('',#281,15.2046106882113);
#255=CIRCLE('',#283,19.0396265460691);
#256=CIRCLE('',#285,11.2628044170143);
#257=CIRCLE('',#288,5.875);
#258=CIRCLE('',#290,7.875);
#259=CIRCLE('',#292,7.875);
#260=CIRCLE('',#294,8.5);
#261=CIRCLE('',#296,8.5);
#262=CIRCLE('',#298,8.3);
#263=AXIS2_PLACEMENT_3D('',#377,#301,#302);
#264=AXIS2_PLACEMENT_3D('',#378,#303,#304);
#265=AXIS2_PLACEMENT_3D('',#380,#305,#306);
#266=AXIS2_PLACEMENT_3D('',#459,#307,#308);
#267=AXIS2_PLACEMENT_3D('',#461,#309,#310);
#268=AXIS2_PLACEMENT_3D('',#463,#311,#312);
#269=AXIS2_PLACEMENT_3D('',#464,#313,#314);
#270=AXIS2_PLACEMENT_3D('',#466,#315,#316);
#271=AXIS2_PLACEMENT_3D('',#467,#317,#318);
#272=AXIS2_PLACEMENT_3D('',#469,#319,#320);
#273=AXIS2_PLACEMENT_3D('',#470,#321,#322);
#274=AXIS2_PLACEMENT_3D('',#472,#323,#324);
#275=AXIS2_PLACEMENT_3D('',#473,#325,#326);
#276=AXIS2_PLACEMENT_3D('',#475,#327,#328);
#277=AXIS2_PLACEMENT_3D('',#476,#329,#330);
#278=AXIS2_PLACEMENT_3D('',#478,#331,#332);
#279=AXIS2_PLACEMENT_3D('',#479,#333,#334);
#280=AXIS2_PLACEMENT_3D('',#481,#335,#336);
#281=AXIS2_PLACEMENT_3D('',#482,#337,#338);
#282=AXIS2_PLACEMENT_3D('',#484,#339,#340);
#283=AXIS2_PLACEMENT_3D('',#485,#341,#342);
#284=AXIS2_PLACEMENT_3D('',#487,#343,#344);
#285=AXIS2_PLACEMENT_3D('',#488,#345,#346);
#286=AXIS2_PLACEMENT_3D('',#490,#347,#348);
#287=AXIS2_PLACEMENT_3D('',#491,#349,#350);
#288=AXIS2_PLACEMENT_3D('',#492,#351,#352);
#289=AXIS2_PLACEMENT_3D('',#494,#353,#354);
#290=AXIS2_PLACEMENT_3D('',#495,#355,#356);
#291=AXIS2_PLACEMENT_3D('',#497,#357,#358);
#292=AXIS2_PLACEMENT_3D('',#498,#359,#360);
#293=AXIS2_PLACEMENT_3D('',#500,#361,#362);
#294=AXIS2_PLACEMENT_3D('',#501,#363,#364);
#295=AXIS2_PLACEMENT_3D('',#503,#365,#366);
#296=AXIS2_PLACEMENT_3D('',#504,#367,#368);
#297=AXIS2_PLACEMENT_3D('',#506,#369,#370);
#298=AXIS2_PLACEMENT_3D('',#507,#371,#372);
#299=AXIS2_PLACEMENT_3D('',#509,#373,#374);
#300=AXIS2_PLACEMENT_3D('',#510,#375,#376);
#301=DIRECTION('',(0.,0.,1.));
#302=DIRECTION('',(1.,0.,0.));
#303=DIRECTION('',(0.104528463267653,-0.962482449027121,-0.250402347596142));
#304=DIRECTION('',(0.994521895368273,0.101160981761631,0.0263183472528225));
#305=DIRECTION('',(-0.104528463267653,0.,0.994521895368273));
#306=DIRECTION('',(0.994521895368273,0.,0.104528463267653));
#307=DIRECTION('',(-1.,0.,0.));
#308=DIRECTION('',(0.,0.,1.));
#309=DIRECTION('',(-1.,0.,0.));
#310=DIRECTION('',(0.,0.,1.));
#311=DIRECTION('',(-1.,0.,0.));
#312=DIRECTION('',(0.,0.,1.));
#313=DIRECTION('',(-1.,0.,0.));
#314=DIRECTION('',(0.,0.,1.));
#315=DIRECTION('',(1.,0.,0.));
#316=DIRECTION('',(-9.27447754198718E-18,0.,-1.));
#317=DIRECTION('',(-1.,0.,0.));
#318=DIRECTION('',(0.,0.,1.));
#319=DIRECTION('',(-1.,0.,0.));
#320=DIRECTION('',(0.,0.,1.));
#321=DIRECTION('',(-1.,0.,0.));
#322=DIRECTION('',(0.,0.,1.));
#323=DIRECTION('',(-1.,0.,0.));
#324=DIRECTION('',(4.1058543810101E-17,0.,1.));
#325=DIRECTION('',(-1.,0.,0.));
#326=DIRECTION('',(0.,0.,1.));
#327=DIRECTION('',(-1.,0.,0.));
#328=DIRECTION('',(0.,0.,1.));
#329=DIRECTION('',(-1.,0.,0.));
#330=DIRECTION('',(0.,0.,1.));
#331=DIRECTION('',(1.,0.,0.));
#332=DIRECTION('',(1.36794359860176E-17,0.,-1.));
#333=DIRECTION('',(-1.,0.,0.));
#334=DIRECTION('',(0.,0.,1.));
#335=DIRECTION('',(-1.,0.,0.));
#336=DIRECTION('',(0.,0.,1.));
#337=DIRECTION('',(-1.,0.,0.));
#338=DIRECTION('',(0.,0.,1.));
#339=DIRECTION('',(-1.,0.,0.));
#340=DIRECTION('',(0.,0.,1.));
#341=DIRECTION('',(-1.,0.,0.));
#342=DIRECTION('',(0.,0.,1.));
#343=DIRECTION('',(-1.,0.,0.));
#344=DIRECTION('',(1.28099893686753E-16,0.,1.));
#345=DIRECTION('',(-1.,0.,0.));
#346=DIRECTION('',(0.,0.,1.));
#347=DIRECTION('',(-1.,0.,0.));
#348=DIRECTION('',(0.,0.,1.));
#349=DIRECTION('',(1.,0.,0.));
#350=DIRECTION('',(0.,0.,-1.));
#351=DIRECTION('',(-1.,0.,0.));
#352=DIRECTION('',(0.,0.,1.));
#353=DIRECTION('',(-1.,0.,0.));
#354=DIRECTION('',(0.,0.,1.));
#355=DIRECTION('',(-1.,0.,0.));
#356=DIRECTION('',(0.,0.,1.));
#357=DIRECTION('',(-1.,0.,0.));
#358=DIRECTION('',(5.51869280290865E-17,0.,1.));
#359=DIRECTION('',(-1.,0.,0.));
#360=DIRECTION('',(0.,0.,1.));
#361=DIRECTION('',(-1.,0.,0.));
#362=DIRECTION('',(0.,0.,1.));
#363=DIRECTION('',(-1.,0.,0.));
#364=DIRECTION('',(0.,0.,1.));
#365=DIRECTION('',(-1.,0.,0.));
#366=DIRECTION('',(7.11407480423621E-17,0.,1.));
#367=DIRECTION('',(-1.,0.,0.));
#368=DIRECTION('',(0.,0.,1.));
#369=DIRECTION('',(-1.,0.,0.));
#370=DIRECTION('',(0.,0.,1.));
#371=DIRECTION('',(-1.,0.,0.));
#372=DIRECTION('',(0.,0.,1.));
#373=DIRECTION('',(1.,0.,0.));
#374=DIRECTION('',(5.02001387154426E-17,0.,-1.));
#375=DIRECTION('',(-1.,0.,0.));
#376=DIRECTION('',(0.,0.,1.));
#377=CARTESIAN_POINT('',(0.,0.,0.));
#378=CARTESIAN_POINT('',(4.97260947684137,-1.29497162227636,14.9967063498408));
#379=CARTESIAN_POINT('',(9.94521895368274,-0.789166713468201,15.1282980861049));
#380=CARTESIAN_POINT('',(4.97260947684137,-14.8396236,2.52264231633827));
#381=CARTESIAN_POINT('',(9.94521895368274,-14.8396236,3.04528463267654));
#382=CARTESIAN_POINT('',(9.94521895368274,-14.8396236,3.04528463267654));
#383=CARTESIAN_POINT('',(9.94521895368273,-18.3406181896043,-14.0150063423911));
#384=CARTESIAN_POINT('',(9.94521895368273,-3.3271086057837,-22.8413884577848));
#385=CARTESIAN_POINT('',(9.94521895368274,9.87747817990616,-11.485800446167));
#386=CARTESIAN_POINT('',(9.94521895368273,23.082064965596,-0.130212434549191));
#387=CARTESIAN_POINT('',(9.94521895368273,16.6029972836368,16.0355592217314));
#388=CARTESIAN_POINT('',(9.94521895368274,-0.789166713468198,15.1282980861049));
#389=CARTESIAN_POINT('',(9.94521895368274,-4.83962359999999,3.04528463267653));
#390=CARTESIAN_POINT('',(9.94521895368276,-8.34061818960427,-2.51856179977641));
#391=CARTESIAN_POINT('',(9.94521895368276,-4.20669592266704,-7.62972966351149));
#392=CARTESIAN_POINT('',(9.94521895368274,1.96615201506482,-5.36935390315719));
#393=CARTESIAN_POINT('',(9.94521895368276,8.13899995279669,-3.1089781428029));
#394=CARTESIAN_POINT('',(9.94521895368276,7.99473771450114,3.46312491839142));
#395=CARTESIAN_POINT('',(9.94521895368274,1.72864962383242,5.45045737179154));
#396=CARTESIAN_POINT('',(3.50576317856312E-16,-4.83962359999999,2.));
#397=CARTESIAN_POINT('',(3.50576317856312E-16,-7.13891250852295,-3.56384643245294));
#398=CARTESIAN_POINT('',(3.50576317856312E-16,-2.61664460514975,-7.53778775296795));
#399=CARTESIAN_POINT('',(3.50576317856312E-16,2.60549477286439,-4.54239513673714));
#400=CARTESIAN_POINT('',(3.50576317856312E-16,7.82763415087854,-1.54700252050634));
#401=CARTESIAN_POINT('',(3.50576317856312E-16,6.68056047723949,4.36293306256224));
#402=CARTESIAN_POINT('',(3.50576317856312E-16,0.717039806216116,5.18727389926332));
#403=CARTESIAN_POINT('',(-8.67361737988404E-16,-14.8396236,2.));
#404=CARTESIAN_POINT('',(-8.67361737988402E-16,-17.1389125085229,-15.0602909750677));
#405=CARTESIAN_POINT('',(-8.67361737988402E-16,-1.73705728826642,-22.7494465472413));
#406=CARTESIAN_POINT('',(-8.67361737988404E-16,10.5168209377057,-10.658841679747));
#407=CARTESIAN_POINT('',(-8.67361737988402E-16,22.7706991636778,1.43176318774736));
#408=CARTESIAN_POINT('',(-8.67361737988402E-16,15.2888200463751,16.9353673659022));
#409=CARTESIAN_POINT('',(-8.67361737988404E-16,-1.80077653108451,14.8651146135767));
#410=CARTESIAN_POINT('',(-2.08529979383312E-15,-24.8396236,2.));
#411=CARTESIAN_POINT('',(-2.08529979383312E-15,-27.138912508523,-26.5567355176824));
#412=CARTESIAN_POINT('',(-2.08529979383312E-15,-0.85746997138309,-37.9611053415147));
#413=CARTESIAN_POINT('',(-2.08529979383312E-15,18.4281471025471,-16.7752882227568));
#414=CARTESIAN_POINT('',(-2.08529979383312E-15,37.7137641764773,4.41052889600107));
#415=CARTESIAN_POINT('',(-2.08529979383312E-15,23.8970796155109,29.5078016692423));
#416=CARTESIAN_POINT('',(-2.08529979383312E-15,-4.31859286838514,24.5429553278901));
#417=CARTESIAN_POINT('',(9.94521895368274,-24.8396236,3.04528463267653));
#418=CARTESIAN_POINT('',(9.94521895368276,-28.3406181896043,-25.5114508850059));
#419=CARTESIAN_POINT('',(9.94521895368276,-2.44752128890037,-38.0530472520583));
#420=CARTESIAN_POINT('',(9.94521895368274,17.7888043447475,-17.6022469891768));
#421=CARTESIAN_POINT('',(9.94521895368276,38.0251299783954,2.84855327370452));
#422=CARTESIAN_POINT('',(9.94521895368276,25.2112568527725,28.6079935250715));
#423=CARTESIAN_POINT('',(9.94521895368274,-3.30698305076883,24.8061388004183));
#424=CARTESIAN_POINT('',(9.94521895368274,-14.8396236,3.04528463267654));
#425=CARTESIAN_POINT('',(9.94521895368273,-18.3406181896043,-14.0150063423911));
#426=CARTESIAN_POINT('',(9.94521895368273,-3.3271086057837,-22.8413884577848));
#427=CARTESIAN_POINT('',(9.94521895368274,9.87747817990616,-11.485800446167));
#428=CARTESIAN_POINT('',(9.94521895368273,23.082064965596,-0.130212434549191));
#429=CARTESIAN_POINT('',(9.94521895368273,16.6029972836368,16.0355592217314));
#430=CARTESIAN_POINT('',(9.94521895368274,-0.789166713468198,15.1282980861049));
#431=CARTESIAN_POINT('',(9.94521895368274,-0.789166713468201,15.1282980861049));
#432=CARTESIAN_POINT('',(9.94521895368273,-7.95585318308508,14.7544483393922));
#433=CARTESIAN_POINT('',(9.94521895368273,-13.3969894022259,10.0752181429111));
#434=CARTESIAN_POINT('',(9.94521895368274,-14.8396236,3.04528463267654));
#435=CARTESIAN_POINT('',(9.94521895368274,1.72864962383242,5.45045737179154));
#436=CARTESIAN_POINT('',(9.94521895368273,-0.853380349223135,6.26936573804107));
#437=CARTESIAN_POINT('',(9.94521895368273,-3.39698940222591,5.33794602622848));
#438=CARTESIAN_POINT('',(9.94521895368274,-4.83962359999999,3.04528463267653));
#439=CARTESIAN_POINT('',(3.50576317856312E-16,0.717039806216115,5.18727389926332));
#440=CARTESIAN_POINT('',(3.50576317856312E-16,-1.74031299424148,5.52695516731723));
#441=CARTESIAN_POINT('',(3.50576317856312E-16,-3.89216917666346,4.29266139355193));
#442=CARTESIAN_POINT('',(3.50576317856312E-16,-4.83962359999999,2.));
#443=CARTESIAN_POINT('',(-8.67361737988404E-16,-1.80077653108451,14.8651146135767));
#444=CARTESIAN_POINT('',(-8.67361737988404E-16,-8.84278582810343,14.0120377686684));
#445=CARTESIAN_POINT('',(-8.67361737988404E-16,-13.8921691766635,9.02993351023461));
#446=CARTESIAN_POINT('',(-8.67361737988404E-16,-14.8396236,2.));
#447=CARTESIAN_POINT('',(-2.08529979383312E-15,-4.31859286838514,24.5429553278901));
#448=CARTESIAN_POINT('',(-2.08529979383312E-15,-15.9452586619654,22.4971203700196));
#449=CARTESIAN_POINT('',(-2.08529979383312E-15,-23.8921691766635,13.7672056269173));
#450=CARTESIAN_POINT('',(-2.08529979383312E-15,-24.8396236,2.));
#451=CARTESIAN_POINT('',(9.94521895368274,-3.30698305076883,24.8061388004184));
#452=CARTESIAN_POINT('',(9.94521895368273,-15.058326016947,23.2395309407434));
#453=CARTESIAN_POINT('',(9.94521895368273,-23.3969894022259,14.8124902595938));
#454=CARTESIAN_POINT('',(9.94521895368274,-24.8396236,3.04528463267653));
#455=CARTESIAN_POINT('',(9.94521895368274,-0.789166713468201,15.1282980861049));
#456=CARTESIAN_POINT('',(9.94521895368273,-7.95585318308508,14.7544483393922));
#457=CARTESIAN_POINT('',(9.94521895368273,-13.3969894022259,10.0752181429111));
#458=CARTESIAN_POINT('',(9.94521895368274,-14.8396236,3.04528463267654));
#459=CARTESIAN_POINT('',(42.6794061914879,0.,0.));
#460=CARTESIAN_POINT('',(42.6794061914879,0.,8.80352761804101));
#461=CARTESIAN_POINT('',(43.0657765220036,0.,0.));
#462=CARTESIAN_POINT('',(43.0657765220036,0.,8.3));
#463=CARTESIAN_POINT('',(43.0657765220036,0.,0.));
#464=CARTESIAN_POINT('',(43.,0.,0.));
#465=CARTESIAN_POINT('',(43.,0.,10.));
#466=CARTESIAN_POINT('',(42.6794061914879,0.,0.));
#467=CARTESIAN_POINT('',(43.,0.,0.));
#468=CARTESIAN_POINT('',(43.,0.,14.));
#469=CARTESIAN_POINT('',(43.,14.,0.));
#470=CARTESIAN_POINT('',(42.5,0.,0.));
#471=CARTESIAN_POINT('',(42.5,0.,14.5));
#472=CARTESIAN_POINT('',(43.,0.,0.));
#473=CARTESIAN_POINT('',(38.2,0.,0.));
#474=CARTESIAN_POINT('',(38.2,0.,14.5));
#475=CARTESIAN_POINT('',(0.,0.,0.));
#476=CARTESIAN_POINT('',(38.,0.,0.));
#477=CARTESIAN_POINT('',(38.,0.,14.3));
#478=CARTESIAN_POINT('',(38.2,0.,0.));
#479=CARTESIAN_POINT('',(22.5248601777902,0.,0.));
#480=CARTESIAN_POINT('',(22.5248601777902,0.,14.3));
#481=CARTESIAN_POINT('',(0.,0.,0.));
#482=CARTESIAN_POINT('',(17.3945580279053,0.,0.));
#483=CARTESIAN_POINT('',(17.3945580279053,0.,15.2046106882113));
#484=CARTESIAN_POINT('',(22.5248601777902,0.,0.));
#485=CARTESIAN_POINT('',(6.85793855519062,0.,0.));
#486=CARTESIAN_POINT('',(6.85793855519062,0.,19.0396265460691));
#487=CARTESIAN_POINT('',(17.3945580279053,0.,0.));
#488=CARTESIAN_POINT('',(3.,0.,0.));
#489=CARTESIAN_POINT('',(3.,0.,11.2628044170143));
#490=CARTESIAN_POINT('',(5.36410501872517,0.,0.));
#491=CARTESIAN_POINT('',(3.,11.2628044170143,0.));
#492=CARTESIAN_POINT('',(68.,0.,0.));
#493=CARTESIAN_POINT('',(68.,0.,5.875));
#494=CARTESIAN_POINT('',(68.,0.,0.));
#495=CARTESIAN_POINT('',(66.,0.,0.));
#496=CARTESIAN_POINT('',(66.,0.,7.875));
#497=CARTESIAN_POINT('',(68.,0.,0.));
#498=CARTESIAN_POINT('',(50.0825317547305,0.,0.));
#499=CARTESIAN_POINT('',(50.0825317547305,0.,7.875));
#500=CARTESIAN_POINT('',(0.,0.,0.));
#501=CARTESIAN_POINT('',(49.,0.,0.));
#502=CARTESIAN_POINT('',(49.,0.,8.5));
#503=CARTESIAN_POINT('',(50.0825317547305,0.,0.));
#504=CARTESIAN_POINT('',(44.2,0.,0.));
#505=CARTESIAN_POINT('',(44.2,0.,8.5));
#506=CARTESIAN_POINT('',(0.,0.,0.));
#507=CARTESIAN_POINT('',(43.4535898384862,0.,0.));
#508=CARTESIAN_POINT('',(43.4535898384862,0.,8.3));
#509=CARTESIAN_POINT('',(44.2,0.,0.));
#510=CARTESIAN_POINT('',(0.,0.,0.));
#511=MECHANICAL_DESIGN_GEOMETRIC_PRESENTATION_REPRESENTATION('',(#53,#54),
#512);
#512=(
GEOMETRIC_REPRESENTATION_CONTEXT(3)
GLOBAL_UNCERTAINTY_ASSIGNED_CONTEXT((#513))
GLOBAL_UNIT_ASSIGNED_CONTEXT((#519,#515,#514))
REPRESENTATION_CONTEXT('AEMR-RC10T3-D40-M16-L43-Z05-H',
'TOP_LEVEL_ASSEMBLY_PART')
);
#513=UNCERTAINTY_MEASURE_WITH_UNIT(LENGTH_MEASURE(2.E-5),#519,
'DISTANCE_ACCURACY_VALUE','Maximum Tolerance applied to model');
#514=(
NAMED_UNIT(*)
SI_UNIT($,.STERADIAN.)
SOLID_ANGLE_UNIT()
);
#515=(
CONVERSION_BASED_UNIT('DEGREE',#517)
NAMED_UNIT(#516)
PLANE_ANGLE_UNIT()
);
#516=DIMENSIONAL_EXPONENTS(0.,0.,0.,0.,0.,0.,0.);
#517=PLANE_ANGLE_MEASURE_WITH_UNIT(PLANE_ANGLE_MEASURE(0.0174532925),#518);
#518=(
NAMED_UNIT(*)
PLANE_ANGLE_UNIT()
SI_UNIT($,.RADIAN.)
);
#519=(
LENGTH_UNIT()
NAMED_UNIT(*)
SI_UNIT(.MILLI.,.METRE.)
);
ENDSEC;
END-ISO-10303-21;
