ISO-10303-21;
HEADER;
/* Generated by software containing ST-Developer
 * from STEP Tools, Inc. (www.steptools.com) 
 */
/* OPTION: using custom schema-name function */

FILE_DESCRIPTION(
/* description */ (''),
/* implementation_level */ '2;1');

FILE_NAME(
/* name */ 'AEMR-RD0803-D16-M08-L23-Z02-H.stp',
/* time_stamp */ '2023-10-19T19:53:40+03:00',
/* author */ (''),
/* organization */ (''),
/* preprocessor_version */ 'ST-DEVELOPER v19.4',
/* originating_system */ 'SIEMENS PLM Software NX2306.5001',
/* authorisation */ '');

FILE_SCHEMA (('AUTOMOTIVE_DESIGN { 1 0 10303 214 3 1 1 1 }'));
ENDSEC;

DATA;
#10=PROPERTY_DEFINITION_REPRESENTATION(#14,#12);
#11=PROPERTY_DEFINITION_REPRESENTATION(#15,#13);
#12=REPRESENTATION('',(#16),#552);
#13=REPRESENTATION('',(#17),#552);
#14=PROPERTY_DEFINITION('pmi validation property','',#21);
#15=PROPERTY_DEFINITION('pmi validation property','',#21);
#16=VALUE_REPRESENTATION_ITEM('number of annotations',COUNT_MEASURE(0.));
#17=VALUE_REPRESENTATION_ITEM('number of views',COUNT_MEASURE(0.));
#18=SHAPE_REPRESENTATION_RELATIONSHIP('None',
'relationship between AEMR-RD0803-D16-M08-L23-Z02-H-LIGHT_x_t_objects-
None and AEMR-RD0803-D16-M08-L23-Z02-H-LIGHT_x_t_objects-None',#30,#19);
#19=ADVANCED_BREP_SHAPE_REPRESENTATION(
'AEMR-RD0803-D16-M08-L23-Z02-H-LIGHT_x_t_objects-None',(#50,#51),#552);
#20=SHAPE_DEFINITION_REPRESENTATION(#21,#30);
#21=PRODUCT_DEFINITION_SHAPE('','',#22);
#22=PRODUCT_DEFINITION(' ','',#24,#23);
#23=PRODUCT_DEFINITION_CONTEXT('part definition',#29,'design');
#24=PRODUCT_DEFINITION_FORMATION_WITH_SPECIFIED_SOURCE(' ',' ',#26,
 .NOT_KNOWN.);
#25=PRODUCT_RELATED_PRODUCT_CATEGORY('part','',(#26));
#26=PRODUCT('AEMR-RD0803-D16-M08-L23-Z02-H-LIGHT_x_t_objects',
'AEMR-RD0803-D16-M08-L23-Z02-H-LIGHT_x_t_objects',' ',(#27));
#27=PRODUCT_CONTEXT(' ',#29,'mechanical');
#28=APPLICATION_PROTOCOL_DEFINITION('international standard',
'automotive_design',2010,#29);
#29=APPLICATION_CONTEXT(
'core data for automotive mechanical design processes');
#30=SHAPE_REPRESENTATION(
'AEMR-RD0803-D16-M08-L23-Z02-H-LIGHT_x_t_objects-None',(#254),#552);
#31=DRAUGHTING_PRE_DEFINED_COLOUR('yellow');
#32=(
BOUNDED_SURFACE()
B_SPLINE_SURFACE(3,3,((#474,#475,#476,#477,#478,#479,#480),(#481,#482,#483,
#484,#485,#486,#487),(#488,#489,#490,#491,#492,#493,#494),(#495,#496,#497,
#498,#499,#500,#501),(#502,#503,#504,#505,#506,#507,#508),(#509,#510,#511,
#512,#513,#514,#515),(#516,#517,#518,#519,#520,#521,#522)),
 .UNSPECIFIED.,.T.,.F.,.F.)
B_SPLINE_SURFACE_WITH_KNOTS((1,3,3,3,1),(4,3,4),(-0.5,0.,0.5,1.,1.5),(0.,
0.5,1.),.UNSPECIFIED.)
GEOMETRIC_REPRESENTATION_ITEM()
RATIONAL_B_SPLINE_SURFACE(((1.,0.565213826026879,0.565213826026879,1.,0.565213826026879,
0.565213826026879,1.),(0.333333333333334,0.188404608675627,0.188404608675627,
0.333333333333334,0.188404608675627,0.188404608675627,0.333333333333334),
(0.333333333333334,0.188404608675627,0.188404608675627,0.333333333333334,
0.188404608675627,0.188404608675627,0.333333333333334),(1.,0.565213826026879,
0.565213826026879,1.,0.565213826026879,0.565213826026879,1.),(0.333333333333334,
0.188404608675627,0.188404608675627,0.333333333333334,0.188404608675627,
0.188404608675627,0.333333333333334),(0.333333333333334,0.188404608675627,
0.188404608675627,0.333333333333334,0.188404608675627,0.188404608675627,
0.333333333333334),(1.,0.565213826026879,0.565213826026879,1.,0.565213826026879,
0.565213826026879,1.)))
REPRESENTATION_ITEM('')
SURFACE()
);
#33=(
BOUNDED_SURFACE()
B_SPLINE_SURFACE(3,3,((#523,#524,#525,#526),(#527,#528,#529,#530),(#531,
#532,#533,#534),(#535,#536,#537,#538),(#539,#540,#541,#542),(#543,#544,
#545,#546),(#547,#548,#549,#550)),.UNSPECIFIED.,.T.,.F.,.F.)
B_SPLINE_SURFACE_WITH_KNOTS((1,3,3,3,1),(4,4),(-0.5,0.,0.5,1.,1.5),(0.,
1.),.UNSPECIFIED.)
GEOMETRIC_REPRESENTATION_ITEM()
RATIONAL_B_SPLINE_SURFACE(((1.,0.838694311324596,0.838694311324596,1.),
(0.333333333333334,0.279564770441532,0.279564770441532,0.333333333333334),
(0.333333333333334,0.279564770441532,0.279564770441532,0.333333333333334),
(1.,0.838694311324596,0.838694311324596,1.),(0.333333333333334,0.279564770441532,
0.279564770441532,0.333333333333334),(0.333333333333334,0.279564770441532,
0.279564770441532,0.333333333333334),(1.,0.838694311324596,0.838694311324596,
1.)))
REPRESENTATION_ITEM('')
SURFACE()
);
#34=PRESENTATION_LAYER_ASSIGNMENT('1','Layer 1',(#50,#51));
#35=STYLED_ITEM('',(#37),#50);
#36=STYLED_ITEM('',(#38),#51);
#37=PRESENTATION_STYLE_ASSIGNMENT((#39));
#38=PRESENTATION_STYLE_ASSIGNMENT((#40));
#39=SURFACE_STYLE_USAGE(.BOTH.,#41);
#40=SURFACE_STYLE_USAGE(.BOTH.,#42);
#41=SURFACE_SIDE_STYLE('',(#43));
#42=SURFACE_SIDE_STYLE('',(#44));
#43=SURFACE_STYLE_FILL_AREA(#45);
#44=SURFACE_STYLE_FILL_AREA(#46);
#45=FILL_AREA_STYLE('',(#47));
#46=FILL_AREA_STYLE('',(#48));
#47=FILL_AREA_STYLE_COLOUR('',#49);
#48=FILL_AREA_STYLE_COLOUR('',#31);
#49=COLOUR_RGB('silver gray',0.6,0.6,0.6);
#50=MANIFOLD_SOLID_BREP('',#52);
#51=MANIFOLD_SOLID_BREP('',#53);
#52=CLOSED_SHELL('',(#73,#74,#75,#76,#77,#78,#79,#80,#81,#82,#83,#84,#85,
#86,#87,#88,#89));
#53=CLOSED_SHELL('',(#90,#91));
#54=SURFACE_OF_REVOLUTION('',#56,#55);
#55=AXIS1_PLACEMENT('',#447,#325);
#56=B_SPLINE_CURVE_WITH_KNOTS('',3,(#387,#388,#389,#390,#391,#392,#393,
#394,#395,#396,#397,#398,#399,#400,#401,#402,#403,#404,#405,#406,#407,#408,
#409,#410,#411,#412,#413,#414,#415,#416,#417,#418,#419,#420,#421,#422,#423,
#424,#425,#426,#427,#428,#429,#430,#431,#432,#433,#434,#435,#436,#437,#438,
#439,#440,#441,#442,#443,#444,#445,#446),.UNSPECIFIED.,.T.,.F.,(2,2,2,2,
2,2,2,2,2,2,2,2,2,2,2,2,2,2,2,2,2,2,2,2,2,2,2,2,2,2,2,2),(-0.0625,0.,0.0625,
0.09375,0.125,0.15625,0.1875,0.21875,0.25,0.28125,0.3125,0.34375,0.375,
0.40625,0.4375,0.46875,0.5,0.53125,0.5625,0.59375,0.625,0.65625,0.6875,
0.71875,0.75,0.8125,0.84375,0.875,0.90625,0.9375,1.,1.0625),
 .UNSPECIFIED.);
#57=PLANE('',#268);
#58=PLANE('',#270);
#59=PLANE('',#285);
#60=FACE_OUTER_BOUND('',#140,.T.);
#61=FACE_OUTER_BOUND('',#141,.T.);
#62=CYLINDRICAL_SURFACE('',#261,4.25);
#63=CYLINDRICAL_SURFACE('',#265,3.875);
#64=CYLINDRICAL_SURFACE('',#277,6.7);
#65=CYLINDRICAL_SURFACE('',#281,7.375);
#66=CONICAL_SURFACE('',#259,4.25,14.9999999999999);
#67=CONICAL_SURFACE('',#263,3.875,30.);
#68=CONICAL_SURFACE('',#267,2.875,45.0000000000002);
#69=CONICAL_SURFACE('',#273,6.89577393481878,17.9999999999716);
#70=CONICAL_SURFACE('',#279,7.375,44.9999999999998);
#71=CONICAL_SURFACE('',#283,7.075,45.);
#72=CONICAL_SURFACE('',#286,4.78529142706151,75.);
#73=ADVANCED_FACE('',(#94,#95),#92,.F.);
#74=ADVANCED_FACE('',(#96,#97),#66,.T.);
#75=ADVANCED_FACE('',(#98,#99),#62,.T.);
#76=ADVANCED_FACE('',(#100,#101),#67,.T.);
#77=ADVANCED_FACE('',(#102,#103),#63,.T.);
#78=ADVANCED_FACE('',(#104,#105),#68,.T.);
#79=ADVANCED_FACE('',(#60),#57,.F.);
#80=ADVANCED_FACE('',(#61),#58,.F.);
#81=ADVANCED_FACE('',(#106,#107),#54,.T.);
#82=ADVANCED_FACE('',(#108,#109),#69,.T.);
#83=ADVANCED_FACE('',(#110,#111),#93,.F.);
#84=ADVANCED_FACE('',(#112,#113),#64,.T.);
#85=ADVANCED_FACE('',(#114,#115),#70,.T.);
#86=ADVANCED_FACE('',(#116,#117),#65,.T.);
#87=ADVANCED_FACE('',(#118,#119),#71,.T.);
#88=ADVANCED_FACE('',(#120,#121),#59,.F.);
#89=ADVANCED_FACE('',(#122,#123),#72,.F.);
#90=ADVANCED_FACE('',(#124,#125),#32,.F.);
#91=ADVANCED_FACE('',(#126,#127),#33,.F.);
#92=TOROIDAL_SURFACE('',#257,4.63,0.6);
#93=TOROIDAL_SURFACE('',#275,10.7,4.);
#94=FACE_BOUND('',#128,.T.);
#95=FACE_BOUND('',#129,.T.);
#96=FACE_BOUND('',#130,.T.);
#97=FACE_BOUND('',#131,.T.);
#98=FACE_BOUND('',#132,.T.);
#99=FACE_BOUND('',#133,.T.);
#100=FACE_BOUND('',#134,.T.);
#101=FACE_BOUND('',#135,.T.);
#102=FACE_BOUND('',#136,.T.);
#103=FACE_BOUND('',#137,.T.);
#104=FACE_BOUND('',#138,.T.);
#105=FACE_BOUND('',#139,.T.);
#106=FACE_BOUND('',#142,.T.);
#107=FACE_BOUND('',#143,.T.);
#108=FACE_BOUND('',#144,.T.);
#109=FACE_BOUND('',#145,.T.);
#110=FACE_BOUND('',#146,.T.);
#111=FACE_BOUND('',#147,.T.);
#112=FACE_BOUND('',#148,.T.);
#113=FACE_BOUND('',#149,.T.);
#114=FACE_BOUND('',#150,.T.);
#115=FACE_BOUND('',#151,.T.);
#116=FACE_BOUND('',#152,.T.);
#117=FACE_BOUND('',#153,.T.);
#118=FACE_BOUND('',#154,.T.);
#119=FACE_BOUND('',#155,.T.);
#120=FACE_BOUND('',#156,.T.);
#121=FACE_BOUND('',#157,.T.);
#122=FACE_BOUND('',#158,.T.);
#123=FACE_BOUND('',#159,.T.);
#124=FACE_BOUND('',#160,.T.);
#125=FACE_BOUND('',#161,.T.);
#126=FACE_BOUND('',#162,.T.);
#127=FACE_BOUND('',#163,.T.);
#128=EDGE_LOOP('',(#164));
#129=EDGE_LOOP('',(#165));
#130=EDGE_LOOP('',(#166));
#131=EDGE_LOOP('',(#167));
#132=EDGE_LOOP('',(#168));
#133=EDGE_LOOP('',(#169));
#134=EDGE_LOOP('',(#170));
#135=EDGE_LOOP('',(#171));
#136=EDGE_LOOP('',(#172));
#137=EDGE_LOOP('',(#173));
#138=EDGE_LOOP('',(#174));
#139=EDGE_LOOP('',(#175));
#140=EDGE_LOOP('',(#176));
#141=EDGE_LOOP('',(#177));
#142=EDGE_LOOP('',(#178));
#143=EDGE_LOOP('',(#179));
#144=EDGE_LOOP('',(#180));
#145=EDGE_LOOP('',(#181));
#146=EDGE_LOOP('',(#182));
#147=EDGE_LOOP('',(#183));
#148=EDGE_LOOP('',(#184));
#149=EDGE_LOOP('',(#185));
#150=EDGE_LOOP('',(#186));
#151=EDGE_LOOP('',(#187));
#152=EDGE_LOOP('',(#188));
#153=EDGE_LOOP('',(#189));
#154=EDGE_LOOP('',(#190));
#155=EDGE_LOOP('',(#191));
#156=EDGE_LOOP('',(#192));
#157=EDGE_LOOP('',(#193));
#158=EDGE_LOOP('',(#194));
#159=EDGE_LOOP('',(#195));
#160=EDGE_LOOP('',(#196));
#161=EDGE_LOOP('',(#197));
#162=EDGE_LOOP('',(#198));
#163=EDGE_LOOP('',(#199));
#164=ORIENTED_EDGE('',*,*,#218,.F.);
#165=ORIENTED_EDGE('',*,*,#219,.T.);
#166=ORIENTED_EDGE('',*,*,#219,.F.);
#167=ORIENTED_EDGE('',*,*,#220,.T.);
#168=ORIENTED_EDGE('',*,*,#220,.F.);
#169=ORIENTED_EDGE('',*,*,#221,.T.);
#170=ORIENTED_EDGE('',*,*,#221,.F.);
#171=ORIENTED_EDGE('',*,*,#222,.T.);
#172=ORIENTED_EDGE('',*,*,#222,.F.);
#173=ORIENTED_EDGE('',*,*,#223,.T.);
#174=ORIENTED_EDGE('',*,*,#223,.F.);
#175=ORIENTED_EDGE('',*,*,#224,.T.);
#176=ORIENTED_EDGE('',*,*,#224,.F.);
#177=ORIENTED_EDGE('',*,*,#225,.T.);
#178=ORIENTED_EDGE('',*,*,#225,.F.);
#179=ORIENTED_EDGE('',*,*,#226,.T.);
#180=ORIENTED_EDGE('',*,*,#226,.F.);
#181=ORIENTED_EDGE('',*,*,#227,.T.);
#182=ORIENTED_EDGE('',*,*,#227,.F.);
#183=ORIENTED_EDGE('',*,*,#228,.T.);
#184=ORIENTED_EDGE('',*,*,#228,.F.);
#185=ORIENTED_EDGE('',*,*,#229,.T.);
#186=ORIENTED_EDGE('',*,*,#229,.F.);
#187=ORIENTED_EDGE('',*,*,#230,.T.);
#188=ORIENTED_EDGE('',*,*,#230,.F.);
#189=ORIENTED_EDGE('',*,*,#231,.T.);
#190=ORIENTED_EDGE('',*,*,#231,.F.);
#191=ORIENTED_EDGE('',*,*,#232,.T.);
#192=ORIENTED_EDGE('',*,*,#232,.F.);
#193=ORIENTED_EDGE('',*,*,#233,.T.);
#194=ORIENTED_EDGE('',*,*,#233,.F.);
#195=ORIENTED_EDGE('',*,*,#218,.T.);
#196=ORIENTED_EDGE('',*,*,#234,.T.);
#197=ORIENTED_EDGE('',*,*,#235,.T.);
#198=ORIENTED_EDGE('',*,*,#235,.F.);
#199=ORIENTED_EDGE('',*,*,#234,.F.);
#200=VERTEX_POINT('',#362);
#201=VERTEX_POINT('',#364);
#202=VERTEX_POINT('',#367);
#203=VERTEX_POINT('',#370);
#204=VERTEX_POINT('',#373);
#205=VERTEX_POINT('',#376);
#206=VERTEX_POINT('',#379);
#207=VERTEX_POINT('',#383);
#208=VERTEX_POINT('',#386);
#209=VERTEX_POINT('',#449);
#210=VERTEX_POINT('',#452);
#211=VERTEX_POINT('',#455);
#212=VERTEX_POINT('',#458);
#213=VERTEX_POINT('',#461);
#214=VERTEX_POINT('',#464);
#215=VERTEX_POINT('',#467);
#216=VERTEX_POINT('',#471);
#217=VERTEX_POINT('',#473);
#218=EDGE_CURVE('',#200,#200,#236,.T.);
#219=EDGE_CURVE('',#201,#201,#237,.T.);
#220=EDGE_CURVE('',#202,#202,#238,.T.);
#221=EDGE_CURVE('',#203,#203,#239,.T.);
#222=EDGE_CURVE('',#204,#204,#240,.T.);
#223=EDGE_CURVE('',#205,#205,#241,.T.);
#224=EDGE_CURVE('',#206,#206,#242,.T.);
#225=EDGE_CURVE('',#207,#207,#243,.T.);
#226=EDGE_CURVE('',#208,#208,#244,.T.);
#227=EDGE_CURVE('',#209,#209,#245,.T.);
#228=EDGE_CURVE('',#210,#210,#246,.T.);
#229=EDGE_CURVE('',#211,#211,#247,.T.);
#230=EDGE_CURVE('',#212,#212,#248,.T.);
#231=EDGE_CURVE('',#213,#213,#249,.T.);
#232=EDGE_CURVE('',#214,#214,#250,.T.);
#233=EDGE_CURVE('',#215,#215,#251,.T.);
#234=EDGE_CURVE('',#216,#216,#252,.T.);
#235=EDGE_CURVE('',#217,#217,#253,.T.);
#236=CIRCLE('',#255,4.78529142706151);
#237=CIRCLE('',#256,4.05044450422656);
#238=CIRCLE('',#258,4.25);
#239=CIRCLE('',#260,4.25);
#240=CIRCLE('',#262,3.875);
#241=CIRCLE('',#264,3.875);
#242=CIRCLE('',#266,2.875);
#243=CIRCLE('',#269,2.50139877398029);
#244=CIRCLE('',#271,7.12373428187301);
#245=CIRCLE('',#272,6.89577393481878);
#246=CIRCLE('',#274,6.7);
#247=CIRCLE('',#276,6.7);
#248=CIRCLE('',#278,7.375);
#249=CIRCLE('',#280,7.375);
#250=CIRCLE('',#282,7.075);
#251=CIRCLE('',#284,5.5300426762176);
#252=CIRCLE('',#287,4.);
#253=CIRCLE('',#288,4.);
#254=AXIS2_PLACEMENT_3D('',#360,#289,#290);
#255=AXIS2_PLACEMENT_3D('',#361,#291,#292);
#256=AXIS2_PLACEMENT_3D('',#363,#293,#294);
#257=AXIS2_PLACEMENT_3D('',#365,#295,#296);
#258=AXIS2_PLACEMENT_3D('',#366,#297,#298);
#259=AXIS2_PLACEMENT_3D('',#368,#299,#300);
#260=AXIS2_PLACEMENT_3D('',#369,#301,#302);
#261=AXIS2_PLACEMENT_3D('',#371,#303,#304);
#262=AXIS2_PLACEMENT_3D('',#372,#305,#306);
#263=AXIS2_PLACEMENT_3D('',#374,#307,#308);
#264=AXIS2_PLACEMENT_3D('',#375,#309,#310);
#265=AXIS2_PLACEMENT_3D('',#377,#311,#312);
#266=AXIS2_PLACEMENT_3D('',#378,#313,#314);
#267=AXIS2_PLACEMENT_3D('',#380,#315,#316);
#268=AXIS2_PLACEMENT_3D('',#381,#317,#318);
#269=AXIS2_PLACEMENT_3D('',#382,#319,#320);
#270=AXIS2_PLACEMENT_3D('',#384,#321,#322);
#271=AXIS2_PLACEMENT_3D('',#385,#323,#324);
#272=AXIS2_PLACEMENT_3D('',#448,#326,#327);
#273=AXIS2_PLACEMENT_3D('',#450,#328,#329);
#274=AXIS2_PLACEMENT_3D('',#451,#330,#331);
#275=AXIS2_PLACEMENT_3D('',#453,#332,#333);
#276=AXIS2_PLACEMENT_3D('',#454,#334,#335);
#277=AXIS2_PLACEMENT_3D('',#456,#336,#337);
#278=AXIS2_PLACEMENT_3D('',#457,#338,#339);
#279=AXIS2_PLACEMENT_3D('',#459,#340,#341);
#280=AXIS2_PLACEMENT_3D('',#460,#342,#343);
#281=AXIS2_PLACEMENT_3D('',#462,#344,#345);
#282=AXIS2_PLACEMENT_3D('',#463,#346,#347);
#283=AXIS2_PLACEMENT_3D('',#465,#348,#349);
#284=AXIS2_PLACEMENT_3D('',#466,#350,#351);
#285=AXIS2_PLACEMENT_3D('',#468,#352,#353);
#286=AXIS2_PLACEMENT_3D('',#469,#354,#355);
#287=AXIS2_PLACEMENT_3D('',#470,#356,#357);
#288=AXIS2_PLACEMENT_3D('',#472,#358,#359);
#289=DIRECTION('',(0.,0.,1.));
#290=DIRECTION('',(1.,0.,0.));
#291=DIRECTION('',(-1.,0.,0.));
#292=DIRECTION('',(0.,0.,1.));
#293=DIRECTION('',(-1.,0.,0.));
#294=DIRECTION('',(0.,0.,1.));
#295=DIRECTION('',(-1.,0.,0.));
#296=DIRECTION('',(0.,0.,1.));
#297=DIRECTION('',(-1.,0.,0.));
#298=DIRECTION('',(0.,0.,1.));
#299=DIRECTION('',(1.,0.,0.));
#300=DIRECTION('',(-2.67665694891664E-16,0.,-1.));
#301=DIRECTION('',(-1.,0.,0.));
#302=DIRECTION('',(0.,0.,1.));
#303=DIRECTION('',(-1.,0.,0.));
#304=DIRECTION('',(0.,0.,1.));
#305=DIRECTION('',(-1.,0.,0.));
#306=DIRECTION('',(0.,0.,1.));
#307=DIRECTION('',(-1.,0.,0.));
#308=DIRECTION('',(-7.75995345802525E-17,0.,1.));
#309=DIRECTION('',(-1.,0.,0.));
#310=DIRECTION('',(0.,0.,1.));
#311=DIRECTION('',(-1.,0.,0.));
#312=DIRECTION('',(0.,0.,1.));
#313=DIRECTION('',(-1.,0.,0.));
#314=DIRECTION('',(0.,0.,1.));
#315=DIRECTION('',(-1.,0.,0.));
#316=DIRECTION('',(3.45950088690374E-17,0.,1.));
#317=DIRECTION('',(-1.,0.,0.));
#318=DIRECTION('',(0.,0.,1.));
#319=DIRECTION('',(-1.,0.,0.));
#320=DIRECTION('',(0.,0.,1.));
#321=DIRECTION('',(1.,0.,0.));
#322=DIRECTION('',(0.,0.,-1.));
#323=DIRECTION('',(-1.,0.,0.));
#324=DIRECTION('',(0.,0.,1.));
#325=DIRECTION('',(-1.,0.,0.));
#326=DIRECTION('',(-1.,0.,0.));
#327=DIRECTION('',(0.,0.,1.));
#328=DIRECTION('',(-1.,0.,0.));
#329=DIRECTION('',(-8.88756002748992E-17,0.,1.));
#330=DIRECTION('',(-1.,0.,0.));
#331=DIRECTION('',(0.,0.,1.));
#332=DIRECTION('',(-1.,0.,0.));
#333=DIRECTION('',(0.,0.,1.));
#334=DIRECTION('',(-1.,0.,0.));
#335=DIRECTION('',(0.,0.,1.));
#336=DIRECTION('',(-1.,0.,0.));
#337=DIRECTION('',(0.,0.,1.));
#338=DIRECTION('',(-1.,0.,0.));
#339=DIRECTION('',(0.,0.,1.));
#340=DIRECTION('',(1.,0.,0.));
#341=DIRECTION('',(0.,0.,-1.));
#342=DIRECTION('',(-1.,0.,0.));
#343=DIRECTION('',(0.,0.,1.));
#344=DIRECTION('',(-1.,0.,0.));
#345=DIRECTION('',(0.,0.,1.));
#346=DIRECTION('',(-1.,0.,0.));
#347=DIRECTION('',(0.,0.,1.));
#348=DIRECTION('',(-1.,0.,0.));
#349=DIRECTION('',(2.06704383603224E-17,0.,1.));
#350=DIRECTION('',(-1.,0.,0.));
#351=DIRECTION('',(0.,0.,1.));
#352=DIRECTION('',(-1.,0.,0.));
#353=DIRECTION('',(0.,0.,1.));
#354=DIRECTION('',(1.,0.,0.));
#355=DIRECTION('',(-2.13542359849216E-17,0.,-1.));
#356=DIRECTION('',(0.,0.988798929853844,0.149253731343284));
#357=DIRECTION('',(1.,0.,0.));
#358=DIRECTION('',(0.,0.,-1.));
#359=DIRECTION('',(1.,0.,0.));
#360=CARTESIAN_POINT('',(0.,0.,0.));
#361=CARTESIAN_POINT('',(22.8004445042265,0.,0.));
#362=CARTESIAN_POINT('',(22.8004445042265,0.,4.78529142706151));
#363=CARTESIAN_POINT('',(23.5352914270615,0.,0.));
#364=CARTESIAN_POINT('',(23.5352914270615,0.,4.05044450422656));
#365=CARTESIAN_POINT('',(23.38,0.,0.));
#366=CARTESIAN_POINT('',(24.2800426762176,0.,0.));
#367=CARTESIAN_POINT('',(24.2800426762176,0.,4.25));
#368=CARTESIAN_POINT('',(24.2800426762176,0.,0.));
#369=CARTESIAN_POINT('',(29.,0.,0.));
#370=CARTESIAN_POINT('',(29.,0.,4.25));
#371=CARTESIAN_POINT('',(0.,0.,0.));
#372=CARTESIAN_POINT('',(29.6495190528383,0.,0.));
#373=CARTESIAN_POINT('',(29.6495190528383,0.,3.875));
#374=CARTESIAN_POINT('',(29.6495190528383,0.,0.));
#375=CARTESIAN_POINT('',(39.,0.,0.));
#376=CARTESIAN_POINT('',(39.,0.,3.875));
#377=CARTESIAN_POINT('',(0.,0.,0.));
#378=CARTESIAN_POINT('',(40.,0.,0.));
#379=CARTESIAN_POINT('',(40.,0.,2.875));
#380=CARTESIAN_POINT('',(40.,0.,0.));
#381=CARTESIAN_POINT('',(40.,0.,0.));
#382=CARTESIAN_POINT('',(2.5,0.,0.));
#383=CARTESIAN_POINT('',(2.5,0.,2.50139877398029));
#384=CARTESIAN_POINT('',(2.5,2.50139877398029,0.));
#385=CARTESIAN_POINT('',(5.22650605003363,0.,0.));
#386=CARTESIAN_POINT('',(5.22650605003363,0.,7.12373428187301));
#387=CARTESIAN_POINT('',(3.6257400357323,2.33596788371255,0.));
#388=CARTESIAN_POINT('',(4.37425996426769,2.33596788371255,0.));
#389=CARTESIAN_POINT('',(4.7496970459382,2.35698131131487,0.));
#390=CARTESIAN_POINT('',(5.30399610317791,2.45006854751695,0.));
#391=CARTESIAN_POINT('',(5.48565945850796,2.49176117356054,0.));
#392=CARTESIAN_POINT('',(5.8392945484938,2.60845198565797,0.));
#393=CARTESIAN_POINT('',(6.0134504112758,2.68495866897987,0.));
#394=CARTESIAN_POINT('',(6.33249397588661,2.88007843183115,0.));
#395=CARTESIAN_POINT('',(6.47996192905294,3.00070581638743,0.));
#396=CARTESIAN_POINT('',(6.7292396119414,3.27931101872549,0.));
#397=CARTESIAN_POINT('',(6.83098119112862,3.43547409915846,0.));
#398=CARTESIAN_POINT('',(6.98846024701869,3.77880552681579,0.));
#399=CARTESIAN_POINT('',(7.04070694217988,3.95768184956243,0.));
#400=CARTESIAN_POINT('',(7.09946446115895,4.327882521451,0.));
#401=CARTESIAN_POINT('',(7.10487667093723,4.51673612968175,0.));
#402=CARTESIAN_POINT('',(7.07417761501642,4.88545049831871,0.));
#403=CARTESIAN_POINT('',(7.03814648473988,5.06859476884581,0.));
#404=CARTESIAN_POINT('',(6.92737768173359,5.42775049306419,0.));
#405=CARTESIAN_POINT('',(6.85448033762722,5.59836897790018,0.));
#406=CARTESIAN_POINT('',(6.67725908480237,5.92352855526064,0.));
#407=CARTESIAN_POINT('',(6.57173845338537,6.07937740967184,0.));
#408=CARTESIAN_POINT('',(6.33392086550226,6.3681135905171,0.));
#409=CARTESIAN_POINT('',(6.20323455397373,6.49961231865927,0.));
#410=CARTESIAN_POINT('',(5.91963245778609,6.73831949977235,0.));
#411=CARTESIAN_POINT('',(5.76506031856693,6.8463874694308,0.));
#412=CARTESIAN_POINT('',(5.44118810502879,7.03233461205007,0.));
#413=CARTESIAN_POINT('',(5.27289332816663,7.11008210092698,0.));
#414=CARTESIAN_POINT('',(4.92400520737669,7.23612768231261,0.));
#415=CARTESIAN_POINT('',(4.74156729033089,7.28466306140855,0.));
#416=CARTESIAN_POINT('',(4.37397624387785,7.34889049449148,0.));
#417=CARTESIAN_POINT('',(4.18925294153974,7.36491007777009,0.));
#418=CARTESIAN_POINT('',(3.81798325009366,7.36532425831766,0.));
#419=CARTESIAN_POINT('',(3.62965107083465,7.34929968321543,0.));
#420=CARTESIAN_POINT('',(3.26229471244342,7.2855579123583,0.));
#421=CARTESIAN_POINT('',(3.08296141183652,7.23821686499525,0.));
#422=CARTESIAN_POINT('',(2.73297857601739,7.11261578044844,0.));
#423=CARTESIAN_POINT('',(2.56105541370767,7.03341556222045,0.));
#424=CARTESIAN_POINT('',(2.23795718455278,6.84832372198423,0.));
#425=CARTESIAN_POINT('',(2.08558821148082,6.74228862439305,0.));
#426=CARTESIAN_POINT('',(1.79971100631239,6.50250470800717,0.));
#427=CARTESIAN_POINT('',(1.66644989090985,6.36841193771593,0.));
#428=CARTESIAN_POINT('',(1.4298685236018,6.08147897990451,0.));
#429=CARTESIAN_POINT('',(1.32497460222296,5.92741161941208,0.));
#430=CARTESIAN_POINT('',(1.14478835665143,5.59724064423956,0.));
#431=CARTESIAN_POINT('',(1.07195380425555,5.42573386063908,0.));
#432=CARTESIAN_POINT('',(0.962142110932097,5.06937903468144,0.));
#433=CARTESIAN_POINT('',(0.925361805794553,4.88323844015899,0.));
#434=CARTESIAN_POINT('',(0.879787503612849,4.32580473989617,0.));
#435=CARTESIAN_POINT('',(0.935496213393948,3.94188579972852,0.));
#436=CARTESIAN_POINT('',(1.17136255040756,3.43175033755468,0.));
#437=CARTESIAN_POINT('',(1.27294825313582,3.2759820279996,0.));
#438=CARTESIAN_POINT('',(1.52563924824886,2.99535710128579,0.));
#439=CARTESIAN_POINT('',(1.67012305404592,2.87809772415068,0.));
#440=CARTESIAN_POINT('',(1.99019795345109,2.68311512609331,0.));
#441=CARTESIAN_POINT('',(2.16290231387018,2.60756376641662,0.));
#442=CARTESIAN_POINT('',(2.51685749906829,2.49109613954045,0.));
#443=CARTESIAN_POINT('',(2.70073649771958,2.44910351227233,0.));
#444=CARTESIAN_POINT('',(3.25344050685707,2.35680080939815,0.));
#445=CARTESIAN_POINT('',(3.6257400357323,2.33596788371255,0.));
#446=CARTESIAN_POINT('',(4.37425996426769,2.33596788371255,0.));
#447=CARTESIAN_POINT('',(0.,0.,0.));
#448=CARTESIAN_POINT('',(5.9280958572924,0.,0.));
#449=CARTESIAN_POINT('',(5.9280958572924,0.,6.89577393481878));
#450=CARTESIAN_POINT('',(5.9280958572924,0.,0.));
#451=CARTESIAN_POINT('',(7.16416383479031,0.,0.));
#452=CARTESIAN_POINT('',(7.16416383479031,0.,6.7));
#453=CARTESIAN_POINT('',(7.16416383479031,0.,0.));
#454=CARTESIAN_POINT('',(20.,0.,0.));
#455=CARTESIAN_POINT('',(20.,0.,6.7));
#456=CARTESIAN_POINT('',(0.,0.,0.));
#457=CARTESIAN_POINT('',(20.675,0.,0.));
#458=CARTESIAN_POINT('',(20.675,0.,7.375));
#459=CARTESIAN_POINT('',(20.675,0.,0.));
#460=CARTESIAN_POINT('',(22.7,0.,0.));
#461=CARTESIAN_POINT('',(22.7,0.,7.375));
#462=CARTESIAN_POINT('',(0.,0.,0.));
#463=CARTESIAN_POINT('',(23.,0.,0.));
#464=CARTESIAN_POINT('',(23.,0.,7.075));
#465=CARTESIAN_POINT('',(23.,0.,0.));
#466=CARTESIAN_POINT('',(23.,0.,0.));
#467=CARTESIAN_POINT('',(23.,0.,5.5300426762176));
#468=CARTESIAN_POINT('',(23.,7.075,0.));
#469=CARTESIAN_POINT('',(22.8004445042265,0.,0.));
#470=CARTESIAN_POINT('',(4.,0.401160902988172,4.04232794045483));
#471=CARTESIAN_POINT('',(8.,0.401160902988172,4.04232794045483));
#472=CARTESIAN_POINT('',(4.,-3.93717478,1.));
#473=CARTESIAN_POINT('',(8.,-3.93717478,1.));
#474=CARTESIAN_POINT('',(8.,-3.93717478,1.));
#475=CARTESIAN_POINT('',(7.99999999999999,-5.04302300085889,-3.35391772567347));
#476=CARTESIAN_POINT('',(7.99999999999999,-1.34559624622914,-5.90510083232391));
#477=CARTESIAN_POINT('',(8.,2.33233538731528,-3.32589189381509));
#478=CARTESIAN_POINT('',(7.99999999999999,6.01026702085969,-0.746682955306283));
#479=CARTESIAN_POINT('',(7.99999999999999,4.8713620640683,3.59870486960722));
#480=CARTESIAN_POINT('',(8.,0.401160902988172,4.04232794045483));
#481=CARTESIAN_POINT('',(7.99999999999999,4.06282522,1.));
#482=CARTESIAN_POINT('',(7.99999999999999,2.95697699914111,5.49286804119761));
#483=CARTESIAN_POINT('',(7.99999999999999,-1.63999805091672,6.01878049811163));
#484=CARTESIAN_POINT('',(7.99999999999999,-3.73199634857988,1.89175897578273));
#485=CARTESIAN_POINT('',(7.99999999999999,-5.82399464624303,-2.23526254654618));
#486=CARTESIAN_POINT('',(7.99999999999999,-2.68230038411377,-5.63210235532369));
#487=CARTESIAN_POINT('',(7.99999999999999,1.59519075373444,-3.86806349837592));
#488=CARTESIAN_POINT('',(1.12355701329479E-16,4.06282522,1.));
#489=CARTESIAN_POINT('',(1.12355701329479E-16,2.95697699914111,5.49286804119761));
#490=CARTESIAN_POINT('',(1.12355701329479E-16,-1.63999805091672,6.01878049811163));
#491=CARTESIAN_POINT('',(1.12355701329479E-16,-3.73199634857988,1.89175897578273));
#492=CARTESIAN_POINT('',(1.12355701329479E-16,-5.82399464624303,-2.23526254654618));
#493=CARTESIAN_POINT('',(1.12355701329479E-16,-2.68230038411377,-5.63210235532369));
#494=CARTESIAN_POINT('',(1.12355701329479E-16,1.59519075373444,-3.86806349837592));
#495=CARTESIAN_POINT('',(-8.67361737988404E-16,-3.93717478,1.));
#496=CARTESIAN_POINT('',(-8.67361737988404E-16,-5.04302300085889,-3.35391772567347));
#497=CARTESIAN_POINT('',(-8.67361737988404E-16,-1.34559624622914,-5.90510083232391));
#498=CARTESIAN_POINT('',(-8.67361737988403E-16,2.33233538731527,-3.32589189381509));
#499=CARTESIAN_POINT('',(-8.67361737988404E-16,6.01026702085969,-0.746682955306283));
#500=CARTESIAN_POINT('',(-8.67361737988404E-16,4.8713620640683,3.59870486960722));
#501=CARTESIAN_POINT('',(-8.67361737988403E-16,0.401160902988172,4.04232794045483));
#502=CARTESIAN_POINT('',(-1.84707917730629E-15,-11.93717478,1.));
#503=CARTESIAN_POINT('',(-1.84707917730628E-15,-13.0430230008589,-12.2007034925445));
#504=CARTESIAN_POINT('',(-1.84707917730628E-15,-1.05119444154156,-17.8289821627594));
#505=CARTESIAN_POINT('',(-1.84707917730628E-15,8.39666712321042,-8.54354276341291));
#506=CARTESIAN_POINT('',(-1.84707917730628E-15,17.8445286879624,0.741896635933616));
#507=CARTESIAN_POINT('',(-1.84707917730628E-15,12.4250245122504,12.8295120945381));
#508=CARTESIAN_POINT('',(-1.84707917730628E-15,-0.792868947758094,11.9527193792856));
#509=CARTESIAN_POINT('',(7.99999999999999,-11.93717478,1.));
#510=CARTESIAN_POINT('',(7.99999999999999,-13.0430230008589,-12.2007034925445));
#511=CARTESIAN_POINT('',(7.99999999999999,-1.05119444154156,-17.8289821627594));
#512=CARTESIAN_POINT('',(7.99999999999999,8.39666712321042,-8.54354276341291));
#513=CARTESIAN_POINT('',(7.99999999999999,17.8445286879624,0.741896635933616));
#514=CARTESIAN_POINT('',(7.99999999999999,12.4250245122504,12.8295120945381));
#515=CARTESIAN_POINT('',(7.99999999999999,-0.792868947758094,11.9527193792856));
#516=CARTESIAN_POINT('',(8.,-3.93717478,1.));
#517=CARTESIAN_POINT('',(7.99999999999999,-5.04302300085889,-3.35391772567347));
#518=CARTESIAN_POINT('',(7.99999999999999,-1.34559624622914,-5.90510083232391));
#519=CARTESIAN_POINT('',(8.,2.33233538731528,-3.32589189381509));
#520=CARTESIAN_POINT('',(7.99999999999999,6.01026702085969,-0.746682955306283));
#521=CARTESIAN_POINT('',(7.99999999999999,4.8713620640683,3.59870486960722));
#522=CARTESIAN_POINT('',(8.,0.401160902988172,4.04232794045483));
#523=CARTESIAN_POINT('',(8.,0.401160902988172,4.04232794045483));
#524=CARTESIAN_POINT('',(8.,-1.69450291724239,4.25030176219002));
#525=CARTESIAN_POINT('',(8.,-3.4187448428201,3.0411492738617));
#526=CARTESIAN_POINT('',(8.,-3.93717478,1.));
#527=CARTESIAN_POINT('',(7.99999999999999,1.59519075373444,-3.86806349837592));
#528=CARTESIAN_POINT('',(8.,3.60051067020535,-3.04106885612741));
#529=CARTESIAN_POINT('',(8.,4.5812551571799,-1.10629022357753));
#530=CARTESIAN_POINT('',(7.99999999999999,4.06282522,1.));
#531=CARTESIAN_POINT('',(1.12355701329479E-16,1.59519075373444,-3.86806349837592));
#532=CARTESIAN_POINT('',(1.12355701329479E-16,3.60051067020535,-3.04106885612742));
#533=CARTESIAN_POINT('',(1.12355701329479E-16,4.5812551571799,-1.10629022357753));
#534=CARTESIAN_POINT('',(1.12355701329479E-16,4.06282522,1.));
#535=CARTESIAN_POINT('',(-8.67361737988404E-16,0.401160902988172,4.04232794045483));
#536=CARTESIAN_POINT('',(-8.67361737988404E-16,-1.69450291724239,4.25030176219002));
#537=CARTESIAN_POINT('',(-8.67361737988404E-16,-3.4187448428201,3.0411492738617));
#538=CARTESIAN_POINT('',(-8.67361737988404E-16,-3.93717478,1.));
#539=CARTESIAN_POINT('',(-1.84707917730629E-15,-0.792868947758097,11.9527193792856));
#540=CARTESIAN_POINT('',(-1.84707917730629E-15,-6.98951650469013,11.5416723805074));
#541=CARTESIAN_POINT('',(-1.84707917730629E-15,-11.4187448428201,7.18858877130092));
#542=CARTESIAN_POINT('',(-1.84707917730629E-15,-11.93717478,0.999999999999999));
#543=CARTESIAN_POINT('',(7.99999999999999,-0.792868947758097,11.9527193792856));
#544=CARTESIAN_POINT('',(8.,-6.98951650469013,11.5416723805074));
#545=CARTESIAN_POINT('',(8.,-11.4187448428201,7.18858877130092));
#546=CARTESIAN_POINT('',(7.99999999999999,-11.93717478,0.999999999999999));
#547=CARTESIAN_POINT('',(8.,0.401160902988172,4.04232794045483));
#548=CARTESIAN_POINT('',(8.,-1.69450291724239,4.25030176219002));
#549=CARTESIAN_POINT('',(8.,-3.4187448428201,3.0411492738617));
#550=CARTESIAN_POINT('',(8.,-3.93717478,1.));
#551=MECHANICAL_DESIGN_GEOMETRIC_PRESENTATION_REPRESENTATION('',(#35,#36),
#552);
#552=(
GEOMETRIC_REPRESENTATION_CONTEXT(3)
GLOBAL_UNCERTAINTY_ASSIGNED_CONTEXT((#553))
GLOBAL_UNIT_ASSIGNED_CONTEXT((#559,#555,#554))
REPRESENTATION_CONTEXT('AEMR-RD0803-D16-M08-L23-Z02-H',
'TOP_LEVEL_ASSEMBLY_PART')
);
#553=UNCERTAINTY_MEASURE_WITH_UNIT(LENGTH_MEASURE(2.E-5),#559,
'DISTANCE_ACCURACY_VALUE','Maximum Tolerance applied to model');
#554=(
NAMED_UNIT(*)
SI_UNIT($,.STERADIAN.)
SOLID_ANGLE_UNIT()
);
#555=(
CONVERSION_BASED_UNIT('DEGREE',#557)
NAMED_UNIT(#556)
PLANE_ANGLE_UNIT()
);
#556=DIMENSIONAL_EXPONENTS(0.,0.,0.,0.,0.,0.,0.);
#557=PLANE_ANGLE_MEASURE_WITH_UNIT(PLANE_ANGLE_MEASURE(0.0174532925),#558);
#558=(
NAMED_UNIT(*)
PLANE_ANGLE_UNIT()
SI_UNIT($,.RADIAN.)
);
#559=(
LENGTH_UNIT()
NAMED_UNIT(*)
SI_UNIT(.MILLI.,.METRE.)
);
ENDSEC;
END-ISO-10303-21;
