ISO-10303-21;
HEADER;
/* Generated by software containing ST-Developer
 * from STEP Tools, Inc. (www.steptools.com) 
 */
/* OPTION: using custom schema-name function */

FILE_DESCRIPTION(
/* description */ (''),
/* implementation_level */ '2;1');

FILE_NAME(
/* name */ 'model1.stp',
/* time_stamp */ '2023-11-06T18:21:16+03:00',
/* author */ (''),
/* organization */ (''),
/* preprocessor_version */ 'ST-DEVELOPER v19.4',
/* originating_system */ 'SIEMENS PLM Software NX2306.3001',
/* authorisation */ '');

FILE_SCHEMA (('AUTOMOTIVE_DESIGN { 1 0 10303 214 3 1 1 1 }'));
ENDSEC;

DATA;
#10=PROPERTY_DEFINITION_REPRESENTATION(#14,#12);
#11=PROPERTY_DEFINITION_REPRESENTATION(#15,#13);
#12=REPRESENTATION('',(#16),#532);
#13=REPRESENTATION('',(#17),#532);
#14=PROPERTY_DEFINITION('pmi validation property','',#21);
#15=PROPERTY_DEFINITION('pmi validation property','',#21);
#16=VALUE_REPRESENTATION_ITEM('number of annotations',COUNT_MEASURE(0.));
#17=VALUE_REPRESENTATION_ITEM('number of views',COUNT_MEASURE(0.));
#18=SHAPE_REPRESENTATION_RELATIONSHIP('None',
'relationship between model1_objects-None and model1_objects-None',#30,
#19);
#19=ADVANCED_BREP_SHAPE_REPRESENTATION('model1_objects-None',(#149,#150),
#532);
#20=SHAPE_DEFINITION_REPRESENTATION(#21,#30);
#21=PRODUCT_DEFINITION_SHAPE('','',#22);
#22=PRODUCT_DEFINITION(' ','',#24,#23);
#23=PRODUCT_DEFINITION_CONTEXT('part definition',#29,'design');
#24=PRODUCT_DEFINITION_FORMATION_WITH_SPECIFIED_SOURCE(' ',' ',#26,
 .NOT_KNOWN.);
#25=PRODUCT_RELATED_PRODUCT_CATEGORY('part','',(#26));
#26=PRODUCT('model1_objects','model1_objects',' ',(#27));
#27=PRODUCT_CONTEXT(' ',#29,'mechanical');
#28=APPLICATION_PROTOCOL_DEFINITION('international standard',
'automotive_design',2010,#29);
#29=APPLICATION_CONTEXT(
'core data for automotive mechanical design processes');
#30=SHAPE_REPRESENTATION('model1_objects-None',(#284),#532);
#31=OVER_RIDING_STYLED_ITEM('',(#66),#155,#63);
#32=OVER_RIDING_STYLED_ITEM('',(#67),#156,#63);
#33=OVER_RIDING_STYLED_ITEM('',(#68),#157,#63);
#34=OVER_RIDING_STYLED_ITEM('',(#69),#158,#63);
#35=OVER_RIDING_STYLED_ITEM('',(#70),#159,#63);
#36=OVER_RIDING_STYLED_ITEM('',(#71),#160,#63);
#37=OVER_RIDING_STYLED_ITEM('',(#72),#161,#63);
#38=OVER_RIDING_STYLED_ITEM('',(#73),#162,#63);
#39=OVER_RIDING_STYLED_ITEM('',(#74),#163,#63);
#40=OVER_RIDING_STYLED_ITEM('',(#75),#164,#63);
#41=OVER_RIDING_STYLED_ITEM('',(#76),#165,#63);
#42=OVER_RIDING_STYLED_ITEM('',(#77),#166,#63);
#43=COLOUR_RGB('Medium Steel',0.611764705882353,0.658823529411765,0.670588235294118);
#44=COLOUR_RGB('silver gray',0.6,0.6,0.6);
#45=CYLINDRICAL_SURFACE('',#299,8.5);
#46=CYLINDRICAL_SURFACE('',#305,10.);
#47=CYLINDRICAL_SURFACE('',#308,9.75);
#48=CONICAL_SURFACE('',#295,8.69577393481938,17.9999999999996);
#49=CONICAL_SURFACE('',#301,9.75,2.4059705166453);
#50=CONICAL_SURFACE('',#303,10.,45.0000000000002);
#51=CONICAL_SURFACE('',#307,9.75,9.99999999999998);
#52=SURFACE_OF_REVOLUTION('',#54,#53);
#53=AXIS1_PLACEMENT('',#509,#329);
#54=B_SPLINE_CURVE_WITH_KNOTS('',3,(#453,#454,#455,#456,#457,#458,#459,
#460,#461,#462,#463,#464,#465,#466,#467,#468,#469,#470,#471,#472,#473,#474,
#475,#476,#477,#478,#479,#480,#481,#482,#483,#484,#485,#486,#487,#488,#489,
#490,#491,#492,#493,#494,#495,#496,#497,#498,#499,#500,#501,#502,#503,#504,
#505,#506,#507,#508),.UNSPECIFIED.,.T.,.F.,(2,2,2,2,2,2,2,2,2,2,2,2,2,2,
2,2,2,2,2,2,2,2,2,2,2,2,2,2,2,2),(-0.0625,0.,0.0625,0.09375,0.125,0.15625,
0.1875,0.21875,0.25,0.28125,0.3125,0.375,0.40625,0.4375,0.46875,0.5,0.53125,
0.5625,0.625,0.65625,0.6875,0.71875,0.75,0.78125,0.8125,0.84375,0.875,0.9375,
1.,1.0625),.UNSPECIFIED.);
#55=PLANE('',#290);
#56=PLANE('',#292);
#57=FACE_OUTER_BOUND('',#199,.T.);
#58=FACE_OUTER_BOUND('',#200,.T.);
#59=TOROIDAL_SURFACE('',#289,8.25,1.5);
#60=TOROIDAL_SURFACE('',#297,12.5,4.);
#61=PRESENTATION_LAYER_ASSIGNMENT('1','Layer 1',(#149,#150));
#62=STYLED_ITEM('',(#64),#149);
#63=STYLED_ITEM('',(#65),#150);
#64=PRESENTATION_STYLE_ASSIGNMENT((#78));
#65=PRESENTATION_STYLE_ASSIGNMENT((#79));
#66=PRESENTATION_STYLE_ASSIGNMENT((#80));
#67=PRESENTATION_STYLE_ASSIGNMENT((#81));
#68=PRESENTATION_STYLE_ASSIGNMENT((#82));
#69=PRESENTATION_STYLE_ASSIGNMENT((#83));
#70=PRESENTATION_STYLE_ASSIGNMENT((#84));
#71=PRESENTATION_STYLE_ASSIGNMENT((#85));
#72=PRESENTATION_STYLE_ASSIGNMENT((#86));
#73=PRESENTATION_STYLE_ASSIGNMENT((#87));
#74=PRESENTATION_STYLE_ASSIGNMENT((#88));
#75=PRESENTATION_STYLE_ASSIGNMENT((#89));
#76=PRESENTATION_STYLE_ASSIGNMENT((#90));
#77=PRESENTATION_STYLE_ASSIGNMENT((#91));
#78=SURFACE_STYLE_USAGE(.BOTH.,#92);
#79=SURFACE_STYLE_USAGE(.BOTH.,#93);
#80=SURFACE_STYLE_USAGE(.BOTH.,#94);
#81=SURFACE_STYLE_USAGE(.BOTH.,#95);
#82=SURFACE_STYLE_USAGE(.BOTH.,#96);
#83=SURFACE_STYLE_USAGE(.BOTH.,#97);
#84=SURFACE_STYLE_USAGE(.BOTH.,#98);
#85=SURFACE_STYLE_USAGE(.BOTH.,#99);
#86=SURFACE_STYLE_USAGE(.BOTH.,#100);
#87=SURFACE_STYLE_USAGE(.BOTH.,#101);
#88=SURFACE_STYLE_USAGE(.BOTH.,#102);
#89=SURFACE_STYLE_USAGE(.BOTH.,#103);
#90=SURFACE_STYLE_USAGE(.BOTH.,#104);
#91=SURFACE_STYLE_USAGE(.BOTH.,#105);
#92=SURFACE_SIDE_STYLE('',(#106));
#93=SURFACE_SIDE_STYLE('',(#107));
#94=SURFACE_SIDE_STYLE('',(#108));
#95=SURFACE_SIDE_STYLE('',(#109));
#96=SURFACE_SIDE_STYLE('',(#110));
#97=SURFACE_SIDE_STYLE('',(#111));
#98=SURFACE_SIDE_STYLE('',(#112));
#99=SURFACE_SIDE_STYLE('',(#113));
#100=SURFACE_SIDE_STYLE('',(#114));
#101=SURFACE_SIDE_STYLE('',(#115));
#102=SURFACE_SIDE_STYLE('',(#116));
#103=SURFACE_SIDE_STYLE('',(#117));
#104=SURFACE_SIDE_STYLE('',(#118));
#105=SURFACE_SIDE_STYLE('',(#119));
#106=SURFACE_STYLE_FILL_AREA(#120);
#107=SURFACE_STYLE_FILL_AREA(#121);
#108=SURFACE_STYLE_FILL_AREA(#122);
#109=SURFACE_STYLE_FILL_AREA(#123);
#110=SURFACE_STYLE_FILL_AREA(#124);
#111=SURFACE_STYLE_FILL_AREA(#125);
#112=SURFACE_STYLE_FILL_AREA(#126);
#113=SURFACE_STYLE_FILL_AREA(#127);
#114=SURFACE_STYLE_FILL_AREA(#128);
#115=SURFACE_STYLE_FILL_AREA(#129);
#116=SURFACE_STYLE_FILL_AREA(#130);
#117=SURFACE_STYLE_FILL_AREA(#131);
#118=SURFACE_STYLE_FILL_AREA(#132);
#119=SURFACE_STYLE_FILL_AREA(#133);
#120=FILL_AREA_STYLE('',(#134));
#121=FILL_AREA_STYLE('',(#135));
#122=FILL_AREA_STYLE('',(#136));
#123=FILL_AREA_STYLE('',(#137));
#124=FILL_AREA_STYLE('',(#138));
#125=FILL_AREA_STYLE('',(#139));
#126=FILL_AREA_STYLE('',(#140));
#127=FILL_AREA_STYLE('',(#141));
#128=FILL_AREA_STYLE('',(#142));
#129=FILL_AREA_STYLE('',(#143));
#130=FILL_AREA_STYLE('',(#144));
#131=FILL_AREA_STYLE('',(#145));
#132=FILL_AREA_STYLE('',(#146));
#133=FILL_AREA_STYLE('',(#147));
#134=FILL_AREA_STYLE_COLOUR('',#148);
#135=FILL_AREA_STYLE_COLOUR('',#43);
#136=FILL_AREA_STYLE_COLOUR('',#44);
#137=FILL_AREA_STYLE_COLOUR('',#44);
#138=FILL_AREA_STYLE_COLOUR('',#44);
#139=FILL_AREA_STYLE_COLOUR('',#44);
#140=FILL_AREA_STYLE_COLOUR('',#44);
#141=FILL_AREA_STYLE_COLOUR('',#44);
#142=FILL_AREA_STYLE_COLOUR('',#44);
#143=FILL_AREA_STYLE_COLOUR('',#44);
#144=FILL_AREA_STYLE_COLOUR('',#44);
#145=FILL_AREA_STYLE_COLOUR('',#44);
#146=FILL_AREA_STYLE_COLOUR('',#44);
#147=FILL_AREA_STYLE_COLOUR('',#44);
#148=DRAUGHTING_PRE_DEFINED_COLOUR('yellow');
#149=MANIFOLD_SOLID_BREP('',#151);
#150=MANIFOLD_SOLID_BREP('',#152);
#151=CLOSED_SHELL('',(#153,#154));
#152=CLOSED_SHELL('',(#155,#156,#157,#158,#159,#160,#161,#162,#163,#164,
#165,#166));
#153=ADVANCED_FACE('',(#169,#170),#167,.F.);
#154=ADVANCED_FACE('',(#171,#172),#168,.F.);
#155=ADVANCED_FACE('',(#173,#174),#59,.T.);
#156=ADVANCED_FACE('',(#57),#55,.F.);
#157=ADVANCED_FACE('',(#58),#56,.F.);
#158=ADVANCED_FACE('',(#175,#176),#52,.T.);
#159=ADVANCED_FACE('',(#177,#178),#48,.T.);
#160=ADVANCED_FACE('',(#179,#180),#60,.F.);
#161=ADVANCED_FACE('',(#181,#182),#45,.T.);
#162=ADVANCED_FACE('',(#183,#184),#49,.T.);
#163=ADVANCED_FACE('',(#185,#186),#50,.T.);
#164=ADVANCED_FACE('',(#187,#188),#46,.T.);
#165=ADVANCED_FACE('',(#189,#190),#51,.T.);
#166=ADVANCED_FACE('',(#191,#192),#47,.T.);
#167=(
BOUNDED_SURFACE()
B_SPLINE_SURFACE(3,3,((#365,#366,#367,#368,#369,#370,#371),(#372,#373,#374,
#375,#376,#377,#378),(#379,#380,#381,#382,#383,#384,#385),(#386,#387,#388,
#389,#390,#391,#392),(#393,#394,#395,#396,#397,#398,#399),(#400,#401,#402,
#403,#404,#405,#406),(#407,#408,#409,#410,#411,#412,#413)),
 .UNSPECIFIED.,.T.,.F.,.F.)
B_SPLINE_SURFACE_WITH_KNOTS((1,3,3,3,1),(4,3,4),(-0.5,0.,0.5,1.,1.5),(0.,
0.5,1.),.UNSPECIFIED.)
GEOMETRIC_REPRESENTATION_ITEM()
RATIONAL_B_SPLINE_SURFACE(((1.,0.561529714208415,0.561529714208415,1.,0.561529714208415,
0.561529714208415,1.),(0.333333333333334,0.187176571402805,0.187176571402805,
0.333333333333334,0.187176571402805,0.187176571402805,0.333333333333334),
(0.333333333333334,0.187176571402805,0.187176571402805,0.333333333333334,
0.187176571402805,0.187176571402805,0.333333333333334),(1.,0.561529714208415,
0.561529714208415,1.,0.561529714208415,0.561529714208415,1.),(0.333333333333334,
0.187176571402805,0.187176571402805,0.333333333333334,0.187176571402805,
0.187176571402805,0.333333333333334),(0.333333333333334,0.187176571402805,
0.187176571402805,0.333333333333334,0.187176571402805,0.187176571402805,
0.333333333333334),(1.,0.561529714208415,0.561529714208415,1.,0.561529714208415,
0.561529714208415,1.)))
REPRESENTATION_ITEM('')
SURFACE()
);
#168=(
BOUNDED_SURFACE()
B_SPLINE_SURFACE(3,3,((#414,#415,#416,#417),(#418,#419,#420,#421),(#422,
#423,#424,#425),(#426,#427,#428,#429),(#430,#431,#432,#433),(#434,#435,
#436,#437),(#438,#439,#440,#441)),.UNSPECIFIED.,.T.,.F.,.F.)
B_SPLINE_SURFACE_WITH_KNOTS((1,3,3,3,1),(4,4),(-0.5,0.,0.5,1.,1.5),(0.,
1.),.UNSPECIFIED.)
GEOMETRIC_REPRESENTATION_ITEM()
RATIONAL_B_SPLINE_SURFACE(((1.,0.843779235266544,0.843779235266544,1.),
(0.333333333333334,0.281259745088848,0.281259745088848,0.333333333333334),
(0.333333333333334,0.281259745088848,0.281259745088848,0.333333333333334),
(1.,0.843779235266544,0.843779235266544,1.),(0.333333333333334,0.281259745088848,
0.281259745088848,0.333333333333334),(0.333333333333334,0.281259745088848,
0.281259745088848,0.333333333333334),(1.,0.843779235266544,0.843779235266544,
1.)))
REPRESENTATION_ITEM('')
SURFACE()
);
#169=FACE_BOUND('',#193,.T.);
#170=FACE_BOUND('',#194,.T.);
#171=FACE_BOUND('',#195,.T.);
#172=FACE_BOUND('',#196,.T.);
#173=FACE_BOUND('',#197,.T.);
#174=FACE_BOUND('',#198,.T.);
#175=FACE_BOUND('',#201,.T.);
#176=FACE_BOUND('',#202,.T.);
#177=FACE_BOUND('',#203,.T.);
#178=FACE_BOUND('',#204,.T.);
#179=FACE_BOUND('',#205,.T.);
#180=FACE_BOUND('',#206,.T.);
#181=FACE_BOUND('',#207,.T.);
#182=FACE_BOUND('',#208,.T.);
#183=FACE_BOUND('',#209,.T.);
#184=FACE_BOUND('',#210,.T.);
#185=FACE_BOUND('',#211,.T.);
#186=FACE_BOUND('',#212,.T.);
#187=FACE_BOUND('',#213,.T.);
#188=FACE_BOUND('',#214,.T.);
#189=FACE_BOUND('',#215,.T.);
#190=FACE_BOUND('',#216,.T.);
#191=FACE_BOUND('',#217,.T.);
#192=FACE_BOUND('',#218,.T.);
#193=EDGE_LOOP('',(#219));
#194=EDGE_LOOP('',(#220));
#195=EDGE_LOOP('',(#221));
#196=EDGE_LOOP('',(#222));
#197=EDGE_LOOP('',(#223));
#198=EDGE_LOOP('',(#224));
#199=EDGE_LOOP('',(#225));
#200=EDGE_LOOP('',(#226));
#201=EDGE_LOOP('',(#227));
#202=EDGE_LOOP('',(#228));
#203=EDGE_LOOP('',(#229));
#204=EDGE_LOOP('',(#230));
#205=EDGE_LOOP('',(#231));
#206=EDGE_LOOP('',(#232));
#207=EDGE_LOOP('',(#233));
#208=EDGE_LOOP('',(#234));
#209=EDGE_LOOP('',(#235));
#210=EDGE_LOOP('',(#236));
#211=EDGE_LOOP('',(#237));
#212=EDGE_LOOP('',(#238));
#213=EDGE_LOOP('',(#239));
#214=EDGE_LOOP('',(#240));
#215=EDGE_LOOP('',(#241));
#216=EDGE_LOOP('',(#242));
#217=EDGE_LOOP('',(#243));
#218=EDGE_LOOP('',(#244));
#219=ORIENTED_EDGE('',*,*,#258,.T.);
#220=ORIENTED_EDGE('',*,*,#259,.F.);
#221=ORIENTED_EDGE('',*,*,#259,.T.);
#222=ORIENTED_EDGE('',*,*,#258,.F.);
#223=ORIENTED_EDGE('',*,*,#260,.F.);
#224=ORIENTED_EDGE('',*,*,#261,.T.);
#225=ORIENTED_EDGE('',*,*,#261,.F.);
#226=ORIENTED_EDGE('',*,*,#262,.T.);
#227=ORIENTED_EDGE('',*,*,#262,.F.);
#228=ORIENTED_EDGE('',*,*,#263,.T.);
#229=ORIENTED_EDGE('',*,*,#263,.F.);
#230=ORIENTED_EDGE('',*,*,#264,.T.);
#231=ORIENTED_EDGE('',*,*,#264,.F.);
#232=ORIENTED_EDGE('',*,*,#265,.T.);
#233=ORIENTED_EDGE('',*,*,#265,.F.);
#234=ORIENTED_EDGE('',*,*,#266,.T.);
#235=ORIENTED_EDGE('',*,*,#266,.F.);
#236=ORIENTED_EDGE('',*,*,#267,.T.);
#237=ORIENTED_EDGE('',*,*,#267,.F.);
#238=ORIENTED_EDGE('',*,*,#268,.T.);
#239=ORIENTED_EDGE('',*,*,#268,.F.);
#240=ORIENTED_EDGE('',*,*,#269,.T.);
#241=ORIENTED_EDGE('',*,*,#269,.F.);
#242=ORIENTED_EDGE('',*,*,#270,.T.);
#243=ORIENTED_EDGE('',*,*,#270,.F.);
#244=ORIENTED_EDGE('',*,*,#260,.T.);
#245=VERTEX_POINT('',#362);
#246=VERTEX_POINT('',#364);
#247=VERTEX_POINT('',#443);
#248=VERTEX_POINT('',#445);
#249=VERTEX_POINT('',#449);
#250=VERTEX_POINT('',#452);
#251=VERTEX_POINT('',#511);
#252=VERTEX_POINT('',#514);
#253=VERTEX_POINT('',#517);
#254=VERTEX_POINT('',#520);
#255=VERTEX_POINT('',#523);
#256=VERTEX_POINT('',#526);
#257=VERTEX_POINT('',#529);
#258=EDGE_CURVE('',#245,#245,#271,.T.);
#259=EDGE_CURVE('',#246,#246,#272,.T.);
#260=EDGE_CURVE('',#247,#247,#273,.T.);
#261=EDGE_CURVE('',#248,#248,#274,.T.);
#262=EDGE_CURVE('',#249,#249,#275,.T.);
#263=EDGE_CURVE('',#250,#250,#276,.T.);
#264=EDGE_CURVE('',#251,#251,#277,.T.);
#265=EDGE_CURVE('',#252,#252,#278,.T.);
#266=EDGE_CURVE('',#253,#253,#279,.T.);
#267=EDGE_CURVE('',#254,#254,#280,.T.);
#268=EDGE_CURVE('',#255,#255,#281,.T.);
#269=EDGE_CURVE('',#256,#256,#282,.T.);
#270=EDGE_CURVE('',#257,#257,#283,.T.);
#271=CIRCLE('',#285,4.);
#272=CIRCLE('',#286,4.);
#273=CIRCLE('',#287,9.75);
#274=CIRCLE('',#288,8.25);
#275=CIRCLE('',#291,3.54244016514855);
#276=CIRCLE('',#293,9.1567849065435);
#277=CIRCLE('',#294,8.69577393481938);
#278=CIRCLE('',#296,8.5);
#279=CIRCLE('',#298,8.5);
#280=CIRCLE('',#300,9.75);
#281=CIRCLE('',#302,10.);
#282=CIRCLE('',#304,10.);
#283=CIRCLE('',#306,9.75);
#284=AXIS2_PLACEMENT_3D('',#360,#309,#310);
#285=AXIS2_PLACEMENT_3D('',#361,#311,#312);
#286=AXIS2_PLACEMENT_3D('',#363,#313,#314);
#287=AXIS2_PLACEMENT_3D('',#442,#315,#316);
#288=AXIS2_PLACEMENT_3D('',#444,#317,#318);
#289=AXIS2_PLACEMENT_3D('',#446,#319,#320);
#290=AXIS2_PLACEMENT_3D('',#447,#321,#322);
#291=AXIS2_PLACEMENT_3D('',#448,#323,#324);
#292=AXIS2_PLACEMENT_3D('',#450,#325,#326);
#293=AXIS2_PLACEMENT_3D('',#451,#327,#328);
#294=AXIS2_PLACEMENT_3D('',#510,#330,#331);
#295=AXIS2_PLACEMENT_3D('',#512,#332,#333);
#296=AXIS2_PLACEMENT_3D('',#513,#334,#335);
#297=AXIS2_PLACEMENT_3D('',#515,#336,#337);
#298=AXIS2_PLACEMENT_3D('',#516,#338,#339);
#299=AXIS2_PLACEMENT_3D('',#518,#340,#341);
#300=AXIS2_PLACEMENT_3D('',#519,#342,#343);
#301=AXIS2_PLACEMENT_3D('',#521,#344,#345);
#302=AXIS2_PLACEMENT_3D('',#522,#346,#347);
#303=AXIS2_PLACEMENT_3D('',#524,#348,#349);
#304=AXIS2_PLACEMENT_3D('',#525,#350,#351);
#305=AXIS2_PLACEMENT_3D('',#527,#352,#353);
#306=AXIS2_PLACEMENT_3D('',#528,#354,#355);
#307=AXIS2_PLACEMENT_3D('',#530,#356,#357);
#308=AXIS2_PLACEMENT_3D('',#531,#358,#359);
#309=DIRECTION('',(0.,0.,1.));
#310=DIRECTION('',(1.,0.,0.));
#311=DIRECTION('',(0.,0.985009940714575,0.172497584601843));
#312=DIRECTION('',(1.,0.,0.));
#313=DIRECTION('',(0.,0.,1.));
#314=DIRECTION('',(1.,0.,0.));
#315=DIRECTION('',(-1.,0.,0.));
#316=DIRECTION('',(0.,0.,1.));
#317=DIRECTION('',(-1.,0.,0.));
#318=DIRECTION('',(0.,0.,1.));
#319=DIRECTION('',(-1.,0.,0.));
#320=DIRECTION('',(0.,0.,1.));
#321=DIRECTION('',(-1.,0.,0.));
#322=DIRECTION('',(0.,0.,1.));
#323=DIRECTION('',(-1.,0.,0.));
#324=DIRECTION('',(0.,0.,1.));
#325=DIRECTION('',(1.,0.,0.));
#326=DIRECTION('',(0.,0.,-1.));
#327=DIRECTION('',(-1.,0.,0.));
#328=DIRECTION('',(0.,0.,1.));
#329=DIRECTION('',(-1.,0.,0.));
#330=DIRECTION('',(-1.,0.,0.));
#331=DIRECTION('',(0.,0.,1.));
#332=DIRECTION('',(-1.,0.,0.));
#333=DIRECTION('',(-1.50793309369127E-16,0.,1.));
#334=DIRECTION('',(-1.,0.,0.));
#335=DIRECTION('',(0.,0.,1.));
#336=DIRECTION('',(-1.,0.,0.));
#337=DIRECTION('',(0.,0.,1.));
#338=DIRECTION('',(-1.,0.,0.));
#339=DIRECTION('',(0.,0.,1.));
#340=DIRECTION('',(-1.,0.,0.));
#341=DIRECTION('',(0.,0.,1.));
#342=DIRECTION('',(-1.,0.,0.));
#343=DIRECTION('',(0.,0.,1.));
#344=DIRECTION('',(1.,0.,0.));
#345=DIRECTION('',(-5.36165496247691E-16,0.,-1.));
#346=DIRECTION('',(-1.,0.,0.));
#347=DIRECTION('',(0.,0.,1.));
#348=DIRECTION('',(1.,0.,0.));
#349=DIRECTION('',(5.49615358725321E-17,0.,-1.));
#350=DIRECTION('',(-1.,0.,0.));
#351=DIRECTION('',(0.,0.,1.));
#352=DIRECTION('',(-1.,0.,0.));
#353=DIRECTION('',(0.,0.,1.));
#354=DIRECTION('',(-1.,0.,0.));
#355=DIRECTION('',(0.,0.,1.));
#356=DIRECTION('',(-1.,0.,0.));
#357=DIRECTION('',(1.4916179051247E-16,0.,1.));
#358=DIRECTION('',(-1.,0.,0.));
#359=DIRECTION('',(0.,0.,1.));
#360=CARTESIAN_POINT('',(0.,0.,0.));
#361=CARTESIAN_POINT('',(4.,0.462095255939876,6.05707947594657));
#362=CARTESIAN_POINT('',(8.,0.462095255939876,6.05707947594657));
#363=CARTESIAN_POINT('',(4.,-5.88657318,1.5));
#364=CARTESIAN_POINT('',(8.,-5.88657318,1.5));
#365=CARTESIAN_POINT('',(8.,-5.88657318,1.5));
#366=CARTESIAN_POINT('',(8.,-7.5598465046475,-5.06656391711961));
#367=CARTESIAN_POINT('',(8.,-1.96270341335243,-8.88645848531934));
#368=CARTESIAN_POINT('',(8.,3.54231330131558,-4.93495291556242));
#369=CARTESIAN_POINT('',(8.,9.04733001598357,-0.983447345805503));
#370=CARTESIAN_POINT('',(8.,7.21886159752071,5.541605032473));
#371=CARTESIAN_POINT('',(8.,0.462095255939878,6.05707947594657));
#372=CARTESIAN_POINT('',(7.99999999999999,2.11342682,1.5));
#373=CARTESIAN_POINT('',(8.,0.4401534953525,3.85756048100039));
#374=CARTESIAN_POINT('',(8.,-2.34774547837829,3.09234524799565));
#375=CARTESIAN_POINT('',(7.99999999999999,-2.58303752188296,0.210926726708767));
#376=CARTESIAN_POINT('',(8.,-2.81832956538761,-2.67049179457812));
#377=CARTESIAN_POINT('',(8.,-0.191508969986222,-3.87786439660567));
#378=CARTESIAN_POINT('',(7.99999999999999,1.84207593275461,-1.82300004977003));
#379=CARTESIAN_POINT('',(1.12355701329479E-16,2.11342682,1.5));
#380=CARTESIAN_POINT('',(1.12355701329479E-16,0.440153495352501,3.85756048100039));
#381=CARTESIAN_POINT('',(1.12355701329479E-16,-2.34774547837829,3.09234524799565));
#382=CARTESIAN_POINT('',(1.12355701329479E-16,-2.58303752188296,0.210926726708767));
#383=CARTESIAN_POINT('',(1.12355701329479E-16,-2.81832956538762,-2.67049179457812));
#384=CARTESIAN_POINT('',(1.12355701329479E-16,-0.191508969986223,-3.87786439660567));
#385=CARTESIAN_POINT('',(1.12355701329479E-16,1.84207593275461,-1.82300004977003));
#386=CARTESIAN_POINT('',(-8.67361737988404E-16,-5.88657318,1.5));
#387=CARTESIAN_POINT('',(-8.67361737988403E-16,-7.5598465046475,-5.0665639171196));
#388=CARTESIAN_POINT('',(-8.67361737988403E-16,-1.96270341335242,-8.88645848531934));
#389=CARTESIAN_POINT('',(-8.67361737988404E-16,3.54231330131558,-4.93495291556242));
#390=CARTESIAN_POINT('',(-8.67361737988403E-16,9.04733001598357,-0.983447345805503));
#391=CARTESIAN_POINT('',(-8.67361737988403E-16,7.21886159752071,5.541605032473));
#392=CARTESIAN_POINT('',(-8.67361737988404E-16,0.462095255939878,6.05707947594657));
#393=CARTESIAN_POINT('',(-1.84707917730629E-15,-13.88657318,1.5));
#394=CARTESIAN_POINT('',(-1.84707917730628E-15,-15.5598465046475,-13.9906883152396));
#395=CARTESIAN_POINT('',(-1.84707917730628E-15,-1.57766134832655,-20.8652622186343));
#396=CARTESIAN_POINT('',(-1.84707917730629E-15,9.6676641245141,-10.0808325578336));
#397=CARTESIAN_POINT('',(-1.84707917730628E-15,20.9129895973548,0.703597102967114));
#398=CARTESIAN_POINT('',(-1.84707917730628E-15,14.6292321650276,14.9610744615517));
#399=CARTESIAN_POINT('',(-1.84707917730629E-15,-0.917885420874859,13.9371590016632));
#400=CARTESIAN_POINT('',(7.99999999999999,-13.88657318,1.5));
#401=CARTESIAN_POINT('',(8.,-15.5598465046475,-13.9906883152396));
#402=CARTESIAN_POINT('',(8.,-1.57766134832655,-20.8652622186343));
#403=CARTESIAN_POINT('',(7.99999999999999,9.6676641245141,-10.0808325578336));
#404=CARTESIAN_POINT('',(8.,20.9129895973548,0.703597102967114));
#405=CARTESIAN_POINT('',(8.,14.6292321650276,14.9610744615517));
#406=CARTESIAN_POINT('',(7.99999999999999,-0.917885420874859,13.9371590016632));
#407=CARTESIAN_POINT('',(8.,-5.88657318,1.5));
#408=CARTESIAN_POINT('',(8.,-7.5598465046475,-5.06656391711961));
#409=CARTESIAN_POINT('',(8.,-1.96270341335243,-8.88645848531934));
#410=CARTESIAN_POINT('',(8.,3.54231330131558,-4.93495291556242));
#411=CARTESIAN_POINT('',(8.,9.04733001598357,-0.983447345805503));
#412=CARTESIAN_POINT('',(8.,7.21886159752071,5.541605032473));
#413=CARTESIAN_POINT('',(8.,0.462095255939878,6.05707947594657));
#414=CARTESIAN_POINT('',(8.,0.462095255939876,6.05707947594657));
#415=CARTESIAN_POINT('',(8.00000000000001,-2.61621803030002,6.29192433335962));
#416=CARTESIAN_POINT('',(8.00000000000001,-5.12424705439832,4.49165901692014));
#417=CARTESIAN_POINT('',(8.,-5.88657318,1.5));
#418=CARTESIAN_POINT('',(7.99999999999999,1.84207593275461,-1.82300004977003));
#419=CARTESIAN_POINT('',(8.00000000000001,2.76855630936319,-0.886824977182737));
#420=CARTESIAN_POINT('',(8.00000000000001,2.87575294560169,0.425919680377805));
#421=CARTESIAN_POINT('',(7.99999999999999,2.11342682,1.5));
#422=CARTESIAN_POINT('',(1.12355701329479E-16,1.84207593275461,-1.82300004977003));
#423=CARTESIAN_POINT('',(1.12355701329479E-16,2.76855630936319,-0.886824977182738));
#424=CARTESIAN_POINT('',(1.12355701329479E-16,2.87575294560169,0.425919680377805));
#425=CARTESIAN_POINT('',(1.12355701329479E-16,2.11342682,1.5));
#426=CARTESIAN_POINT('',(-8.67361737988404E-16,0.462095255939877,6.05707947594657));
#427=CARTESIAN_POINT('',(-8.67361737988404E-16,-2.61621803030002,6.29192433335962));
#428=CARTESIAN_POINT('',(-8.67361737988404E-16,-5.12424705439832,4.49165901692014));
#429=CARTESIAN_POINT('',(-8.67361737988404E-16,-5.88657318,1.5));
#430=CARTESIAN_POINT('',(-1.84707917730629E-15,-0.91788542087486,13.9371590016632));
#431=CARTESIAN_POINT('',(-1.84707917730629E-15,-8.00099236996323,13.470673643902));
#432=CARTESIAN_POINT('',(-1.84707917730629E-15,-13.1242470543983,8.55739835346246));
#433=CARTESIAN_POINT('',(-1.84707917730629E-15,-13.88657318,1.5));
#434=CARTESIAN_POINT('',(7.99999999999999,-0.91788542087486,13.9371590016632));
#435=CARTESIAN_POINT('',(8.00000000000001,-8.00099236996323,13.470673643902));
#436=CARTESIAN_POINT('',(8.00000000000001,-13.1242470543983,8.55739835346246));
#437=CARTESIAN_POINT('',(7.99999999999999,-13.88657318,1.5));
#438=CARTESIAN_POINT('',(8.,0.462095255939876,6.05707947594657));
#439=CARTESIAN_POINT('',(8.00000000000001,-2.61621803030002,6.29192433335962));
#440=CARTESIAN_POINT('',(8.00000000000001,-5.12424705439832,4.49165901692014));
#441=CARTESIAN_POINT('',(8.,-5.88657318,1.5));
#442=CARTESIAN_POINT('',(148.5,0.,0.));
#443=CARTESIAN_POINT('',(148.5,0.,9.75));
#444=CARTESIAN_POINT('',(150.,0.,0.));
#445=CARTESIAN_POINT('',(150.,0.,8.25));
#446=CARTESIAN_POINT('',(148.5,0.,0.));
#447=CARTESIAN_POINT('',(150.,8.25,0.));
#448=CARTESIAN_POINT('',(2.50000000003455,0.,0.));
#449=CARTESIAN_POINT('',(2.50000000003455,0.,3.54244016514855));
#450=CARTESIAN_POINT('',(2.50000000001728,3.542440165165,0.));
#451=CARTESIAN_POINT('',(4.45571636510519,0.,0.));
#452=CARTESIAN_POINT('',(4.45571636510519,0.,9.1567849065435));
#453=CARTESIAN_POINT('',(3.5946609423009,3.21288229655743,0.));
#454=CARTESIAN_POINT('',(4.40533905769911,3.21288229655743,0.));
#455=CARTESIAN_POINT('',(4.8106750999563,3.27945804910153,0.));
#456=CARTESIAN_POINT('',(5.37839094965681,3.48109221305791,0.));
#457=CARTESIAN_POINT('',(5.5633611257549,3.56638540807291,0.));
#458=CARTESIAN_POINT('',(5.91136703491334,3.77114092922591,0.));
#459=CARTESIAN_POINT('',(6.07337973884188,3.88953399169415,0.));
#460=CARTESIAN_POINT('',(6.37206030388007,4.16017306274246,0.));
#461=CARTESIAN_POINT('',(6.50819588618043,4.31281871249304,0.));
#462=CARTESIAN_POINT('',(6.74121468096601,4.63900865504966,0.));
#463=CARTESIAN_POINT('',(6.84051456815054,4.81520655958428,0.));
#464=CARTESIAN_POINT('',(6.99982198604649,5.1879329619828,0.));
#465=CARTESIAN_POINT('',(7.05810570846588,5.37969274823107,0.));
#466=CARTESIAN_POINT('',(7.13401122989724,5.77348071877417,0.));
#467=CARTESIAN_POINT('',(7.15129162378439,5.97780230379908,0.));
#468=CARTESIAN_POINT('',(7.14343652260034,6.37940055742817,0.));
#469=CARTESIAN_POINT('',(7.1190263522091,6.57807316324521,0.));
#470=CARTESIAN_POINT('',(7.02973328174368,6.97121646563423,0.));
#471=CARTESIAN_POINT('',(6.96454489902404,7.16452930512452,0.));
#472=CARTESIAN_POINT('',(6.71756539096612,7.71200405933258,0.));
#473=CARTESIAN_POINT('',(6.47721662894421,8.0476864853187,0.));
#474=CARTESIAN_POINT('',(6.04085906125738,8.46024527759712,0.));
#475=CARTESIAN_POINT('',(5.8805018597249,8.58518224212218,0.));
#476=CARTESIAN_POINT('',(5.53958524017163,8.80160469621943,0.));
#477=CARTESIAN_POINT('',(5.36100832342092,8.892307196795,0.));
#478=CARTESIAN_POINT('',(4.98805375124186,9.03963605502378,0.));
#479=CARTESIAN_POINT('',(4.79156501716381,9.09646041751262,0.));
#480=CARTESIAN_POINT('',(4.39651090908307,9.1710790310872,0.));
#481=CARTESIAN_POINT('',(4.19717151106472,9.1896162736477,0.));
#482=CARTESIAN_POINT('',(3.79486506835768,9.18911598426922,0.));
#483=CARTESIAN_POINT('',(3.59140390696513,9.16951675170744,0.));
#484=CARTESIAN_POINT('',(3.19767420419313,9.09366447182623,0.));
#485=CARTESIAN_POINT('',(3.00523575813234,9.03756787559081,0.));
#486=CARTESIAN_POINT('',(2.44159908480641,8.81312697471018,0.));
#487=CARTESIAN_POINT('',(2.09879542260974,8.59421810585057,0.));
#488=CARTESIAN_POINT('',(1.65911352586002,8.17557356191813,0.));
#489=CARTESIAN_POINT('',(1.52790286220366,8.02385505407859,0.));
#490=CARTESIAN_POINT('',(1.29580761996612,7.69637379652022,0.));
#491=CARTESIAN_POINT('',(1.19428464897495,7.51864710741314,0.));
#492=CARTESIAN_POINT('',(1.03050573841129,7.15137649262475,0.));
#493=CARTESIAN_POINT('',(0.967217366195174,6.96107438384562,0.));
#494=CARTESIAN_POINT('',(0.879169408795474,6.56666109023294,0.));
#495=CARTESIAN_POINT('',(0.855319796515497,6.3647090116554,0.));
#496=CARTESIAN_POINT('',(0.849459228839051,5.96365038389865,0.));
#497=CARTESIAN_POINT('',(0.867486046729066,5.76056663257227,0.));
#498=CARTESIAN_POINT('',(0.945862555527578,5.36462907087963,0.));
#499=CARTESIAN_POINT('',(1.00538532980129,5.17323463574129,0.));
#500=CARTESIAN_POINT('',(1.16554131752092,4.80373716555644,0.));
#501=CARTESIAN_POINT('',(1.26687413508087,4.62591935565617,0.));
#502=CARTESIAN_POINT('',(1.50110902796408,4.30169624866461,0.));
#503=CARTESIAN_POINT('',(1.63494347488692,4.15277245047266,0.));
#504=CARTESIAN_POINT('',(2.08731268350099,3.74612826766642,0.));
#505=CARTESIAN_POINT('',(2.43466477819423,3.54668492716215,0.));
#506=CARTESIAN_POINT('',(3.19881964141305,3.27690212715317,0.));
#507=CARTESIAN_POINT('',(3.5946609423009,3.21288229655743,0.));
#508=CARTESIAN_POINT('',(4.40533905769911,3.21288229655743,0.));
#509=CARTESIAN_POINT('',(0.,0.,0.));
#510=CARTESIAN_POINT('',(5.87456224323773,0.,0.));
#511=CARTESIAN_POINT('',(5.87456224323773,0.,8.69577393481938));
#512=CARTESIAN_POINT('',(5.87456224323773,0.,0.));
#513=CARTESIAN_POINT('',(7.1106302207375,0.,0.));
#514=CARTESIAN_POINT('',(7.1106302207375,0.,8.5));
#515=CARTESIAN_POINT('',(7.1106302207375,0.,0.));
#516=CARTESIAN_POINT('',(30.,0.,0.));
#517=CARTESIAN_POINT('',(30.,0.,8.5));
#518=CARTESIAN_POINT('',(0.,0.,0.));
#519=CARTESIAN_POINT('',(59.75,0.,0.));
#520=CARTESIAN_POINT('',(59.75,0.,9.75));
#521=CARTESIAN_POINT('',(59.75,0.,0.));
#522=CARTESIAN_POINT('',(60.,0.,0.));
#523=CARTESIAN_POINT('',(60.,0.,10.));
#524=CARTESIAN_POINT('',(60.,0.,0.));
#525=CARTESIAN_POINT('',(144.582179545096,0.,0.));
#526=CARTESIAN_POINT('',(144.582179545096,0.,10.));
#527=CARTESIAN_POINT('',(0.,0.,0.));
#528=CARTESIAN_POINT('',(146.,0.,0.));
#529=CARTESIAN_POINT('',(146.,0.,9.75));
#530=CARTESIAN_POINT('',(146.,0.,0.));
#531=CARTESIAN_POINT('',(0.,0.,0.));
#532=(
GEOMETRIC_REPRESENTATION_CONTEXT(3)
GLOBAL_UNCERTAINTY_ASSIGNED_CONTEXT((#533))
GLOBAL_UNIT_ASSIGNED_CONTEXT((#539,#535,#534))
REPRESENTATION_CONTEXT('model1','TOP_LEVEL_ASSEMBLY_PART')
);
#533=UNCERTAINTY_MEASURE_WITH_UNIT(LENGTH_MEASURE(2.E-5),#539,
'DISTANCE_ACCURACY_VALUE','Maximum Tolerance applied to model');
#534=(
NAMED_UNIT(*)
SI_UNIT($,.STERADIAN.)
SOLID_ANGLE_UNIT()
);
#535=(
CONVERSION_BASED_UNIT('DEGREE',#537)
NAMED_UNIT(#536)
PLANE_ANGLE_UNIT()
);
#536=DIMENSIONAL_EXPONENTS(0.,0.,0.,0.,0.,0.,0.);
#537=PLANE_ANGLE_MEASURE_WITH_UNIT(PLANE_ANGLE_MEASURE(0.0174532925),#538);
#538=(
NAMED_UNIT(*)
PLANE_ANGLE_UNIT()
SI_UNIT($,.RADIAN.)
);
#539=(
LENGTH_UNIT()
NAMED_UNIT(*)
SI_UNIT(.MILLI.,.METRE.)
);
ENDSEC;
END-ISO-10303-21;
