ISO-10303-21;
HEADER;
/* Generated by software containing ST-Developer
 * from STEP Tools, Inc. (www.steptools.com) 
 */
/* OPTION: using custom schema-name function */

FILE_DESCRIPTION(
/* description */ (''),
/* implementation_level */ '2;1');

FILE_NAME(
/* name */ 'AEMR-RD08T2-D20-M10-L30-Z03-H.stp',
/* time_stamp */ '2023-10-19T20:18:19+03:00',
/* author */ (''),
/* organization */ (''),
/* preprocessor_version */ 'ST-DEVELOPER v19.4',
/* originating_system */ 'SIEMENS PLM Software NX2306.5001',
/* authorisation */ '');

FILE_SCHEMA (('AUTOMOTIVE_DESIGN { 1 0 10303 214 3 1 1 1 }'));
ENDSEC;

DATA;
#10=PROPERTY_DEFINITION_REPRESENTATION(#14,#12);
#11=PROPERTY_DEFINITION_REPRESENTATION(#15,#13);
#12=REPRESENTATION('',(#16),#568);
#13=REPRESENTATION('',(#17),#568);
#14=PROPERTY_DEFINITION('pmi validation property','',#21);
#15=PROPERTY_DEFINITION('pmi validation property','',#21);
#16=VALUE_REPRESENTATION_ITEM('number of annotations',COUNT_MEASURE(0.));
#17=VALUE_REPRESENTATION_ITEM('number of views',COUNT_MEASURE(0.));
#18=SHAPE_REPRESENTATION_RELATIONSHIP('None',
'relationship between AEMR-RD08T2-D20-M10-L30-Z03-H-LIGHT_x_t_objects-
None and AEMR-RD08T2-D20-M10-L30-Z03-H-LIGHT_x_t_objects-None',#30,#19);
#19=ADVANCED_BREP_SHAPE_REPRESENTATION(
'AEMR-RD08T2-D20-M10-L30-Z03-H-LIGHT_x_t_objects-None',(#50,#51),#568);
#20=SHAPE_DEFINITION_REPRESENTATION(#21,#30);
#21=PRODUCT_DEFINITION_SHAPE('','',#22);
#22=PRODUCT_DEFINITION(' ','',#24,#23);
#23=PRODUCT_DEFINITION_CONTEXT('part definition',#29,'design');
#24=PRODUCT_DEFINITION_FORMATION_WITH_SPECIFIED_SOURCE(' ',' ',#26,
 .NOT_KNOWN.);
#25=PRODUCT_RELATED_PRODUCT_CATEGORY('part','',(#26));
#26=PRODUCT('AEMR-RD08T2-D20-M10-L30-Z03-H-LIGHT_x_t_objects',
'AEMR-RD08T2-D20-M10-L30-Z03-H-LIGHT_x_t_objects',' ',(#27));
#27=PRODUCT_CONTEXT(' ',#29,'mechanical');
#28=APPLICATION_PROTOCOL_DEFINITION('international standard',
'automotive_design',2010,#29);
#29=APPLICATION_CONTEXT(
'core data for automotive mechanical design processes');
#30=SHAPE_REPRESENTATION(
'AEMR-RD08T2-D20-M10-L30-Z03-H-LIGHT_x_t_objects-None',(#265),#568);
#31=DRAUGHTING_PRE_DEFINED_COLOUR('yellow');
#32=(
BOUNDED_SURFACE()
B_SPLINE_SURFACE(3,3,((#490,#491,#492,#493,#494,#495,#496),(#497,#498,#499,
#500,#501,#502,#503),(#504,#505,#506,#507,#508,#509,#510),(#511,#512,#513,
#514,#515,#516,#517),(#518,#519,#520,#521,#522,#523,#524),(#525,#526,#527,
#528,#529,#530,#531),(#532,#533,#534,#535,#536,#537,#538)),
 .UNSPECIFIED.,.T.,.F.,.F.)
B_SPLINE_SURFACE_WITH_KNOTS((1,3,3,3,1),(4,3,4),(-0.5,0.,0.5,1.,1.5),(0.,
0.5,1.),.UNSPECIFIED.)
GEOMETRIC_REPRESENTATION_ITEM()
RATIONAL_B_SPLINE_SURFACE(((1.,0.570190063776771,0.570190063776771,1.,0.570190063776771,
0.570190063776771,1.),(0.333333333333334,0.190063354592257,0.190063354592257,
0.333333333333334,0.190063354592257,0.190063354592257,0.333333333333334),
(0.333333333333334,0.190063354592257,0.190063354592257,0.333333333333334,
0.190063354592257,0.190063354592257,0.333333333333334),(1.,0.570190063776771,
0.570190063776771,1.,0.570190063776771,0.570190063776771,1.),(0.333333333333334,
0.190063354592257,0.190063354592257,0.333333333333334,0.190063354592257,
0.190063354592257,0.333333333333334),(0.333333333333334,0.190063354592257,
0.190063354592257,0.333333333333334,0.190063354592257,0.190063354592257,
0.333333333333334),(1.,0.570190063776771,0.570190063776771,1.,0.570190063776771,
0.570190063776771,1.)))
REPRESENTATION_ITEM('')
SURFACE()
);
#33=(
BOUNDED_SURFACE()
B_SPLINE_SURFACE(3,3,((#539,#540,#541,#542),(#543,#544,#545,#546),(#547,
#548,#549,#550),(#551,#552,#553,#554),(#555,#556,#557,#558),(#559,#560,
#561,#562),(#563,#564,#565,#566)),.UNSPECIFIED.,.T.,.F.,.F.)
B_SPLINE_SURFACE_WITH_KNOTS((1,3,3,3,1),(4,4),(-0.5,0.,0.5,1.,1.5),(0.,
1.),.UNSPECIFIED.)
GEOMETRIC_REPRESENTATION_ITEM()
RATIONAL_B_SPLINE_SURFACE(((1.,0.831696667730935,0.831696667730935,1.),
(0.333333333333334,0.277232222576978,0.277232222576978,0.333333333333334),
(0.333333333333334,0.277232222576978,0.277232222576978,0.333333333333334),
(1.,0.831696667730935,0.831696667730935,1.),(0.333333333333334,0.277232222576978,
0.277232222576978,0.333333333333334),(0.333333333333334,0.277232222576978,
0.277232222576978,0.333333333333334),(1.,0.831696667730935,0.831696667730935,
1.)))
REPRESENTATION_ITEM('')
SURFACE()
);
#34=PRESENTATION_LAYER_ASSIGNMENT('1','Layer 1',(#50,#51));
#35=STYLED_ITEM('',(#37),#50);
#36=STYLED_ITEM('',(#38),#51);
#37=PRESENTATION_STYLE_ASSIGNMENT((#39));
#38=PRESENTATION_STYLE_ASSIGNMENT((#40));
#39=SURFACE_STYLE_USAGE(.BOTH.,#41);
#40=SURFACE_STYLE_USAGE(.BOTH.,#42);
#41=SURFACE_SIDE_STYLE('',(#43));
#42=SURFACE_SIDE_STYLE('',(#44));
#43=SURFACE_STYLE_FILL_AREA(#45);
#44=SURFACE_STYLE_FILL_AREA(#46);
#45=FILL_AREA_STYLE('',(#47));
#46=FILL_AREA_STYLE('',(#48));
#47=FILL_AREA_STYLE_COLOUR('',#49);
#48=FILL_AREA_STYLE_COLOUR('',#31);
#49=COLOUR_RGB('silver gray',0.6,0.6,0.6);
#50=MANIFOLD_SOLID_BREP('',#52);
#51=MANIFOLD_SOLID_BREP('',#53);
#52=CLOSED_SHELL('',(#74,#75,#76,#77,#78,#79,#80,#81,#82,#83,#84,#85,#86,
#87,#88,#89,#90,#91));
#53=CLOSED_SHELL('',(#92,#93));
#54=FACE_OUTER_BOUND('',#152,.T.);
#55=FACE_OUTER_BOUND('',#153,.T.);
#56=SURFACE_OF_REVOLUTION('',#58,#57);
#57=AXIS1_PLACEMENT('',#465,#344);
#58=B_SPLINE_CURVE_WITH_KNOTS('',3,(#409,#410,#411,#412,#413,#414,#415,
#416,#417,#418,#419,#420,#421,#422,#423,#424,#425,#426,#427,#428,#429,#430,
#431,#432,#433,#434,#435,#436,#437,#438,#439,#440,#441,#442,#443,#444,#445,
#446,#447,#448,#449,#450,#451,#452,#453,#454,#455,#456,#457,#458,#459,#460,
#461,#462,#463,#464),.UNSPECIFIED.,.T.,.F.,(2,2,2,2,2,2,2,2,2,2,2,2,2,2,
2,2,2,2,2,2,2,2,2,2,2,2,2,2,2,2),(-0.0625,0.,0.0625,0.09375,0.125,0.15625,
0.1875,0.21875,0.25,0.28125,0.3125,0.375,0.40625,0.4375,0.46875,0.5,0.53125,
0.5625,0.625,0.65625,0.6875,0.71875,0.75,0.78125,0.8125,0.84375,0.875,0.9375,
1.,1.0625),.UNSPECIFIED.);
#59=CYLINDRICAL_SURFACE('',#276,9.);
#60=CYLINDRICAL_SURFACE('',#280,8.5);
#61=CYLINDRICAL_SURFACE('',#292,5.);
#62=CYLINDRICAL_SURFACE('',#296,5.25);
#63=CYLINDRICAL_SURFACE('',#299,5.05);
#64=PLANE('',#272);
#65=PLANE('',#286);
#66=PLANE('',#288);
#67=CONICAL_SURFACE('',#270,5.5467687582399,76.0000000000001);
#68=CONICAL_SURFACE('',#274,8.5,45.0000000000002);
#69=CONICAL_SURFACE('',#278,9.,44.9999999999998);
#70=CONICAL_SURFACE('',#284,8.69577393481938,17.9999999999998);
#71=CONICAL_SURFACE('',#290,4.,45.0000000000002);
#72=CONICAL_SURFACE('',#294,5.,30.);
#73=CONICAL_SURFACE('',#298,5.25,15.);
#74=ADVANCED_FACE('',(#96,#97),#94,.F.);
#75=ADVANCED_FACE('',(#98,#99),#67,.F.);
#76=ADVANCED_FACE('',(#100,#101),#64,.F.);
#77=ADVANCED_FACE('',(#102,#103),#68,.T.);
#78=ADVANCED_FACE('',(#104,#105),#59,.T.);
#79=ADVANCED_FACE('',(#106,#107),#69,.T.);
#80=ADVANCED_FACE('',(#108,#109),#60,.T.);
#81=ADVANCED_FACE('',(#110,#111),#95,.F.);
#82=ADVANCED_FACE('',(#112,#113),#70,.T.);
#83=ADVANCED_FACE('',(#114,#115),#56,.T.);
#84=ADVANCED_FACE('',(#54),#65,.F.);
#85=ADVANCED_FACE('',(#55),#66,.F.);
#86=ADVANCED_FACE('',(#116,#117),#71,.T.);
#87=ADVANCED_FACE('',(#118,#119),#61,.T.);
#88=ADVANCED_FACE('',(#120,#121),#72,.T.);
#89=ADVANCED_FACE('',(#122,#123),#62,.T.);
#90=ADVANCED_FACE('',(#124,#125),#73,.T.);
#91=ADVANCED_FACE('',(#126,#127),#63,.T.);
#92=ADVANCED_FACE('',(#128,#129),#32,.F.);
#93=ADVANCED_FACE('',(#130,#131),#33,.F.);
#94=TOROIDAL_SURFACE('',#268,5.45,0.4);
#95=TOROIDAL_SURFACE('',#282,12.5,4.);
#96=FACE_BOUND('',#132,.T.);
#97=FACE_BOUND('',#133,.T.);
#98=FACE_BOUND('',#134,.T.);
#99=FACE_BOUND('',#135,.T.);
#100=FACE_BOUND('',#136,.T.);
#101=FACE_BOUND('',#137,.T.);
#102=FACE_BOUND('',#138,.T.);
#103=FACE_BOUND('',#139,.T.);
#104=FACE_BOUND('',#140,.T.);
#105=FACE_BOUND('',#141,.T.);
#106=FACE_BOUND('',#142,.T.);
#107=FACE_BOUND('',#143,.T.);
#108=FACE_BOUND('',#144,.T.);
#109=FACE_BOUND('',#145,.T.);
#110=FACE_BOUND('',#146,.T.);
#111=FACE_BOUND('',#147,.T.);
#112=FACE_BOUND('',#148,.T.);
#113=FACE_BOUND('',#149,.T.);
#114=FACE_BOUND('',#150,.T.);
#115=FACE_BOUND('',#151,.T.);
#116=FACE_BOUND('',#154,.T.);
#117=FACE_BOUND('',#155,.T.);
#118=FACE_BOUND('',#156,.T.);
#119=FACE_BOUND('',#157,.T.);
#120=FACE_BOUND('',#158,.T.);
#121=FACE_BOUND('',#159,.T.);
#122=FACE_BOUND('',#160,.T.);
#123=FACE_BOUND('',#161,.T.);
#124=FACE_BOUND('',#162,.T.);
#125=FACE_BOUND('',#163,.T.);
#126=FACE_BOUND('',#164,.T.);
#127=FACE_BOUND('',#165,.T.);
#128=FACE_BOUND('',#166,.T.);
#129=FACE_BOUND('',#167,.T.);
#130=FACE_BOUND('',#168,.T.);
#131=FACE_BOUND('',#169,.T.);
#132=EDGE_LOOP('',(#170));
#133=EDGE_LOOP('',(#171));
#134=EDGE_LOOP('',(#172));
#135=EDGE_LOOP('',(#173));
#136=EDGE_LOOP('',(#174));
#137=EDGE_LOOP('',(#175));
#138=EDGE_LOOP('',(#176));
#139=EDGE_LOOP('',(#177));
#140=EDGE_LOOP('',(#178));
#141=EDGE_LOOP('',(#179));
#142=EDGE_LOOP('',(#180));
#143=EDGE_LOOP('',(#181));
#144=EDGE_LOOP('',(#182));
#145=EDGE_LOOP('',(#183));
#146=EDGE_LOOP('',(#184));
#147=EDGE_LOOP('',(#185));
#148=EDGE_LOOP('',(#186));
#149=EDGE_LOOP('',(#187));
#150=EDGE_LOOP('',(#188));
#151=EDGE_LOOP('',(#189));
#152=EDGE_LOOP('',(#190));
#153=EDGE_LOOP('',(#191));
#154=EDGE_LOOP('',(#192));
#155=EDGE_LOOP('',(#193));
#156=EDGE_LOOP('',(#194));
#157=EDGE_LOOP('',(#195));
#158=EDGE_LOOP('',(#196));
#159=EDGE_LOOP('',(#197));
#160=EDGE_LOOP('',(#198));
#161=EDGE_LOOP('',(#199));
#162=EDGE_LOOP('',(#200));
#163=EDGE_LOOP('',(#201));
#164=EDGE_LOOP('',(#202));
#165=EDGE_LOOP('',(#203));
#166=EDGE_LOOP('',(#204));
#167=EDGE_LOOP('',(#205));
#168=EDGE_LOOP('',(#206));
#169=EDGE_LOOP('',(#207));
#170=ORIENTED_EDGE('',*,*,#227,.F.);
#171=ORIENTED_EDGE('',*,*,#228,.T.);
#172=ORIENTED_EDGE('',*,*,#229,.F.);
#173=ORIENTED_EDGE('',*,*,#227,.T.);
#174=ORIENTED_EDGE('',*,*,#230,.F.);
#175=ORIENTED_EDGE('',*,*,#229,.T.);
#176=ORIENTED_EDGE('',*,*,#231,.F.);
#177=ORIENTED_EDGE('',*,*,#230,.T.);
#178=ORIENTED_EDGE('',*,*,#232,.F.);
#179=ORIENTED_EDGE('',*,*,#231,.T.);
#180=ORIENTED_EDGE('',*,*,#233,.F.);
#181=ORIENTED_EDGE('',*,*,#232,.T.);
#182=ORIENTED_EDGE('',*,*,#234,.F.);
#183=ORIENTED_EDGE('',*,*,#233,.T.);
#184=ORIENTED_EDGE('',*,*,#235,.F.);
#185=ORIENTED_EDGE('',*,*,#234,.T.);
#186=ORIENTED_EDGE('',*,*,#236,.F.);
#187=ORIENTED_EDGE('',*,*,#235,.T.);
#188=ORIENTED_EDGE('',*,*,#237,.F.);
#189=ORIENTED_EDGE('',*,*,#236,.T.);
#190=ORIENTED_EDGE('',*,*,#237,.T.);
#191=ORIENTED_EDGE('',*,*,#238,.F.);
#192=ORIENTED_EDGE('',*,*,#239,.F.);
#193=ORIENTED_EDGE('',*,*,#238,.T.);
#194=ORIENTED_EDGE('',*,*,#240,.F.);
#195=ORIENTED_EDGE('',*,*,#239,.T.);
#196=ORIENTED_EDGE('',*,*,#241,.F.);
#197=ORIENTED_EDGE('',*,*,#240,.T.);
#198=ORIENTED_EDGE('',*,*,#242,.F.);
#199=ORIENTED_EDGE('',*,*,#241,.T.);
#200=ORIENTED_EDGE('',*,*,#243,.F.);
#201=ORIENTED_EDGE('',*,*,#242,.T.);
#202=ORIENTED_EDGE('',*,*,#228,.F.);
#203=ORIENTED_EDGE('',*,*,#243,.T.);
#204=ORIENTED_EDGE('',*,*,#244,.F.);
#205=ORIENTED_EDGE('',*,*,#245,.F.);
#206=ORIENTED_EDGE('',*,*,#245,.T.);
#207=ORIENTED_EDGE('',*,*,#244,.T.);
#208=VERTEX_POINT('',#379);
#209=VERTEX_POINT('',#381);
#210=VERTEX_POINT('',#384);
#211=VERTEX_POINT('',#387);
#212=VERTEX_POINT('',#390);
#213=VERTEX_POINT('',#393);
#214=VERTEX_POINT('',#396);
#215=VERTEX_POINT('',#399);
#216=VERTEX_POINT('',#402);
#217=VERTEX_POINT('',#405);
#218=VERTEX_POINT('',#408);
#219=VERTEX_POINT('',#468);
#220=VERTEX_POINT('',#471);
#221=VERTEX_POINT('',#474);
#222=VERTEX_POINT('',#477);
#223=VERTEX_POINT('',#480);
#224=VERTEX_POINT('',#483);
#225=VERTEX_POINT('',#487);
#226=VERTEX_POINT('',#489);
#227=EDGE_CURVE('',#208,#208,#246,.T.);
#228=EDGE_CURVE('',#209,#209,#247,.T.);
#229=EDGE_CURVE('',#210,#210,#248,.T.);
#230=EDGE_CURVE('',#211,#211,#249,.T.);
#231=EDGE_CURVE('',#212,#212,#250,.T.);
#232=EDGE_CURVE('',#213,#213,#251,.T.);
#233=EDGE_CURVE('',#214,#214,#252,.T.);
#234=EDGE_CURVE('',#215,#215,#253,.T.);
#235=EDGE_CURVE('',#216,#216,#254,.T.);
#236=EDGE_CURVE('',#217,#217,#255,.T.);
#237=EDGE_CURVE('',#218,#218,#256,.T.);
#238=EDGE_CURVE('',#219,#219,#257,.T.);
#239=EDGE_CURVE('',#220,#220,#258,.T.);
#240=EDGE_CURVE('',#221,#221,#259,.T.);
#241=EDGE_CURVE('',#222,#222,#260,.T.);
#242=EDGE_CURVE('',#223,#223,#261,.T.);
#243=EDGE_CURVE('',#224,#224,#262,.T.);
#244=EDGE_CURVE('',#225,#225,#263,.T.);
#245=EDGE_CURVE('',#226,#226,#264,.T.);
#246=CIRCLE('',#266,5.5467687582399);
#247=CIRCLE('',#267,5.05);
#248=CIRCLE('',#269,6.25);
#249=CIRCLE('',#271,8.5);
#250=CIRCLE('',#273,9.);
#251=CIRCLE('',#275,9.);
#252=CIRCLE('',#277,8.5);
#253=CIRCLE('',#279,8.5);
#254=CIRCLE('',#281,8.69577393481938);
#255=CIRCLE('',#283,8.97856080013816);
#256=CIRCLE('',#285,3.63875100413201);
#257=CIRCLE('',#287,4.);
#258=CIRCLE('',#289,5.);
#259=CIRCLE('',#291,5.);
#260=CIRCLE('',#293,5.25);
#261=CIRCLE('',#295,5.25);
#262=CIRCLE('',#297,5.05);
#263=CIRCLE('',#300,4.);
#264=CIRCLE('',#301,4.);
#265=AXIS2_PLACEMENT_3D('',#377,#302,#303);
#266=AXIS2_PLACEMENT_3D('',#378,#304,#305);
#267=AXIS2_PLACEMENT_3D('',#380,#306,#307);
#268=AXIS2_PLACEMENT_3D('',#382,#308,#309);
#269=AXIS2_PLACEMENT_3D('',#383,#310,#311);
#270=AXIS2_PLACEMENT_3D('',#385,#312,#313);
#271=AXIS2_PLACEMENT_3D('',#386,#314,#315);
#272=AXIS2_PLACEMENT_3D('',#388,#316,#317);
#273=AXIS2_PLACEMENT_3D('',#389,#318,#319);
#274=AXIS2_PLACEMENT_3D('',#391,#320,#321);
#275=AXIS2_PLACEMENT_3D('',#392,#322,#323);
#276=AXIS2_PLACEMENT_3D('',#394,#324,#325);
#277=AXIS2_PLACEMENT_3D('',#395,#326,#327);
#278=AXIS2_PLACEMENT_3D('',#397,#328,#329);
#279=AXIS2_PLACEMENT_3D('',#398,#330,#331);
#280=AXIS2_PLACEMENT_3D('',#400,#332,#333);
#281=AXIS2_PLACEMENT_3D('',#401,#334,#335);
#282=AXIS2_PLACEMENT_3D('',#403,#336,#337);
#283=AXIS2_PLACEMENT_3D('',#404,#338,#339);
#284=AXIS2_PLACEMENT_3D('',#406,#340,#341);
#285=AXIS2_PLACEMENT_3D('',#407,#342,#343);
#286=AXIS2_PLACEMENT_3D('',#466,#345,#346);
#287=AXIS2_PLACEMENT_3D('',#467,#347,#348);
#288=AXIS2_PLACEMENT_3D('',#469,#349,#350);
#289=AXIS2_PLACEMENT_3D('',#470,#351,#352);
#290=AXIS2_PLACEMENT_3D('',#472,#353,#354);
#291=AXIS2_PLACEMENT_3D('',#473,#355,#356);
#292=AXIS2_PLACEMENT_3D('',#475,#357,#358);
#293=AXIS2_PLACEMENT_3D('',#476,#359,#360);
#294=AXIS2_PLACEMENT_3D('',#478,#361,#362);
#295=AXIS2_PLACEMENT_3D('',#479,#363,#364);
#296=AXIS2_PLACEMENT_3D('',#481,#365,#366);
#297=AXIS2_PLACEMENT_3D('',#482,#367,#368);
#298=AXIS2_PLACEMENT_3D('',#484,#369,#370);
#299=AXIS2_PLACEMENT_3D('',#485,#371,#372);
#300=AXIS2_PLACEMENT_3D('',#486,#373,#374);
#301=AXIS2_PLACEMENT_3D('',#488,#375,#376);
#302=DIRECTION('',(0.,0.,1.));
#303=DIRECTION('',(1.,0.,0.));
#304=DIRECTION('',(-1.,0.,0.));
#305=DIRECTION('',(0.,0.,1.));
#306=DIRECTION('',(-1.,0.,0.));
#307=DIRECTION('',(0.,0.,1.));
#308=DIRECTION('',(-1.,0.,0.));
#309=DIRECTION('',(0.,0.,1.));
#310=DIRECTION('',(-1.,0.,0.));
#311=DIRECTION('',(0.,0.,1.));
#312=DIRECTION('',(1.,0.,0.));
#313=DIRECTION('',(4.3191781262917E-18,0.,-1.));
#314=DIRECTION('',(-1.,0.,0.));
#315=DIRECTION('',(0.,0.,1.));
#316=DIRECTION('',(-1.,0.,0.));
#317=DIRECTION('',(0.,0.,1.));
#318=DIRECTION('',(-1.,0.,0.));
#319=DIRECTION('',(0.,0.,1.));
#320=DIRECTION('',(-1.,0.,0.));
#321=DIRECTION('',(2.75216416615059E-17,0.,1.));
#322=DIRECTION('',(-1.,0.,0.));
#323=DIRECTION('',(0.,0.,1.));
#324=DIRECTION('',(-1.,0.,0.));
#325=DIRECTION('',(0.,0.,1.));
#326=DIRECTION('',(-1.,0.,0.));
#327=DIRECTION('',(0.,0.,1.));
#328=DIRECTION('',(1.,0.,0.));
#329=DIRECTION('',(-3.43850044792234E-17,0.,-1.));
#330=DIRECTION('',(-1.,0.,0.));
#331=DIRECTION('',(0.,0.,1.));
#332=DIRECTION('',(-1.,0.,0.));
#333=DIRECTION('',(0.,0.,1.));
#334=DIRECTION('',(-1.,0.,0.));
#335=DIRECTION('',(0.,0.,1.));
#336=DIRECTION('',(-1.,0.,0.));
#337=DIRECTION('',(0.,0.,1.));
#338=DIRECTION('',(-1.,0.,0.));
#339=DIRECTION('',(0.,0.,1.));
#340=DIRECTION('',(-1.,0.,0.));
#341=DIRECTION('',(-9.87956164832201E-17,0.,1.));
#342=DIRECTION('',(-1.,0.,0.));
#343=DIRECTION('',(0.,0.,1.));
#344=DIRECTION('',(-1.,0.,0.));
#345=DIRECTION('',(1.,0.,0.));
#346=DIRECTION('',(0.,0.,-1.));
#347=DIRECTION('',(-1.,0.,0.));
#348=DIRECTION('',(0.,0.,1.));
#349=DIRECTION('',(-1.,0.,0.));
#350=DIRECTION('',(0.,0.,1.));
#351=DIRECTION('',(-1.,0.,0.));
#352=DIRECTION('',(0.,0.,1.));
#353=DIRECTION('',(-1.,0.,0.));
#354=DIRECTION('',(4.14674934496445E-17,0.,1.));
#355=DIRECTION('',(-1.,0.,0.));
#356=DIRECTION('',(0.,0.,1.));
#357=DIRECTION('',(-1.,0.,0.));
#358=DIRECTION('',(0.,0.,1.));
#359=DIRECTION('',(-1.,0.,0.));
#360=DIRECTION('',(0.,0.,1.));
#361=DIRECTION('',(-1.,0.,0.));
#362=DIRECTION('',(8.34072892160619E-17,0.,1.));
#363=DIRECTION('',(-1.,0.,0.));
#364=DIRECTION('',(0.,0.,1.));
#365=DIRECTION('',(-1.,0.,0.));
#366=DIRECTION('',(0.,0.,1.));
#367=DIRECTION('',(-1.,0.,0.));
#368=DIRECTION('',(0.,0.,1.));
#369=DIRECTION('',(1.,0.,0.));
#370=DIRECTION('',(-3.42881934859176E-16,0.,-1.));
#371=DIRECTION('',(-1.,0.,0.));
#372=DIRECTION('',(0.,0.,1.));
#373=DIRECTION('',(0.,-0.993055471537302,-0.11764705882353));
#374=DIRECTION('',(1.,0.,0.));
#375=DIRECTION('',(0.,0.,1.));
#376=DIRECTION('',(1.,0.,0.));
#377=CARTESIAN_POINT('',(0.,0.,0.));
#378=CARTESIAN_POINT('',(29.824664758955,0.,0.));
#379=CARTESIAN_POINT('',(29.824664758955,0.,5.5467687582399));
#380=CARTESIAN_POINT('',(30.2127830494655,0.,0.));
#381=CARTESIAN_POINT('',(30.2127830494655,0.,5.05));
#382=CARTESIAN_POINT('',(30.2127830494655,0.,0.));
#383=CARTESIAN_POINT('',(30.,0.,0.));
#384=CARTESIAN_POINT('',(30.,0.,6.25));
#385=CARTESIAN_POINT('',(29.824664758955,0.,0.));
#386=CARTESIAN_POINT('',(30.,0.,0.));
#387=CARTESIAN_POINT('',(30.,0.,8.5));
#388=CARTESIAN_POINT('',(30.,8.5,0.));
#389=CARTESIAN_POINT('',(29.5,0.,0.));
#390=CARTESIAN_POINT('',(29.5,0.,9.));
#391=CARTESIAN_POINT('',(30.,0.,0.));
#392=CARTESIAN_POINT('',(24.5,0.,0.));
#393=CARTESIAN_POINT('',(24.5,0.,9.));
#394=CARTESIAN_POINT('',(0.,0.,0.));
#395=CARTESIAN_POINT('',(24.,0.,0.));
#396=CARTESIAN_POINT('',(24.,0.,8.5));
#397=CARTESIAN_POINT('',(24.5,0.,0.));
#398=CARTESIAN_POINT('',(7.45876291709429,0.,0.));
#399=CARTESIAN_POINT('',(7.45876291709429,0.,8.5));
#400=CARTESIAN_POINT('',(0.,0.,0.));
#401=CARTESIAN_POINT('',(6.22269493959452,0.,0.));
#402=CARTESIAN_POINT('',(6.22269493959452,0.,8.69577393481938));
#403=CARTESIAN_POINT('',(7.45876291709429,0.,0.));
#404=CARTESIAN_POINT('',(5.35236645967349,0.,0.));
#405=CARTESIAN_POINT('',(5.35236645967349,0.,8.97856080013816));
#406=CARTESIAN_POINT('',(6.22269493959452,0.,0.));
#407=CARTESIAN_POINT('',(2.50000000004019,0.,0.));
#408=CARTESIAN_POINT('',(2.50000000004019,0.,3.63875100413201));
#409=CARTESIAN_POINT('',(3.59463174904208,3.31337457885801,0.));
#410=CARTESIAN_POINT('',(4.40536825095792,3.31337457885801,0.));
#411=CARTESIAN_POINT('',(4.81094379472214,3.37905956112757,0.));
#412=CARTESIAN_POINT('',(5.379651797655,3.5787309110294,0.));
#413=CARTESIAN_POINT('',(5.56506953340466,3.66327275742111,0.));
#414=CARTESIAN_POINT('',(5.91407799791542,3.86651795940242,0.));
#415=CARTESIAN_POINT('',(6.07672071964682,3.98420394020779,0.));
#416=CARTESIAN_POINT('',(6.37676572035407,4.2537576207366,0.));
#417=CARTESIAN_POINT('',(6.51346618988596,4.40585664746409,0.));
#418=CARTESIAN_POINT('',(6.7475750835419,4.73141440547362,0.));
#419=CARTESIAN_POINT('',(6.84750858434622,4.90781551482883,0.));
#420=CARTESIAN_POINT('',(7.00724492723535,5.28008608754167,0.));
#421=CARTESIAN_POINT('',(7.06566871113261,5.47180421628529,0.));
#422=CARTESIAN_POINT('',(7.1415815605224,5.86589743846848,0.));
#423=CARTESIAN_POINT('',(7.15867273919226,6.0703799357457,0.));
#424=CARTESIAN_POINT('',(7.15025447242493,6.47182048098804,0.));
#425=CARTESIAN_POINT('',(7.12548073351245,6.67053312051055,0.));
#426=CARTESIAN_POINT('',(7.03518025468511,7.06397986111159,0.));
#427=CARTESIAN_POINT('',(6.96956460943017,7.25686014676511,0.));
#428=CARTESIAN_POINT('',(6.72114064862905,7.80371196265695,0.));
#429=CARTESIAN_POINT('',(6.47979004345579,8.1388493534942,0.));
#430=CARTESIAN_POINT('',(6.04225822116063,8.55049084933784,0.));
#431=CARTESIAN_POINT('',(5.88132842796383,8.67525586238193,0.));
#432=CARTESIAN_POINT('',(5.5401371177137,8.89085917733382,0.));
#433=CARTESIAN_POINT('',(5.36139455791327,8.981264132845,0.));
#434=CARTESIAN_POINT('',(4.98801222285135,9.1281275168776,0.));
#435=CARTESIAN_POINT('',(4.79134785152206,9.1847408242083,0.));
#436=CARTESIAN_POINT('',(4.39628528768712,9.25902419888226,0.));
#437=CARTESIAN_POINT('',(4.19688085977615,9.27748566444144,0.));
#438=CARTESIAN_POINT('',(3.79431430412164,9.27693438559959,0.));
#439=CARTESIAN_POINT('',(3.59088030251419,9.25737669029042,0.));
#440=CARTESIAN_POINT('',(3.19705310566615,9.18174511653693,0.));
#441=CARTESIAN_POINT('',(3.00447885580195,9.12581032138543,0.));
#442=CARTESIAN_POINT('',(2.44019230690285,8.90190289922159,0.));
#443=CARTESIAN_POINT('',(2.09695153392824,8.68353864447151,0.));
#444=CARTESIAN_POINT('',(1.65637787586976,8.26587542941128,0.));
#445=CARTESIAN_POINT('',(1.52477025790678,8.11443608444932,0.));
#446=CARTESIAN_POINT('',(1.29177201547702,7.78734801782962,0.));
#447=CARTESIAN_POINT('',(1.18978061125428,7.60979223353713,0.));
#448=CARTESIAN_POINT('',(1.02513177585377,7.24286036009676,0.));
#449=CARTESIAN_POINT('',(0.961381992997735,7.05261078435461,0.));
#450=CARTESIAN_POINT('',(0.87252290406988,6.65799975135351,0.));
#451=CARTESIAN_POINT('',(0.848390602828761,6.45624732575159,0.));
#452=CARTESIAN_POINT('',(0.842115943225851,6.05501856913695,0.));
#453=CARTESIAN_POINT('',(0.860100777211332,5.85157713659857,0.));
#454=CARTESIAN_POINT('',(0.938562441438312,5.45586911711564,0.));
#455=CARTESIAN_POINT('',(0.99827159487047,5.26447128525116,0.));
#456=CARTESIAN_POINT('',(1.15935070207412,4.89480997630168,0.));
#457=CARTESIAN_POINT('',(1.2610822849909,4.71750523164326,0.));
#458=CARTESIAN_POINT('',(1.4963849732733,4.39418113826162,0.));
#459=CARTESIAN_POINT('',(1.6309259166332,4.24568271003221,0.));
#460=CARTESIAN_POINT('',(2.0861030652041,3.84036844858023,0.));
#461=CARTESIAN_POINT('',(2.43331922994846,3.64354410742514,0.));
#462=CARTESIAN_POINT('',(3.19913687057717,3.37638644930632,0.));
#463=CARTESIAN_POINT('',(3.59463174904208,3.31337457885801,0.));
#464=CARTESIAN_POINT('',(4.40536825095792,3.31337457885801,0.));
#465=CARTESIAN_POINT('',(0.,0.,0.));
#466=CARTESIAN_POINT('',(2.5000000000201,3.63875100415091,0.));
#467=CARTESIAN_POINT('',(50.,0.,0.));
#468=CARTESIAN_POINT('',(50.,0.,4.));
#469=CARTESIAN_POINT('',(50.,0.,0.));
#470=CARTESIAN_POINT('',(49.,0.,0.));
#471=CARTESIAN_POINT('',(49.,0.,5.));
#472=CARTESIAN_POINT('',(50.,0.,0.));
#473=CARTESIAN_POINT('',(36.4330127018922,0.,0.));
#474=CARTESIAN_POINT('',(36.4330127018922,0.,5.));
#475=CARTESIAN_POINT('',(0.,0.,0.));
#476=CARTESIAN_POINT('',(36.,0.,0.));
#477=CARTESIAN_POINT('',(36.,0.,5.25));
#478=CARTESIAN_POINT('',(36.4330127018922,0.,0.));
#479=CARTESIAN_POINT('',(31.1,0.,0.));
#480=CARTESIAN_POINT('',(31.1,0.,5.25));
#481=CARTESIAN_POINT('',(0.,0.,0.));
#482=CARTESIAN_POINT('',(30.3535898384864,0.,0.));
#483=CARTESIAN_POINT('',(30.3535898384864,0.,5.05));
#484=CARTESIAN_POINT('',(31.1,0.,0.));
#485=CARTESIAN_POINT('',(0.,0.,0.));
#486=CARTESIAN_POINT('',(4.,0.293085105654948,6.02607697372775));
#487=CARTESIAN_POINT('',(8.,0.293085105654948,6.02607697372775));
#488=CARTESIAN_POINT('',(4.,-5.94974811,1.));
#489=CARTESIAN_POINT('',(8.,-5.94974811,1.));
#490=CARTESIAN_POINT('',(8.,-5.94974811,1.));
#491=CARTESIAN_POINT('',(8.,-7.04266788053587,-5.50259733912743));
#492=CARTESIAN_POINT('',(8.,-1.35261116403041,-8.83448874531199));
#493=CARTESIAN_POINT('',(8.,3.78349329623307,-4.69943412016894));
#494=CARTESIAN_POINT('',(8.,8.91959775649655,-0.564379495025885));
#495=CARTESIAN_POINT('',(8.,6.87910376901298,5.70575846730786));
#496=CARTESIAN_POINT('',(8.,0.293085105654949,6.02607697372775));
#497=CARTESIAN_POINT('',(7.99999999999999,2.05025189,1.));
#498=CARTESIAN_POINT('',(7.99999999999999,0.957332119464128,3.24076082515953));
#499=CARTESIAN_POINT('',(7.99999999999999,-1.52553507187583,3.0152542608084));
#500=CARTESIAN_POINT('',(7.99999999999999,-2.19686671653815,0.614255193071632));
#501=CARTESIAN_POINT('',(7.99999999999999,-2.86819836120046,-1.78674387466513));
#502=CARTESIAN_POINT('',(7.99999999999999,-0.862359425054301,-3.26731567725961));
#503=CARTESIAN_POINT('',(7.99999999999999,1.23426157624318,-1.91836679857066));
#504=CARTESIAN_POINT('',(1.12355701329479E-16,2.05025189,1.));
#505=CARTESIAN_POINT('',(1.12355701329479E-16,0.957332119464128,3.24076082515953));
#506=CARTESIAN_POINT('',(1.12355701329479E-16,-1.52553507187583,3.0152542608084));
#507=CARTESIAN_POINT('',(1.12355701329479E-16,-2.19686671653815,0.614255193071634));
#508=CARTESIAN_POINT('',(1.12355701329479E-16,-2.86819836120046,-1.78674387466513));
#509=CARTESIAN_POINT('',(1.12355701329479E-16,-0.862359425054301,-3.26731567725961));
#510=CARTESIAN_POINT('',(1.12355701329479E-16,1.23426157624318,-1.91836679857066));
#511=CARTESIAN_POINT('',(-8.67361737988404E-16,-5.94974811,1.));
#512=CARTESIAN_POINT('',(-8.67361737988402E-16,-7.04266788053587,-5.50259733912743));
#513=CARTESIAN_POINT('',(-8.67361737988402E-16,-1.35261116403041,-8.83448874531199));
#514=CARTESIAN_POINT('',(-8.67361737988404E-16,3.78349329623307,-4.69943412016894));
#515=CARTESIAN_POINT('',(-8.67361737988402E-16,8.91959775649655,-0.564379495025884));
#516=CARTESIAN_POINT('',(-8.67361737988402E-16,6.87910376901298,5.70575846730786));
#517=CARTESIAN_POINT('',(-8.67361737988404E-16,0.293085105654948,6.02607697372775));
#518=CARTESIAN_POINT('',(-1.84707917730629E-15,-13.94974811,1.));
#519=CARTESIAN_POINT('',(-1.84707917730629E-15,-15.0426678805359,-14.2459555034144));
#520=CARTESIAN_POINT('',(-1.84707917730629E-15,-1.17968725618499,-20.6842317514324));
#521=CARTESIAN_POINT('',(-1.84707917730629E-15,9.76385330900428,-10.0131234334095));
#522=CARTESIAN_POINT('',(-1.84707917730629E-15,20.7073938741936,0.657984884613365));
#523=CARTESIAN_POINT('',(-1.84707917730629E-15,14.6205669630803,14.6788326118753));
#524=CARTESIAN_POINT('',(-1.84707917730629E-15,-0.648091364933289,13.9705207460262));
#525=CARTESIAN_POINT('',(7.99999999999999,-13.94974811,1.));
#526=CARTESIAN_POINT('',(7.99999999999999,-15.0426678805359,-14.2459555034144));
#527=CARTESIAN_POINT('',(7.99999999999999,-1.17968725618499,-20.6842317514324));
#528=CARTESIAN_POINT('',(7.99999999999999,9.76385330900428,-10.0131234334095));
#529=CARTESIAN_POINT('',(7.99999999999999,20.7073938741936,0.657984884613365));
#530=CARTESIAN_POINT('',(7.99999999999999,14.6205669630803,14.6788326118753));
#531=CARTESIAN_POINT('',(7.99999999999999,-0.648091364933289,13.9705207460262));
#532=CARTESIAN_POINT('',(8.,-5.94974811,1.));
#533=CARTESIAN_POINT('',(8.,-7.04266788053587,-5.50259733912743));
#534=CARTESIAN_POINT('',(8.,-1.35261116403041,-8.83448874531199));
#535=CARTESIAN_POINT('',(8.,3.78349329623307,-4.69943412016894));
#536=CARTESIAN_POINT('',(8.,8.91959775649655,-0.564379495025885));
#537=CARTESIAN_POINT('',(8.,6.87910376901298,5.70575846730786));
#538=CARTESIAN_POINT('',(8.,0.293085105654949,6.02607697372775));
#539=CARTESIAN_POINT('',(8.,0.293085105654948,6.02607697372775));
#540=CARTESIAN_POINT('',(8.,-2.91528621312388,6.18211976094142));
#541=CARTESIAN_POINT('',(8.,-5.41733351709544,4.16773271787035));
#542=CARTESIAN_POINT('',(8.,-5.94974811,1.));
#543=CARTESIAN_POINT('',(7.99999999999999,1.23426157624318,-1.91836679857066));
#544=CARTESIAN_POINT('',(7.99999999999999,2.25562805434582,-1.2612279239174));
#545=CARTESIAN_POINT('',(7.99999999999999,2.58266648290456,-0.0915840253661612));
#546=CARTESIAN_POINT('',(7.99999999999999,2.05025189,1.));
#547=CARTESIAN_POINT('',(1.12355701329479E-16,1.23426157624318,-1.91836679857066));
#548=CARTESIAN_POINT('',(1.12355701329479E-16,2.25562805434582,-1.2612279239174));
#549=CARTESIAN_POINT('',(1.12355701329479E-16,2.58266648290456,-0.0915840253661616));
#550=CARTESIAN_POINT('',(1.12355701329479E-16,2.05025189,1.));
#551=CARTESIAN_POINT('',(-8.67361737988404E-16,0.293085105654948,6.02607697372775));
#552=CARTESIAN_POINT('',(-8.67361737988403E-16,-2.91528621312388,6.18211976094142));
#553=CARTESIAN_POINT('',(-8.67361737988403E-16,-5.41733351709544,4.16773271787035));
#554=CARTESIAN_POINT('',(-8.67361737988404E-16,-5.94974811,1.));
#555=CARTESIAN_POINT('',(-1.84707917730629E-15,-0.648091364933289,13.9705207460262));
#556=CARTESIAN_POINT('',(-1.84707917730628E-15,-8.08620048059356,13.6254674458002));
#557=CARTESIAN_POINT('',(-1.84707917730628E-15,-13.4173335170954,8.42704946110685));
#558=CARTESIAN_POINT('',(-1.84707917730629E-15,-13.94974811,0.999999999999999));
#559=CARTESIAN_POINT('',(7.99999999999999,-0.648091364933289,13.9705207460262));
#560=CARTESIAN_POINT('',(7.99999999999999,-8.08620048059356,13.6254674458002));
#561=CARTESIAN_POINT('',(7.99999999999999,-13.4173335170954,8.42704946110685));
#562=CARTESIAN_POINT('',(7.99999999999999,-13.94974811,0.999999999999999));
#563=CARTESIAN_POINT('',(8.,0.293085105654948,6.02607697372775));
#564=CARTESIAN_POINT('',(8.,-2.91528621312388,6.18211976094142));
#565=CARTESIAN_POINT('',(8.,-5.41733351709544,4.16773271787035));
#566=CARTESIAN_POINT('',(8.,-5.94974811,1.));
#567=MECHANICAL_DESIGN_GEOMETRIC_PRESENTATION_REPRESENTATION('',(#35,#36),
#568);
#568=(
GEOMETRIC_REPRESENTATION_CONTEXT(3)
GLOBAL_UNCERTAINTY_ASSIGNED_CONTEXT((#569))
GLOBAL_UNIT_ASSIGNED_CONTEXT((#575,#571,#570))
REPRESENTATION_CONTEXT('AEMR-RD08T2-D20-M10-L30-Z03-H',
'TOP_LEVEL_ASSEMBLY_PART')
);
#569=UNCERTAINTY_MEASURE_WITH_UNIT(LENGTH_MEASURE(2.E-5),#575,
'DISTANCE_ACCURACY_VALUE','Maximum Tolerance applied to model');
#570=(
NAMED_UNIT(*)
SI_UNIT($,.STERADIAN.)
SOLID_ANGLE_UNIT()
);
#571=(
CONVERSION_BASED_UNIT('DEGREE',#573)
NAMED_UNIT(#572)
PLANE_ANGLE_UNIT()
);
#572=DIMENSIONAL_EXPONENTS(0.,0.,0.,0.,0.,0.,0.);
#573=PLANE_ANGLE_MEASURE_WITH_UNIT(PLANE_ANGLE_MEASURE(0.0174532925),#574);
#574=(
NAMED_UNIT(*)
PLANE_ANGLE_UNIT()
SI_UNIT($,.RADIAN.)
);
#575=(
LENGTH_UNIT()
NAMED_UNIT(*)
SI_UNIT(.MILLI.,.METRE.)
);
ENDSEC;
END-ISO-10303-21;
