ISO-10303-21;
HEADER;
/* Generated by software containing ST-Developer
 * from STEP Tools, Inc. (www.steptools.com) 
 */
/* OPTION: using custom schema-name function */

FILE_DESCRIPTION(
/* description */ (''),
/* implementation_level */ '2;1');

FILE_NAME(
/* name */ 'AEMR-RD1003-D20-M10-L30-Z02-H.stp',
/* time_stamp */ '2023-10-19T20:45:50+03:00',
/* author */ (''),
/* organization */ (''),
/* preprocessor_version */ 'ST-DEVELOPER v19.4',
/* originating_system */ 'SIEMENS PLM Software NX2306.5001',
/* authorisation */ '');

FILE_SCHEMA (('AUTOMOTIVE_DESIGN { 1 0 10303 214 3 1 1 1 }'));
ENDSEC;

DATA;
#10=PROPERTY_DEFINITION_REPRESENTATION(#14,#12);
#11=PROPERTY_DEFINITION_REPRESENTATION(#15,#13);
#12=REPRESENTATION('',(#16),#574);
#13=REPRESENTATION('',(#17),#574);
#14=PROPERTY_DEFINITION('pmi validation property','',#21);
#15=PROPERTY_DEFINITION('pmi validation property','',#21);
#16=VALUE_REPRESENTATION_ITEM('number of annotations',COUNT_MEASURE(0.));
#17=VALUE_REPRESENTATION_ITEM('number of views',COUNT_MEASURE(0.));
#18=SHAPE_REPRESENTATION_RELATIONSHIP('None',
'relationship between AEMR-RD1003-D20-M10-L30-Z02-H-LIGHT_x_t_objects-
None and AEMR-RD1003-D20-M10-L30-Z02-H-LIGHT_x_t_objects-None',#30,#19);
#19=ADVANCED_BREP_SHAPE_REPRESENTATION(
'AEMR-RD1003-D20-M10-L30-Z02-H-LIGHT_x_t_objects-None',(#50,#51),#574);
#20=SHAPE_DEFINITION_REPRESENTATION(#21,#30);
#21=PRODUCT_DEFINITION_SHAPE('','',#22);
#22=PRODUCT_DEFINITION(' ','',#24,#23);
#23=PRODUCT_DEFINITION_CONTEXT('part definition',#29,'design');
#24=PRODUCT_DEFINITION_FORMATION_WITH_SPECIFIED_SOURCE(' ',' ',#26,
 .NOT_KNOWN.);
#25=PRODUCT_RELATED_PRODUCT_CATEGORY('part','',(#26));
#26=PRODUCT('AEMR-RD1003-D20-M10-L30-Z02-H-LIGHT_x_t_objects',
'AEMR-RD1003-D20-M10-L30-Z02-H-LIGHT_x_t_objects',' ',(#27));
#27=PRODUCT_CONTEXT(' ',#29,'mechanical');
#28=APPLICATION_PROTOCOL_DEFINITION('international standard',
'automotive_design',2010,#29);
#29=APPLICATION_CONTEXT(
'core data for automotive mechanical design processes');
#30=SHAPE_REPRESENTATION(
'AEMR-RD1003-D20-M10-L30-Z02-H-LIGHT_x_t_objects-None',(#265),#574);
#31=DRAUGHTING_PRE_DEFINED_COLOUR('yellow');
#32=(
BOUNDED_SURFACE()
B_SPLINE_SURFACE(3,3,((#496,#497,#498,#499,#500,#501,#502),(#503,#504,#505,
#506,#507,#508,#509),(#510,#511,#512,#513,#514,#515,#516),(#517,#518,#519,
#520,#521,#522,#523),(#524,#525,#526,#527,#528,#529,#530),(#531,#532,#533,
#534,#535,#536,#537),(#538,#539,#540,#541,#542,#543,#544)),
 .UNSPECIFIED.,.T.,.F.,.F.)
B_SPLINE_SURFACE_WITH_KNOTS((1,3,3,3,1),(4,3,4),(-0.5,0.,0.5,1.,1.5),(0.,
0.5,1.),.UNSPECIFIED.)
GEOMETRIC_REPRESENTATION_ITEM()
RATIONAL_B_SPLINE_SURFACE(((1.,0.538763728519752,0.538763728519752,1.,0.538763728519752,
0.538763728519752,1.),(0.333333333333334,0.179587909506584,0.179587909506584,
0.333333333333334,0.179587909506584,0.179587909506584,0.333333333333334),
(0.333333333333334,0.179587909506584,0.179587909506584,0.333333333333334,
0.179587909506584,0.179587909506584,0.333333333333334),(1.,0.538763728519752,
0.538763728519752,1.,0.538763728519752,0.538763728519752,1.),(0.333333333333334,
0.179587909506584,0.179587909506584,0.333333333333334,0.179587909506584,
0.179587909506584,0.333333333333334),(0.333333333333334,0.179587909506584,
0.179587909506584,0.333333333333334,0.179587909506584,0.179587909506584,
0.333333333333334),(1.,0.538763728519752,0.538763728519752,1.,0.538763728519752,
0.538763728519752,1.)))
REPRESENTATION_ITEM('')
SURFACE()
);
#33=(
BOUNDED_SURFACE()
B_SPLINE_SURFACE(3,3,((#545,#546,#547,#548),(#549,#550,#551,#552),(#553,
#554,#555,#556),(#557,#558,#559,#560),(#561,#562,#563,#564),(#565,#566,
#567,#568),(#569,#570,#571,#572)),.UNSPECIFIED.,.T.,.F.,.F.)
B_SPLINE_SURFACE_WITH_KNOTS((1,3,3,3,1),(4,4),(-0.5,0.,0.5,1.,1.5),(0.,
1.),.UNSPECIFIED.)
GEOMETRIC_REPRESENTATION_ITEM()
RATIONAL_B_SPLINE_SURFACE(((1.,0.873395058200655,0.873395058200655,1.),
(0.333333333333334,0.291131686066885,0.291131686066885,0.333333333333334),
(0.333333333333334,0.291131686066885,0.291131686066885,0.333333333333334),
(1.,0.873395058200655,0.873395058200655,1.),(0.333333333333334,0.291131686066885,
0.291131686066885,0.333333333333334),(0.333333333333334,0.291131686066885,
0.291131686066885,0.333333333333334),(1.,0.873395058200655,0.873395058200655,
1.)))
REPRESENTATION_ITEM('')
SURFACE()
);
#34=PRESENTATION_LAYER_ASSIGNMENT('1','Layer 1',(#50,#51));
#35=STYLED_ITEM('',(#37),#50);
#36=STYLED_ITEM('',(#38),#51);
#37=PRESENTATION_STYLE_ASSIGNMENT((#39));
#38=PRESENTATION_STYLE_ASSIGNMENT((#40));
#39=SURFACE_STYLE_USAGE(.BOTH.,#41);
#40=SURFACE_STYLE_USAGE(.BOTH.,#42);
#41=SURFACE_SIDE_STYLE('',(#43));
#42=SURFACE_SIDE_STYLE('',(#44));
#43=SURFACE_STYLE_FILL_AREA(#45);
#44=SURFACE_STYLE_FILL_AREA(#46);
#45=FILL_AREA_STYLE('',(#47));
#46=FILL_AREA_STYLE('',(#48));
#47=FILL_AREA_STYLE_COLOUR('',#49);
#48=FILL_AREA_STYLE_COLOUR('',#31);
#49=COLOUR_RGB('silver gray',0.6,0.6,0.6);
#50=MANIFOLD_SOLID_BREP('',#52);
#51=MANIFOLD_SOLID_BREP('',#53);
#52=CLOSED_SHELL('',(#73,#74,#75,#76,#77,#78,#79,#80,#81,#82,#83,#84,#85,
#86,#87,#88,#89,#90));
#53=CLOSED_SHELL('',(#91,#92));
#54=TOROIDAL_SURFACE('',#284,5.45,0.4);
#55=TOROIDAL_SURFACE('',#298,10.,2.);
#56=CYLINDRICAL_SURFACE('',#274,4.875);
#57=CYLINDRICAL_SURFACE('',#278,5.25);
#58=CYLINDRICAL_SURFACE('',#282,5.05);
#59=CYLINDRICAL_SURFACE('',#292,9.);
#60=CYLINDRICAL_SURFACE('',#296,8.);
#61=CONICAL_SURFACE('',#272,3.625,45.0000000000001);
#62=CONICAL_SURFACE('',#276,4.875,30.);
#63=CONICAL_SURFACE('',#280,5.25,15.0000000000001);
#64=CONICAL_SURFACE('',#286,5.55352761804101,75.);
#65=CONICAL_SURFACE('',#290,8.5,44.9999999999999);
#66=CONICAL_SURFACE('',#294,9.,44.9999999999996);
#67=CONICAL_SURFACE('',#299,8.12061475842818,19.9999999999999);
#68=PLANE('',#268);
#69=PLANE('',#270);
#70=PLANE('',#288);
#71=FACE_OUTER_BOUND('',#134,.T.);
#72=FACE_OUTER_BOUND('',#135,.T.);
#73=ADVANCED_FACE('',(#96,#97),#93,.T.);
#74=ADVANCED_FACE('',(#71),#68,.F.);
#75=ADVANCED_FACE('',(#72),#69,.F.);
#76=ADVANCED_FACE('',(#98,#99),#61,.T.);
#77=ADVANCED_FACE('',(#100,#101),#56,.T.);
#78=ADVANCED_FACE('',(#102,#103),#62,.T.);
#79=ADVANCED_FACE('',(#104,#105),#57,.T.);
#80=ADVANCED_FACE('',(#106,#107),#63,.T.);
#81=ADVANCED_FACE('',(#108,#109),#58,.T.);
#82=ADVANCED_FACE('',(#110,#111),#54,.F.);
#83=ADVANCED_FACE('',(#112,#113),#64,.F.);
#84=ADVANCED_FACE('',(#114,#115),#70,.F.);
#85=ADVANCED_FACE('',(#116,#117),#65,.T.);
#86=ADVANCED_FACE('',(#118,#119),#59,.T.);
#87=ADVANCED_FACE('',(#120,#121),#66,.T.);
#88=ADVANCED_FACE('',(#122,#123),#60,.T.);
#89=ADVANCED_FACE('',(#124,#125),#55,.F.);
#90=ADVANCED_FACE('',(#126,#127),#67,.T.);
#91=ADVANCED_FACE('',(#128,#129),#32,.F.);
#92=ADVANCED_FACE('',(#130,#131),#33,.F.);
#93=SURFACE_OF_REVOLUTION('',#95,#94);
#94=AXIS1_PLACEMENT('',#444,#308);
#95=B_SPLINE_CURVE_WITH_KNOTS('',3,(#382,#383,#384,#385,#386,#387,#388,
#389,#390,#391,#392,#393,#394,#395,#396,#397,#398,#399,#400,#401,#402,#403,
#404,#405,#406,#407,#408,#409,#410,#411,#412,#413,#414,#415,#416,#417,#418,
#419,#420,#421,#422,#423,#424,#425,#426,#427,#428,#429,#430,#431,#432,#433,
#434,#435,#436,#437,#438,#439,#440,#441,#442,#443),.UNSPECIFIED.,.T.,.F.,
(2,2,2,2,2,2,2,2,2,2,2,2,2,2,2,2,2,2,2,2,2,2,2,2,2,2,2,2,2,2,2,2,2),(-0.0625,
0.,0.0625,0.09375,0.125,0.15625,0.1875,0.21875,0.25,0.28125,0.3125,0.34375,
0.375,0.40625,0.4375,0.46875,0.5,0.53125,0.5625,0.59375,0.625,0.65625,0.6875,
0.71875,0.75,0.78125,0.8125,0.84375,0.875,0.90625,0.9375,1.,1.0625),
 .UNSPECIFIED.);
#96=FACE_BOUND('',#132,.T.);
#97=FACE_BOUND('',#133,.T.);
#98=FACE_BOUND('',#136,.T.);
#99=FACE_BOUND('',#137,.T.);
#100=FACE_BOUND('',#138,.T.);
#101=FACE_BOUND('',#139,.T.);
#102=FACE_BOUND('',#140,.T.);
#103=FACE_BOUND('',#141,.T.);
#104=FACE_BOUND('',#142,.T.);
#105=FACE_BOUND('',#143,.T.);
#106=FACE_BOUND('',#144,.T.);
#107=FACE_BOUND('',#145,.T.);
#108=FACE_BOUND('',#146,.T.);
#109=FACE_BOUND('',#147,.T.);
#110=FACE_BOUND('',#148,.T.);
#111=FACE_BOUND('',#149,.T.);
#112=FACE_BOUND('',#150,.T.);
#113=FACE_BOUND('',#151,.T.);
#114=FACE_BOUND('',#152,.T.);
#115=FACE_BOUND('',#153,.T.);
#116=FACE_BOUND('',#154,.T.);
#117=FACE_BOUND('',#155,.T.);
#118=FACE_BOUND('',#156,.T.);
#119=FACE_BOUND('',#157,.T.);
#120=FACE_BOUND('',#158,.T.);
#121=FACE_BOUND('',#159,.T.);
#122=FACE_BOUND('',#160,.T.);
#123=FACE_BOUND('',#161,.T.);
#124=FACE_BOUND('',#162,.T.);
#125=FACE_BOUND('',#163,.T.);
#126=FACE_BOUND('',#164,.T.);
#127=FACE_BOUND('',#165,.T.);
#128=FACE_BOUND('',#166,.T.);
#129=FACE_BOUND('',#167,.T.);
#130=FACE_BOUND('',#168,.T.);
#131=FACE_BOUND('',#169,.T.);
#132=EDGE_LOOP('',(#170));
#133=EDGE_LOOP('',(#171));
#134=EDGE_LOOP('',(#172));
#135=EDGE_LOOP('',(#173));
#136=EDGE_LOOP('',(#174));
#137=EDGE_LOOP('',(#175));
#138=EDGE_LOOP('',(#176));
#139=EDGE_LOOP('',(#177));
#140=EDGE_LOOP('',(#178));
#141=EDGE_LOOP('',(#179));
#142=EDGE_LOOP('',(#180));
#143=EDGE_LOOP('',(#181));
#144=EDGE_LOOP('',(#182));
#145=EDGE_LOOP('',(#183));
#146=EDGE_LOOP('',(#184));
#147=EDGE_LOOP('',(#185));
#148=EDGE_LOOP('',(#186));
#149=EDGE_LOOP('',(#187));
#150=EDGE_LOOP('',(#188));
#151=EDGE_LOOP('',(#189));
#152=EDGE_LOOP('',(#190));
#153=EDGE_LOOP('',(#191));
#154=EDGE_LOOP('',(#192));
#155=EDGE_LOOP('',(#193));
#156=EDGE_LOOP('',(#194));
#157=EDGE_LOOP('',(#195));
#158=EDGE_LOOP('',(#196));
#159=EDGE_LOOP('',(#197));
#160=EDGE_LOOP('',(#198));
#161=EDGE_LOOP('',(#199));
#162=EDGE_LOOP('',(#200));
#163=EDGE_LOOP('',(#201));
#164=EDGE_LOOP('',(#202));
#165=EDGE_LOOP('',(#203));
#166=EDGE_LOOP('',(#204));
#167=EDGE_LOOP('',(#205));
#168=EDGE_LOOP('',(#206));
#169=EDGE_LOOP('',(#207));
#170=ORIENTED_EDGE('',*,*,#227,.F.);
#171=ORIENTED_EDGE('',*,*,#228,.T.);
#172=ORIENTED_EDGE('',*,*,#227,.T.);
#173=ORIENTED_EDGE('',*,*,#229,.F.);
#174=ORIENTED_EDGE('',*,*,#230,.F.);
#175=ORIENTED_EDGE('',*,*,#229,.T.);
#176=ORIENTED_EDGE('',*,*,#231,.F.);
#177=ORIENTED_EDGE('',*,*,#230,.T.);
#178=ORIENTED_EDGE('',*,*,#232,.F.);
#179=ORIENTED_EDGE('',*,*,#231,.T.);
#180=ORIENTED_EDGE('',*,*,#233,.F.);
#181=ORIENTED_EDGE('',*,*,#232,.T.);
#182=ORIENTED_EDGE('',*,*,#234,.F.);
#183=ORIENTED_EDGE('',*,*,#233,.T.);
#184=ORIENTED_EDGE('',*,*,#235,.F.);
#185=ORIENTED_EDGE('',*,*,#234,.T.);
#186=ORIENTED_EDGE('',*,*,#236,.F.);
#187=ORIENTED_EDGE('',*,*,#235,.T.);
#188=ORIENTED_EDGE('',*,*,#237,.F.);
#189=ORIENTED_EDGE('',*,*,#236,.T.);
#190=ORIENTED_EDGE('',*,*,#238,.F.);
#191=ORIENTED_EDGE('',*,*,#237,.T.);
#192=ORIENTED_EDGE('',*,*,#239,.F.);
#193=ORIENTED_EDGE('',*,*,#238,.T.);
#194=ORIENTED_EDGE('',*,*,#240,.F.);
#195=ORIENTED_EDGE('',*,*,#239,.T.);
#196=ORIENTED_EDGE('',*,*,#241,.F.);
#197=ORIENTED_EDGE('',*,*,#240,.T.);
#198=ORIENTED_EDGE('',*,*,#242,.F.);
#199=ORIENTED_EDGE('',*,*,#241,.T.);
#200=ORIENTED_EDGE('',*,*,#243,.F.);
#201=ORIENTED_EDGE('',*,*,#242,.T.);
#202=ORIENTED_EDGE('',*,*,#228,.F.);
#203=ORIENTED_EDGE('',*,*,#243,.T.);
#204=ORIENTED_EDGE('',*,*,#244,.T.);
#205=ORIENTED_EDGE('',*,*,#245,.T.);
#206=ORIENTED_EDGE('',*,*,#245,.F.);
#207=ORIENTED_EDGE('',*,*,#244,.F.);
#208=VERTEX_POINT('',#379);
#209=VERTEX_POINT('',#381);
#210=VERTEX_POINT('',#447);
#211=VERTEX_POINT('',#450);
#212=VERTEX_POINT('',#453);
#213=VERTEX_POINT('',#456);
#214=VERTEX_POINT('',#459);
#215=VERTEX_POINT('',#462);
#216=VERTEX_POINT('',#465);
#217=VERTEX_POINT('',#468);
#218=VERTEX_POINT('',#471);
#219=VERTEX_POINT('',#474);
#220=VERTEX_POINT('',#477);
#221=VERTEX_POINT('',#480);
#222=VERTEX_POINT('',#483);
#223=VERTEX_POINT('',#486);
#224=VERTEX_POINT('',#489);
#225=VERTEX_POINT('',#493);
#226=VERTEX_POINT('',#495);
#227=EDGE_CURVE('',#208,#208,#246,.T.);
#228=EDGE_CURVE('',#209,#209,#247,.T.);
#229=EDGE_CURVE('',#210,#210,#248,.T.);
#230=EDGE_CURVE('',#211,#211,#249,.T.);
#231=EDGE_CURVE('',#212,#212,#250,.T.);
#232=EDGE_CURVE('',#213,#213,#251,.T.);
#233=EDGE_CURVE('',#214,#214,#252,.T.);
#234=EDGE_CURVE('',#215,#215,#253,.T.);
#235=EDGE_CURVE('',#216,#216,#254,.T.);
#236=EDGE_CURVE('',#217,#217,#255,.T.);
#237=EDGE_CURVE('',#218,#218,#256,.T.);
#238=EDGE_CURVE('',#219,#219,#257,.T.);
#239=EDGE_CURVE('',#220,#220,#258,.T.);
#240=EDGE_CURVE('',#221,#221,#259,.T.);
#241=EDGE_CURVE('',#222,#222,#260,.T.);
#242=EDGE_CURVE('',#223,#223,#261,.T.);
#243=EDGE_CURVE('',#224,#224,#262,.T.);
#244=EDGE_CURVE('',#225,#225,#263,.T.);
#245=EDGE_CURVE('',#226,#226,#264,.T.);
#246=CIRCLE('',#266,2.0783225424693);
#247=CIRCLE('',#267,8.25680669466994);
#248=CIRCLE('',#269,3.625);
#249=CIRCLE('',#271,4.875);
#250=CIRCLE('',#273,4.875);
#251=CIRCLE('',#275,5.25);
#252=CIRCLE('',#277,5.25);
#253=CIRCLE('',#279,5.05);
#254=CIRCLE('',#281,5.05);
#255=CIRCLE('',#283,5.55352761804101);
#256=CIRCLE('',#285,6.75);
#257=CIRCLE('',#287,8.5);
#258=CIRCLE('',#289,9.);
#259=CIRCLE('',#291,9.);
#260=CIRCLE('',#293,8.);
#261=CIRCLE('',#295,8.);
#262=CIRCLE('',#297,8.12061475842818);
#263=CIRCLE('',#300,5.);
#264=CIRCLE('',#301,5.);
#265=AXIS2_PLACEMENT_3D('',#377,#302,#303);
#266=AXIS2_PLACEMENT_3D('',#378,#304,#305);
#267=AXIS2_PLACEMENT_3D('',#380,#306,#307);
#268=AXIS2_PLACEMENT_3D('',#445,#309,#310);
#269=AXIS2_PLACEMENT_3D('',#446,#311,#312);
#270=AXIS2_PLACEMENT_3D('',#448,#313,#314);
#271=AXIS2_PLACEMENT_3D('',#449,#315,#316);
#272=AXIS2_PLACEMENT_3D('',#451,#317,#318);
#273=AXIS2_PLACEMENT_3D('',#452,#319,#320);
#274=AXIS2_PLACEMENT_3D('',#454,#321,#322);
#275=AXIS2_PLACEMENT_3D('',#455,#323,#324);
#276=AXIS2_PLACEMENT_3D('',#457,#325,#326);
#277=AXIS2_PLACEMENT_3D('',#458,#327,#328);
#278=AXIS2_PLACEMENT_3D('',#460,#329,#330);
#279=AXIS2_PLACEMENT_3D('',#461,#331,#332);
#280=AXIS2_PLACEMENT_3D('',#463,#333,#334);
#281=AXIS2_PLACEMENT_3D('',#464,#335,#336);
#282=AXIS2_PLACEMENT_3D('',#466,#337,#338);
#283=AXIS2_PLACEMENT_3D('',#467,#339,#340);
#284=AXIS2_PLACEMENT_3D('',#469,#341,#342);
#285=AXIS2_PLACEMENT_3D('',#470,#343,#344);
#286=AXIS2_PLACEMENT_3D('',#472,#345,#346);
#287=AXIS2_PLACEMENT_3D('',#473,#347,#348);
#288=AXIS2_PLACEMENT_3D('',#475,#349,#350);
#289=AXIS2_PLACEMENT_3D('',#476,#351,#352);
#290=AXIS2_PLACEMENT_3D('',#478,#353,#354);
#291=AXIS2_PLACEMENT_3D('',#479,#355,#356);
#292=AXIS2_PLACEMENT_3D('',#481,#357,#358);
#293=AXIS2_PLACEMENT_3D('',#482,#359,#360);
#294=AXIS2_PLACEMENT_3D('',#484,#361,#362);
#295=AXIS2_PLACEMENT_3D('',#485,#363,#364);
#296=AXIS2_PLACEMENT_3D('',#487,#365,#366);
#297=AXIS2_PLACEMENT_3D('',#488,#367,#368);
#298=AXIS2_PLACEMENT_3D('',#490,#369,#370);
#299=AXIS2_PLACEMENT_3D('',#491,#371,#372);
#300=AXIS2_PLACEMENT_3D('',#492,#373,#374);
#301=AXIS2_PLACEMENT_3D('',#494,#375,#376);
#302=DIRECTION('',(0.,0.,1.));
#303=DIRECTION('',(1.,0.,0.));
#304=DIRECTION('',(-1.,0.,0.));
#305=DIRECTION('',(0.,0.,1.));
#306=DIRECTION('',(-1.,0.,0.));
#307=DIRECTION('',(0.,0.,1.));
#308=DIRECTION('',(-1.,0.,0.));
#309=DIRECTION('',(1.,0.,0.));
#310=DIRECTION('',(0.,0.,-1.));
#311=DIRECTION('',(-1.,0.,0.));
#312=DIRECTION('',(0.,0.,1.));
#313=DIRECTION('',(-1.,0.,0.));
#314=DIRECTION('',(0.,0.,1.));
#315=DIRECTION('',(-1.,0.,0.));
#316=DIRECTION('',(0.,0.,1.));
#317=DIRECTION('',(-1.,0.,0.));
#318=DIRECTION('',(4.14829875934171E-17,0.,1.));
#319=DIRECTION('',(-1.,0.,0.));
#320=DIRECTION('',(0.,0.,1.));
#321=DIRECTION('',(-1.,0.,0.));
#322=DIRECTION('',(0.,0.,1.));
#323=DIRECTION('',(-1.,0.,0.));
#324=DIRECTION('',(0.,0.,1.));
#325=DIRECTION('',(-1.,0.,0.));
#326=DIRECTION('',(1.19178851745222E-17,0.,1.));
#327=DIRECTION('',(-1.,0.,0.));
#328=DIRECTION('',(0.,0.,1.));
#329=DIRECTION('',(-1.,0.,0.));
#330=DIRECTION('',(0.,0.,1.));
#331=DIRECTION('',(-1.,0.,0.));
#332=DIRECTION('',(0.,0.,1.));
#333=DIRECTION('',(1.,0.,0.));
#334=DIRECTION('',(-3.80979927621304E-16,0.,-1.));
#335=DIRECTION('',(-1.,0.,0.));
#336=DIRECTION('',(0.,0.,1.));
#337=DIRECTION('',(-1.,0.,0.));
#338=DIRECTION('',(0.,0.,1.));
#339=DIRECTION('',(-1.,0.,0.));
#340=DIRECTION('',(0.,0.,1.));
#341=DIRECTION('',(-1.,0.,0.));
#342=DIRECTION('',(0.,0.,1.));
#343=DIRECTION('',(-1.,0.,0.));
#344=DIRECTION('',(0.,0.,1.));
#345=DIRECTION('',(1.,0.,0.));
#346=DIRECTION('',(1.67085757438907E-17,0.,-1.));
#347=DIRECTION('',(-1.,0.,0.));
#348=DIRECTION('',(0.,0.,1.));
#349=DIRECTION('',(-1.,0.,0.));
#350=DIRECTION('',(0.,0.,1.));
#351=DIRECTION('',(-1.,0.,0.));
#352=DIRECTION('',(0.,0.,1.));
#353=DIRECTION('',(-1.,0.,0.));
#354=DIRECTION('',(2.75216416615062E-17,0.,1.));
#355=DIRECTION('',(-1.,0.,0.));
#356=DIRECTION('',(0.,0.,1.));
#357=DIRECTION('',(-1.,0.,0.));
#358=DIRECTION('',(0.,0.,1.));
#359=DIRECTION('',(-1.,0.,0.));
#360=DIRECTION('',(0.,0.,1.));
#361=DIRECTION('',(1.,0.,0.));
#362=DIRECTION('',(2.40695031354565E-17,0.,-1.));
#363=DIRECTION('',(-1.,0.,0.));
#364=DIRECTION('',(0.,0.,1.));
#365=DIRECTION('',(-1.,0.,0.));
#366=DIRECTION('',(0.,0.,1.));
#367=DIRECTION('',(-1.,0.,0.));
#368=DIRECTION('',(0.,0.,1.));
#369=DIRECTION('',(-1.,0.,0.));
#370=DIRECTION('',(0.,0.,1.));
#371=DIRECTION('',(-1.,0.,0.));
#372=DIRECTION('',(6.29383038767954E-17,0.,1.));
#373=DIRECTION('',(0.,0.949917759598166,0.3125));
#374=DIRECTION('',(1.,0.,0.));
#375=DIRECTION('',(0.,0.,-1.));
#376=DIRECTION('',(1.,0.,0.));
#377=CARTESIAN_POINT('',(0.,0.,0.));
#378=CARTESIAN_POINT('',(2.00000001196118,0.,0.));
#379=CARTESIAN_POINT('',(2.00000001196118,0.,2.0783225424693));
#380=CARTESIAN_POINT('',(6.95036923532609,0.,0.));
#381=CARTESIAN_POINT('',(6.95036923532609,0.,8.25680669466994));
#382=CARTESIAN_POINT('',(4.47470808832692,0.929512983672058,0.));
#383=CARTESIAN_POINT('',(5.52529191167309,0.929512983672058,0.));
#384=CARTESIAN_POINT('',(6.05800198497357,0.996121180639913,0.));
#385=CARTESIAN_POINT('',(6.80088262224309,1.24655166326967,0.));
#386=CARTESIAN_POINT('',(7.04268580417258,1.35701551253004,0.));
#387=CARTESIAN_POINT('',(7.49233211737293,1.62767526945909,0.));
#388=CARTESIAN_POINT('',(7.69912667347293,1.7860544319866,0.));
#389=CARTESIAN_POINT('',(8.07758465053917,2.14772736442587,0.));
#390=CARTESIAN_POINT('',(8.24892406424536,2.35197338942516,0.));
#391=CARTESIAN_POINT('',(8.54018095474793,2.78432459880738,0.));
#392=CARTESIAN_POINT('',(8.66278180806055,3.01468519252695,0.));
#393=CARTESIAN_POINT('',(8.86148685355657,3.50404830786434,0.));
#394=CARTESIAN_POINT('',(8.93443825073153,3.75567351187804,0.));
#395=CARTESIAN_POINT('',(9.02946566869814,4.26804950139341,0.));
#396=CARTESIAN_POINT('',(9.0516398208343,4.53231179268781,0.));
#397=CARTESIAN_POINT('',(9.04317083031976,5.05718230632879,0.));
#398=CARTESIAN_POINT('',(9.0132062892853,5.31604937519944,0.));
#399=CARTESIAN_POINT('',(8.90293760750228,5.82680252446303,0.));
#400=CARTESIAN_POINT('',(8.82136411051204,6.0805028356599,0.));
#401=CARTESIAN_POINT('',(8.6136639062631,6.55974302575901,0.));
#402=CARTESIAN_POINT('',(8.48738715314016,6.78775738777568,0.));
#403=CARTESIAN_POINT('',(8.18938689698228,7.22026753800478,0.));
#404=CARTESIAN_POINT('',(8.01846210382214,7.42257942224691,0.));
#405=CARTESIAN_POINT('',(7.64532303177844,7.78644743997775,0.));
#406=CARTESIAN_POINT('',(7.44118557853398,7.95053398952091,0.));
#407=CARTESIAN_POINT('',(6.99919431949661,8.23942998601924,0.));
#408=CARTESIAN_POINT('',(6.76771701323617,8.36020493054772,0.));
#409=CARTESIAN_POINT('',(6.2846036347973,8.55622588751892,0.));
#410=CARTESIAN_POINT('',(6.03009571904705,8.63189619649001,0.));
#411=CARTESIAN_POINT('',(5.51526612674755,8.73170185684839,0.));
#412=CARTESIAN_POINT('',(5.25584265971279,8.75635742671492,0.));
#413=CARTESIAN_POINT('',(4.73301545992204,8.75564005977388,0.));
#414=CARTESIAN_POINT('',(4.46792758448038,8.72944731967216,0.));
#415=CARTESIAN_POINT('',(3.95570623588295,8.62807757010517,0.));
#416=CARTESIAN_POINT('',(3.70596453522274,8.55321894390054,0.));
#417=CARTESIAN_POINT('',(3.21948285163606,8.35415303495995,0.));
#418=CARTESIAN_POINT('',(2.98564919586109,8.2305787080833,0.));
#419=CARTESIAN_POINT('',(2.55035792212544,7.94389248342436,0.));
#420=CARTESIAN_POINT('',(2.34584090891398,7.7791197577524,0.));
#421=CARTESIAN_POINT('',(1.96956190481734,7.40953897234687,0.));
#422=CARTESIAN_POINT('',(1.80212625772944,7.20929377186843,0.));
#423=CARTESIAN_POINT('',(1.50742376939013,6.7788185601617,0.));
#424=CARTESIAN_POINT('',(1.37916855662573,6.54580841155193,0.));
#425=CARTESIAN_POINT('',(1.17281324640912,6.06429597326326,0.));
#426=CARTESIAN_POINT('',(1.09390343820064,5.81583187155715,0.));
#427=CARTESIAN_POINT('',(0.984890907797361,5.30340170422004,0.));
#428=CARTESIAN_POINT('',(0.955474002768211,5.03903155911237,0.));
#429=CARTESIAN_POINT('',(0.949247283928573,4.51710784288981,0.));
#430=CARTESIAN_POINT('',(0.971623532682563,4.25671990021896,0.));
#431=CARTESIAN_POINT('',(1.07006513473716,3.7371710287181,0.));
#432=CARTESIAN_POINT('',(1.14451400351008,3.48651623144851,0.));
#433=CARTESIAN_POINT('',(1.34308415142793,3.00316260680891,0.));
#434=CARTESIAN_POINT('',(1.4690570928781,2.76824849334853,0.));
#435=CARTESIAN_POINT('',(1.76373967989621,2.33572086002984,0.));
#436=CARTESIAN_POINT('',(1.93247537210477,2.13644692413544,0.));
#437=CARTESIAN_POINT('',(2.315374046118,1.77397411313956,0.));
#438=CARTESIAN_POINT('',(2.52562717062787,1.61518287457379,0.));
#439=CARTESIAN_POINT('',(2.9741859843896,1.34867785395512,0.));
#440=CARTESIAN_POINT('',(3.217431991328,1.23903805379765,0.));
#441=CARTESIAN_POINT('',(3.96082248662724,0.992610509278986,0.));
#442=CARTESIAN_POINT('',(4.47470808832692,0.929512983672058,0.));
#443=CARTESIAN_POINT('',(5.52529191167309,0.929512983672058,0.));
#444=CARTESIAN_POINT('',(0.,0.,0.));
#445=CARTESIAN_POINT('',(2.00000001196118,2.0783225424693,0.));
#446=CARTESIAN_POINT('',(50.,0.,0.));
#447=CARTESIAN_POINT('',(50.,0.,3.625));
#448=CARTESIAN_POINT('',(50.,0.,0.));
#449=CARTESIAN_POINT('',(48.75,0.,0.));
#450=CARTESIAN_POINT('',(48.75,0.,4.875));
#451=CARTESIAN_POINT('',(50.,0.,0.));
#452=CARTESIAN_POINT('',(36.6495190528383,0.,0.));
#453=CARTESIAN_POINT('',(36.6495190528383,0.,4.875));
#454=CARTESIAN_POINT('',(0.,0.,0.));
#455=CARTESIAN_POINT('',(36.,0.,0.));
#456=CARTESIAN_POINT('',(36.,0.,5.25));
#457=CARTESIAN_POINT('',(36.6495190528383,0.,0.));
#458=CARTESIAN_POINT('',(31.2,0.,0.));
#459=CARTESIAN_POINT('',(31.2,0.,5.25));
#460=CARTESIAN_POINT('',(0.,0.,0.));
#461=CARTESIAN_POINT('',(30.4535898384862,0.,0.));
#462=CARTESIAN_POINT('',(30.4535898384862,0.,5.05));
#463=CARTESIAN_POINT('',(31.2,0.,0.));
#464=CARTESIAN_POINT('',(30.0657765220035,0.,0.));
#465=CARTESIAN_POINT('',(30.0657765220035,0.,5.05));
#466=CARTESIAN_POINT('',(0.,0.,0.));
#467=CARTESIAN_POINT('',(29.6794061914879,0.,0.));
#468=CARTESIAN_POINT('',(29.6794061914879,0.,5.55352761804101));
#469=CARTESIAN_POINT('',(30.0657765220035,0.,0.));
#470=CARTESIAN_POINT('',(30.,0.,0.));
#471=CARTESIAN_POINT('',(30.,0.,6.75));
#472=CARTESIAN_POINT('',(29.6794061914879,0.,0.));
#473=CARTESIAN_POINT('',(30.,0.,0.));
#474=CARTESIAN_POINT('',(30.,0.,8.5));
#475=CARTESIAN_POINT('',(30.,8.5,0.));
#476=CARTESIAN_POINT('',(29.5,0.,0.));
#477=CARTESIAN_POINT('',(29.5,0.,9.));
#478=CARTESIAN_POINT('',(30.,0.,0.));
#479=CARTESIAN_POINT('',(26.,0.,0.));
#480=CARTESIAN_POINT('',(26.,0.,9.));
#481=CARTESIAN_POINT('',(0.,0.,0.));
#482=CARTESIAN_POINT('',(25.,0.,0.));
#483=CARTESIAN_POINT('',(25.,0.,8.));
#484=CARTESIAN_POINT('',(26.,0.,0.));
#485=CARTESIAN_POINT('',(8.00859379151347,0.,0.));
#486=CARTESIAN_POINT('',(8.00859379151347,0.,8.));
#487=CARTESIAN_POINT('',(0.,0.,0.));
#488=CARTESIAN_POINT('',(7.32455350486214,0.,0.));
#489=CARTESIAN_POINT('',(7.32455350486214,0.,8.12061475842818));
#490=CARTESIAN_POINT('',(8.00859379151347,0.,0.));
#491=CARTESIAN_POINT('',(7.32455350486214,0.,0.));
#492=CARTESIAN_POINT('',(5.,0.911783048995415,5.22841948434781));
#493=CARTESIAN_POINT('',(10.,0.911783048995415,5.22841948434781));
#494=CARTESIAN_POINT('',(5.,-4.68163632,2.5));
#495=CARTESIAN_POINT('',(10.,-4.68163632,2.5));
#496=CARTESIAN_POINT('',(10.,-4.68163632,2.5));
#497=CARTESIAN_POINT('',(10.,-7.62460606181731,-3.01116561278116));
#498=CARTESIAN_POINT('',(10.,-3.28848127381926,-7.50916951847785));
#499=CARTESIAN_POINT('',(10.,2.32680395432623,-4.77008406538868));
#500=CARTESIAN_POINT('',(10.,7.94208918247173,-2.0309986122995));
#501=CARTESIAN_POINT('',(10.,7.06661518498086,4.15507951462964));
#502=CARTESIAN_POINT('',(10.,0.911783048995416,5.22841948434781));
#503=CARTESIAN_POINT('',(10.,5.31836368,2.5));
#504=CARTESIAN_POINT('',(10.,2.3753939381827,8.76071335448807));
#505=CARTESIAN_POINT('',(10.,-4.48753131797742,7.89016207129057));
#506=CARTESIAN_POINT('',(10.,-5.77412191868359,1.09293563439061));
#507=CARTESIAN_POINT('',(10.,-7.06071251938979,-5.70429080250935));
#508=CARTESIAN_POINT('',(10.,-0.990701709868284,-9.02281025862366));
#509=CARTESIAN_POINT('',(10.,4.03678304899542,-4.27075811163386));
#510=CARTESIAN_POINT('',(-5.10076676829453E-16,5.31836368,2.5));
#511=CARTESIAN_POINT('',(-5.10076676829454E-16,2.3753939381827,8.76071335448807));
#512=CARTESIAN_POINT('',(-5.10076676829454E-16,-4.48753131797742,7.89016207129057));
#513=CARTESIAN_POINT('',(-5.10076676829453E-16,-5.77412191868359,1.09293563439061));
#514=CARTESIAN_POINT('',(-5.10076676829454E-16,-7.0607125193898,-5.70429080250935));
#515=CARTESIAN_POINT('',(-5.10076676829454E-16,-0.990701709868284,-9.02281025862366));
#516=CARTESIAN_POINT('',(-5.10076676829453E-16,4.03678304899542,-4.27075811163386));
#517=CARTESIAN_POINT('',(-1.7347234759768E-15,-4.68163632,2.5));
#518=CARTESIAN_POINT('',(-1.73472347597681E-15,-7.62460606181731,-3.01116561278116));
#519=CARTESIAN_POINT('',(-1.73472347597681E-15,-3.28848127381926,-7.50916951847785));
#520=CARTESIAN_POINT('',(-1.7347234759768E-15,2.32680395432623,-4.77008406538868));
#521=CARTESIAN_POINT('',(-1.73472347597681E-15,7.94208918247172,-2.0309986122995));
#522=CARTESIAN_POINT('',(-1.73472347597681E-15,7.06661518498086,4.15507951462964));
#523=CARTESIAN_POINT('',(-1.7347234759768E-15,0.911783048995416,5.2284194843478));
#524=CARTESIAN_POINT('',(-2.95937027512416E-15,-14.68163632,2.5));
#525=CARTESIAN_POINT('',(-2.95937027512416E-15,-17.6246060618173,-14.7830445800504));
#526=CARTESIAN_POINT('',(-2.95937027512416E-15,-2.08943122966112,-22.9085011082463));
#527=CARTESIAN_POINT('',(-2.95937027512416E-15,10.427729827336,-10.633103765168));
#528=CARTESIAN_POINT('',(-2.95937027512416E-15,22.9448908843333,1.64229357791034));
#529=CARTESIAN_POINT('',(-2.95937027512416E-15,15.12393207983,17.3329692878829));
#530=CARTESIAN_POINT('',(-2.95937027512416E-15,-2.21321695100458,14.7275970803295));
#531=CARTESIAN_POINT('',(10.,-14.68163632,2.5));
#532=CARTESIAN_POINT('',(10.,-17.6246060618173,-14.7830445800504));
#533=CARTESIAN_POINT('',(10.,-2.08943122966112,-22.9085011082463));
#534=CARTESIAN_POINT('',(10.,10.4277298273361,-10.633103765168));
#535=CARTESIAN_POINT('',(10.,22.9448908843333,1.64229357791034));
#536=CARTESIAN_POINT('',(10.,15.12393207983,17.3329692878829));
#537=CARTESIAN_POINT('',(10.,-2.21321695100458,14.7275970803295));
#538=CARTESIAN_POINT('',(10.,-4.68163632,2.5));
#539=CARTESIAN_POINT('',(10.,-7.62460606181731,-3.01116561278116));
#540=CARTESIAN_POINT('',(10.,-3.28848127381926,-7.50916951847785));
#541=CARTESIAN_POINT('',(10.,2.32680395432623,-4.77008406538868));
#542=CARTESIAN_POINT('',(10.,7.94208918247173,-2.0309986122995));
#543=CARTESIAN_POINT('',(10.,7.06661518498086,4.15507951462964));
#544=CARTESIAN_POINT('',(10.,0.911783048995416,5.22841948434781));
#545=CARTESIAN_POINT('',(10.,0.911783048995415,5.22841948434781));
#546=CARTESIAN_POINT('',(10.,-1.42807649471777,5.63646713151434));
#547=CARTESIAN_POINT('',(10.,-3.56281850578388,4.59515924579887));
#548=CARTESIAN_POINT('',(10.,-4.68163632,2.5));
#549=CARTESIAN_POINT('',(10.,4.03678304899542,-4.27075811163385));
#550=CARTESIAN_POINT('',(10.,5.94806315119699,-2.46418819669717));
#551=CARTESIAN_POINT('',(10.,6.43718149421612,0.119887988934408));
#552=CARTESIAN_POINT('',(10.,5.31836368,2.5));
#553=CARTESIAN_POINT('',(-5.10076676829453E-16,4.03678304899542,-4.27075811163386));
#554=CARTESIAN_POINT('',(-5.10076676829453E-16,5.94806315119699,-2.46418819669717));
#555=CARTESIAN_POINT('',(-5.10076676829453E-16,6.43718149421612,0.119887988934408));
#556=CARTESIAN_POINT('',(-5.10076676829453E-16,5.31836368,2.5));
#557=CARTESIAN_POINT('',(-1.7347234759768E-15,0.911783048995415,5.22841948434781));
#558=CARTESIAN_POINT('',(-1.73472347597681E-15,-1.42807649471777,5.63646713151434));
#559=CARTESIAN_POINT('',(-1.73472347597681E-15,-3.56281850578388,4.59515924579887));
#560=CARTESIAN_POINT('',(-1.7347234759768E-15,-4.68163632,2.5));
#561=CARTESIAN_POINT('',(-2.95937027512416E-15,-2.21321695100459,14.7275970803295));
#562=CARTESIAN_POINT('',(-2.95937027512416E-15,-8.80421614063254,13.7371224597259));
#563=CARTESIAN_POINT('',(-2.95937027512416E-15,-13.5628185057839,9.07043050266333));
#564=CARTESIAN_POINT('',(-2.95937027512416E-15,-14.68163632,2.5));
#565=CARTESIAN_POINT('',(10.,-2.21321695100459,14.7275970803295));
#566=CARTESIAN_POINT('',(10.,-8.80421614063254,13.7371224597259));
#567=CARTESIAN_POINT('',(10.,-13.5628185057839,9.07043050266333));
#568=CARTESIAN_POINT('',(10.,-14.68163632,2.5));
#569=CARTESIAN_POINT('',(10.,0.911783048995415,5.22841948434781));
#570=CARTESIAN_POINT('',(10.,-1.42807649471777,5.63646713151434));
#571=CARTESIAN_POINT('',(10.,-3.56281850578388,4.59515924579887));
#572=CARTESIAN_POINT('',(10.,-4.68163632,2.5));
#573=MECHANICAL_DESIGN_GEOMETRIC_PRESENTATION_REPRESENTATION('',(#35,#36),
#574);
#574=(
GEOMETRIC_REPRESENTATION_CONTEXT(3)
GLOBAL_UNCERTAINTY_ASSIGNED_CONTEXT((#575))
GLOBAL_UNIT_ASSIGNED_CONTEXT((#581,#577,#576))
REPRESENTATION_CONTEXT('AEMR-RD1003-D20-M10-L30-Z02-H',
'TOP_LEVEL_ASSEMBLY_PART')
);
#575=UNCERTAINTY_MEASURE_WITH_UNIT(LENGTH_MEASURE(2.E-5),#581,
'DISTANCE_ACCURACY_VALUE','Maximum Tolerance applied to model');
#576=(
NAMED_UNIT(*)
SI_UNIT($,.STERADIAN.)
SOLID_ANGLE_UNIT()
);
#577=(
CONVERSION_BASED_UNIT('DEGREE',#579)
NAMED_UNIT(#578)
PLANE_ANGLE_UNIT()
);
#578=DIMENSIONAL_EXPONENTS(0.,0.,0.,0.,0.,0.,0.);
#579=PLANE_ANGLE_MEASURE_WITH_UNIT(PLANE_ANGLE_MEASURE(0.0174532925),#580);
#580=(
NAMED_UNIT(*)
PLANE_ANGLE_UNIT()
SI_UNIT($,.RADIAN.)
);
#581=(
LENGTH_UNIT()
NAMED_UNIT(*)
SI_UNIT(.MILLI.,.METRE.)
);
ENDSEC;
END-ISO-10303-21;
