ISO-10303-21;
HEADER;
/* Generated by software containing ST-Developer
 * from STEP Tools, Inc. (www.steptools.com) 
 */
/* OPTION: using custom schema-name function */

FILE_DESCRIPTION(
/* description */ (''),
/* implementation_level */ '2;1');

FILE_NAME(
/* name */ 'AEMR-RD1003-D40-M16-L43-Z05-H.stp',
/* time_stamp */ '2023-10-20T17:32:53+03:00',
/* author */ (''),
/* organization */ (''),
/* preprocessor_version */ 'ST-DEVELOPER v19.4',
/* originating_system */ 'SIEMENS PLM Software NX2306.5001',
/* authorisation */ '');

FILE_SCHEMA (('AUTOMOTIVE_DESIGN { 1 0 10303 214 3 1 1 1 }'));
ENDSEC;

DATA;
#10=PROPERTY_DEFINITION_REPRESENTATION(#14,#12);
#11=PROPERTY_DEFINITION_REPRESENTATION(#15,#13);
#12=REPRESENTATION('',(#16),#558);
#13=REPRESENTATION('',(#17),#558);
#14=PROPERTY_DEFINITION('pmi validation property','',#21);
#15=PROPERTY_DEFINITION('pmi validation property','',#21);
#16=VALUE_REPRESENTATION_ITEM('number of annotations',COUNT_MEASURE(0.));
#17=VALUE_REPRESENTATION_ITEM('number of views',COUNT_MEASURE(0.));
#18=SHAPE_REPRESENTATION_RELATIONSHIP('None',
'relationship between AEMR-RD1003-D40-M16-L43-Z05-H-LIGHT_x_t_objects-
None and AEMR-RD1003-D40-M16-L43-Z05-H-LIGHT_x_t_objects-None',#30,#19);
#19=ADVANCED_BREP_SHAPE_REPRESENTATION(
'AEMR-RD1003-D40-M16-L43-Z05-H-LIGHT_x_t_objects-None',(#50,#51),#558);
#20=SHAPE_DEFINITION_REPRESENTATION(#21,#30);
#21=PRODUCT_DEFINITION_SHAPE('','',#22);
#22=PRODUCT_DEFINITION(' ','',#24,#23);
#23=PRODUCT_DEFINITION_CONTEXT('part definition',#29,'design');
#24=PRODUCT_DEFINITION_FORMATION_WITH_SPECIFIED_SOURCE(' ',' ',#26,
 .NOT_KNOWN.);
#25=PRODUCT_RELATED_PRODUCT_CATEGORY('part','',(#26));
#26=PRODUCT('AEMR-RD1003-D40-M16-L43-Z05-H-LIGHT_x_t_objects',
'AEMR-RD1003-D40-M16-L43-Z05-H-LIGHT_x_t_objects',' ',(#27));
#27=PRODUCT_CONTEXT(' ',#29,'mechanical');
#28=APPLICATION_PROTOCOL_DEFINITION('international standard',
'automotive_design',2010,#29);
#29=APPLICATION_CONTEXT(
'core data for automotive mechanical design processes');
#30=SHAPE_REPRESENTATION(
'AEMR-RD1003-D40-M16-L43-Z05-H-LIGHT_x_t_objects-None',(#254),#558);
#31=DRAUGHTING_PRE_DEFINED_COLOUR('yellow');
#32=(
BOUNDED_SURFACE()
B_SPLINE_SURFACE(3,3,((#480,#481,#482,#483,#484,#485,#486),(#487,#488,#489,
#490,#491,#492,#493),(#494,#495,#496,#497,#498,#499,#500),(#501,#502,#503,
#504,#505,#506,#507),(#508,#509,#510,#511,#512,#513,#514),(#515,#516,#517,
#518,#519,#520,#521),(#522,#523,#524,#525,#526,#527,#528)),
 .UNSPECIFIED.,.T.,.F.,.F.)
B_SPLINE_SURFACE_WITH_KNOTS((1,3,3,3,1),(4,3,4),(-0.5,0.,0.5,1.,1.5),(0.,
0.5,1.),.UNSPECIFIED.)
GEOMETRIC_REPRESENTATION_ITEM()
RATIONAL_B_SPLINE_SURFACE(((1.,0.561162619304945,0.561162619304945,1.,0.561162619304945,
0.561162619304945,1.),(0.333333333333334,0.187054206434981,0.187054206434981,
0.333333333333334,0.187054206434981,0.187054206434981,0.333333333333334),
(0.333333333333334,0.187054206434981,0.187054206434981,0.333333333333334,
0.187054206434981,0.187054206434981,0.333333333333334),(1.,0.561162619304945,
0.561162619304945,1.,0.561162619304945,0.561162619304945,1.),(0.333333333333334,
0.187054206434981,0.187054206434981,0.333333333333334,0.187054206434981,
0.187054206434981,0.333333333333334),(0.333333333333334,0.187054206434981,
0.187054206434981,0.333333333333334,0.187054206434981,0.187054206434981,
0.333333333333334),(1.,0.561162619304945,0.561162619304945,1.,0.561162619304945,
0.561162619304945,1.)))
REPRESENTATION_ITEM('')
SURFACE()
);
#33=(
BOUNDED_SURFACE()
B_SPLINE_SURFACE(3,3,((#529,#530,#531,#532),(#533,#534,#535,#536),(#537,
#538,#539,#540),(#541,#542,#543,#544),(#545,#546,#547,#548),(#549,#550,
#551,#552),(#553,#554,#555,#556)),.UNSPECIFIED.,.T.,.F.,.F.)
B_SPLINE_SURFACE_WITH_KNOTS((1,3,3,3,1),(4,4),(-0.5,0.,0.5,1.,1.5),(0.,
1.),.UNSPECIFIED.)
GEOMETRIC_REPRESENTATION_ITEM()
RATIONAL_B_SPLINE_SURFACE(((1.,0.844281449360998,0.844281449360998,1.),
(0.333333333333334,0.281427149786999,0.281427149786999,0.333333333333334),
(0.333333333333334,0.281427149786999,0.281427149786999,0.333333333333334),
(1.,0.844281449360998,0.844281449360998,1.),(0.333333333333334,0.281427149786999,
0.281427149786999,0.333333333333334),(0.333333333333334,0.281427149786999,
0.281427149786999,0.333333333333334),(1.,0.844281449360998,0.844281449360998,
1.)))
REPRESENTATION_ITEM('')
SURFACE()
);
#34=PRESENTATION_LAYER_ASSIGNMENT('1','Layer 1',(#50,#51));
#35=STYLED_ITEM('',(#37),#50);
#36=STYLED_ITEM('',(#38),#51);
#37=PRESENTATION_STYLE_ASSIGNMENT((#39));
#38=PRESENTATION_STYLE_ASSIGNMENT((#40));
#39=SURFACE_STYLE_USAGE(.BOTH.,#41);
#40=SURFACE_STYLE_USAGE(.BOTH.,#42);
#41=SURFACE_SIDE_STYLE('',(#43));
#42=SURFACE_SIDE_STYLE('',(#44));
#43=SURFACE_STYLE_FILL_AREA(#45);
#44=SURFACE_STYLE_FILL_AREA(#46);
#45=FILL_AREA_STYLE('',(#47));
#46=FILL_AREA_STYLE('',(#48));
#47=FILL_AREA_STYLE_COLOUR('',#49);
#48=FILL_AREA_STYLE_COLOUR('',#31);
#49=COLOUR_RGB('silver gray',0.6,0.6,0.6);
#50=MANIFOLD_SOLID_BREP('',#52);
#51=MANIFOLD_SOLID_BREP('',#53);
#52=CLOSED_SHELL('',(#73,#74,#75,#76,#77,#78,#79,#80,#81,#82,#83,#84,#85,
#86,#87,#88,#89));
#53=CLOSED_SHELL('',(#90,#91));
#54=SURFACE_OF_REVOLUTION('',#56,#55);
#55=AXIS1_PLACEMENT('',#453,#325);
#56=B_SPLINE_CURVE_WITH_KNOTS('',3,(#387,#388,#389,#390,#391,#392,#393,
#394,#395,#396,#397,#398,#399,#400,#401,#402,#403,#404,#405,#406,#407,#408,
#409,#410,#411,#412,#413,#414,#415,#416,#417,#418,#419,#420,#421,#422,#423,
#424,#425,#426,#427,#428,#429,#430,#431,#432,#433,#434,#435,#436,#437,#438,
#439,#440,#441,#442,#443,#444,#445,#446,#447,#448,#449,#450,#451,#452),
 .UNSPECIFIED.,.T.,.F.,(2,2,2,2,2,2,2,2,2,2,2,2,2,2,2,2,2,2,2,2,2,2,2,2,
2,2,2,2,2,2,2,2,2,2,2),(-0.03125,0.,0.03125,0.0625,0.09375,0.125,0.15625,
0.1875,0.21875,0.25,0.28125,0.3125,0.34375,0.375,0.40625,0.4375,0.46875,
0.5,0.53125,0.5625,0.59375,0.625,0.65625,0.6875,0.71875,0.75,0.78125,0.8125,
0.84375,0.875,0.90625,0.9375,0.96875,1.,1.03125),.UNSPECIFIED.);
#57=PLANE('',#268);
#58=PLANE('',#270);
#59=PLANE('',#285);
#60=FACE_OUTER_BOUND('',#140,.T.);
#61=FACE_OUTER_BOUND('',#141,.T.);
#62=CYLINDRICAL_SURFACE('',#261,8.5);
#63=CYLINDRICAL_SURFACE('',#265,7.875);
#64=CYLINDRICAL_SURFACE('',#277,14.3);
#65=CYLINDRICAL_SURFACE('',#281,14.5);
#66=CONICAL_SURFACE('',#259,8.5,14.9999999999999);
#67=CONICAL_SURFACE('',#263,7.875,30.0000000000004);
#68=CONICAL_SURFACE('',#267,5.875,45.0000000000002);
#69=CONICAL_SURFACE('',#273,15.2046106882113,19.9999999998957);
#70=CONICAL_SURFACE('',#279,14.5,45.0000000000002);
#71=CONICAL_SURFACE('',#283,14.,44.9999999999999);
#72=CONICAL_SURFACE('',#286,9.03529142706151,75.);
#73=ADVANCED_FACE('',(#94,#95),#92,.F.);
#74=ADVANCED_FACE('',(#96,#97),#66,.T.);
#75=ADVANCED_FACE('',(#98,#99),#62,.T.);
#76=ADVANCED_FACE('',(#100,#101),#67,.T.);
#77=ADVANCED_FACE('',(#102,#103),#63,.T.);
#78=ADVANCED_FACE('',(#104,#105),#68,.T.);
#79=ADVANCED_FACE('',(#60),#57,.F.);
#80=ADVANCED_FACE('',(#61),#58,.F.);
#81=ADVANCED_FACE('',(#106,#107),#54,.T.);
#82=ADVANCED_FACE('',(#108,#109),#69,.T.);
#83=ADVANCED_FACE('',(#110,#111),#93,.F.);
#84=ADVANCED_FACE('',(#112,#113),#64,.T.);
#85=ADVANCED_FACE('',(#114,#115),#70,.T.);
#86=ADVANCED_FACE('',(#116,#117),#65,.T.);
#87=ADVANCED_FACE('',(#118,#119),#71,.T.);
#88=ADVANCED_FACE('',(#120,#121),#59,.F.);
#89=ADVANCED_FACE('',(#122,#123),#72,.F.);
#90=ADVANCED_FACE('',(#124,#125),#32,.F.);
#91=ADVANCED_FACE('',(#126,#127),#33,.F.);
#92=TOROIDAL_SURFACE('',#257,8.88,0.6);
#93=TOROIDAL_SURFACE('',#275,29.3,15.);
#94=FACE_BOUND('',#128,.T.);
#95=FACE_BOUND('',#129,.T.);
#96=FACE_BOUND('',#130,.T.);
#97=FACE_BOUND('',#131,.T.);
#98=FACE_BOUND('',#132,.T.);
#99=FACE_BOUND('',#133,.T.);
#100=FACE_BOUND('',#134,.T.);
#101=FACE_BOUND('',#135,.T.);
#102=FACE_BOUND('',#136,.T.);
#103=FACE_BOUND('',#137,.T.);
#104=FACE_BOUND('',#138,.T.);
#105=FACE_BOUND('',#139,.T.);
#106=FACE_BOUND('',#142,.T.);
#107=FACE_BOUND('',#143,.T.);
#108=FACE_BOUND('',#144,.T.);
#109=FACE_BOUND('',#145,.T.);
#110=FACE_BOUND('',#146,.T.);
#111=FACE_BOUND('',#147,.T.);
#112=FACE_BOUND('',#148,.T.);
#113=FACE_BOUND('',#149,.T.);
#114=FACE_BOUND('',#150,.T.);
#115=FACE_BOUND('',#151,.T.);
#116=FACE_BOUND('',#152,.T.);
#117=FACE_BOUND('',#153,.T.);
#118=FACE_BOUND('',#154,.T.);
#119=FACE_BOUND('',#155,.T.);
#120=FACE_BOUND('',#156,.T.);
#121=FACE_BOUND('',#157,.T.);
#122=FACE_BOUND('',#158,.T.);
#123=FACE_BOUND('',#159,.T.);
#124=FACE_BOUND('',#160,.T.);
#125=FACE_BOUND('',#161,.T.);
#126=FACE_BOUND('',#162,.T.);
#127=FACE_BOUND('',#163,.T.);
#128=EDGE_LOOP('',(#164));
#129=EDGE_LOOP('',(#165));
#130=EDGE_LOOP('',(#166));
#131=EDGE_LOOP('',(#167));
#132=EDGE_LOOP('',(#168));
#133=EDGE_LOOP('',(#169));
#134=EDGE_LOOP('',(#170));
#135=EDGE_LOOP('',(#171));
#136=EDGE_LOOP('',(#172));
#137=EDGE_LOOP('',(#173));
#138=EDGE_LOOP('',(#174));
#139=EDGE_LOOP('',(#175));
#140=EDGE_LOOP('',(#176));
#141=EDGE_LOOP('',(#177));
#142=EDGE_LOOP('',(#178));
#143=EDGE_LOOP('',(#179));
#144=EDGE_LOOP('',(#180));
#145=EDGE_LOOP('',(#181));
#146=EDGE_LOOP('',(#182));
#147=EDGE_LOOP('',(#183));
#148=EDGE_LOOP('',(#184));
#149=EDGE_LOOP('',(#185));
#150=EDGE_LOOP('',(#186));
#151=EDGE_LOOP('',(#187));
#152=EDGE_LOOP('',(#188));
#153=EDGE_LOOP('',(#189));
#154=EDGE_LOOP('',(#190));
#155=EDGE_LOOP('',(#191));
#156=EDGE_LOOP('',(#192));
#157=EDGE_LOOP('',(#193));
#158=EDGE_LOOP('',(#194));
#159=EDGE_LOOP('',(#195));
#160=EDGE_LOOP('',(#196));
#161=EDGE_LOOP('',(#197));
#162=EDGE_LOOP('',(#198));
#163=EDGE_LOOP('',(#199));
#164=ORIENTED_EDGE('',*,*,#218,.F.);
#165=ORIENTED_EDGE('',*,*,#219,.T.);
#166=ORIENTED_EDGE('',*,*,#219,.F.);
#167=ORIENTED_EDGE('',*,*,#220,.T.);
#168=ORIENTED_EDGE('',*,*,#220,.F.);
#169=ORIENTED_EDGE('',*,*,#221,.T.);
#170=ORIENTED_EDGE('',*,*,#221,.F.);
#171=ORIENTED_EDGE('',*,*,#222,.T.);
#172=ORIENTED_EDGE('',*,*,#222,.F.);
#173=ORIENTED_EDGE('',*,*,#223,.T.);
#174=ORIENTED_EDGE('',*,*,#223,.F.);
#175=ORIENTED_EDGE('',*,*,#224,.T.);
#176=ORIENTED_EDGE('',*,*,#224,.F.);
#177=ORIENTED_EDGE('',*,*,#225,.T.);
#178=ORIENTED_EDGE('',*,*,#225,.F.);
#179=ORIENTED_EDGE('',*,*,#226,.T.);
#180=ORIENTED_EDGE('',*,*,#226,.F.);
#181=ORIENTED_EDGE('',*,*,#227,.T.);
#182=ORIENTED_EDGE('',*,*,#227,.F.);
#183=ORIENTED_EDGE('',*,*,#228,.T.);
#184=ORIENTED_EDGE('',*,*,#228,.F.);
#185=ORIENTED_EDGE('',*,*,#229,.T.);
#186=ORIENTED_EDGE('',*,*,#229,.F.);
#187=ORIENTED_EDGE('',*,*,#230,.T.);
#188=ORIENTED_EDGE('',*,*,#230,.F.);
#189=ORIENTED_EDGE('',*,*,#231,.T.);
#190=ORIENTED_EDGE('',*,*,#231,.F.);
#191=ORIENTED_EDGE('',*,*,#232,.T.);
#192=ORIENTED_EDGE('',*,*,#232,.F.);
#193=ORIENTED_EDGE('',*,*,#233,.T.);
#194=ORIENTED_EDGE('',*,*,#233,.F.);
#195=ORIENTED_EDGE('',*,*,#218,.T.);
#196=ORIENTED_EDGE('',*,*,#234,.T.);
#197=ORIENTED_EDGE('',*,*,#235,.T.);
#198=ORIENTED_EDGE('',*,*,#235,.F.);
#199=ORIENTED_EDGE('',*,*,#234,.F.);
#200=VERTEX_POINT('',#362);
#201=VERTEX_POINT('',#364);
#202=VERTEX_POINT('',#367);
#203=VERTEX_POINT('',#370);
#204=VERTEX_POINT('',#373);
#205=VERTEX_POINT('',#376);
#206=VERTEX_POINT('',#379);
#207=VERTEX_POINT('',#383);
#208=VERTEX_POINT('',#386);
#209=VERTEX_POINT('',#455);
#210=VERTEX_POINT('',#458);
#211=VERTEX_POINT('',#461);
#212=VERTEX_POINT('',#464);
#213=VERTEX_POINT('',#467);
#214=VERTEX_POINT('',#470);
#215=VERTEX_POINT('',#473);
#216=VERTEX_POINT('',#477);
#217=VERTEX_POINT('',#479);
#218=EDGE_CURVE('',#200,#200,#236,.T.);
#219=EDGE_CURVE('',#201,#201,#237,.T.);
#220=EDGE_CURVE('',#202,#202,#238,.T.);
#221=EDGE_CURVE('',#203,#203,#239,.T.);
#222=EDGE_CURVE('',#204,#204,#240,.T.);
#223=EDGE_CURVE('',#205,#205,#241,.T.);
#224=EDGE_CURVE('',#206,#206,#242,.T.);
#225=EDGE_CURVE('',#207,#207,#243,.T.);
#226=EDGE_CURVE('',#208,#208,#244,.T.);
#227=EDGE_CURVE('',#209,#209,#245,.T.);
#228=EDGE_CURVE('',#210,#210,#246,.T.);
#229=EDGE_CURVE('',#211,#211,#247,.T.);
#230=EDGE_CURVE('',#212,#212,#248,.T.);
#231=EDGE_CURVE('',#213,#213,#249,.T.);
#232=EDGE_CURVE('',#214,#214,#250,.T.);
#233=EDGE_CURVE('',#215,#215,#251,.T.);
#234=EDGE_CURVE('',#216,#216,#252,.T.);
#235=EDGE_CURVE('',#217,#217,#253,.T.);
#236=CIRCLE('',#255,9.03529142706151);
#237=CIRCLE('',#256,8.30044450422656);
#238=CIRCLE('',#258,8.5);
#239=CIRCLE('',#260,8.5);
#240=CIRCLE('',#262,7.875);
#241=CIRCLE('',#264,7.875);
#242=CIRCLE('',#266,5.875);
#243=CIRCLE('',#269,11.4412615708567);
#244=CIRCLE('',#271,18.4853455308654);
#245=CIRCLE('',#272,15.2046106882113);
#246=CIRCLE('',#274,14.3);
#247=CIRCLE('',#276,14.3);
#248=CIRCLE('',#278,14.5);
#249=CIRCLE('',#280,14.5);
#250=CIRCLE('',#282,14.);
#251=CIRCLE('',#284,9.78004267621761);
#252=CIRCLE('',#287,5.);
#253=CIRCLE('',#288,5.);
#254=AXIS2_PLACEMENT_3D('',#360,#289,#290);
#255=AXIS2_PLACEMENT_3D('',#361,#291,#292);
#256=AXIS2_PLACEMENT_3D('',#363,#293,#294);
#257=AXIS2_PLACEMENT_3D('',#365,#295,#296);
#258=AXIS2_PLACEMENT_3D('',#366,#297,#298);
#259=AXIS2_PLACEMENT_3D('',#368,#299,#300);
#260=AXIS2_PLACEMENT_3D('',#369,#301,#302);
#261=AXIS2_PLACEMENT_3D('',#371,#303,#304);
#262=AXIS2_PLACEMENT_3D('',#372,#305,#306);
#263=AXIS2_PLACEMENT_3D('',#374,#307,#308);
#264=AXIS2_PLACEMENT_3D('',#375,#309,#310);
#265=AXIS2_PLACEMENT_3D('',#377,#311,#312);
#266=AXIS2_PLACEMENT_3D('',#378,#313,#314);
#267=AXIS2_PLACEMENT_3D('',#380,#315,#316);
#268=AXIS2_PLACEMENT_3D('',#381,#317,#318);
#269=AXIS2_PLACEMENT_3D('',#382,#319,#320);
#270=AXIS2_PLACEMENT_3D('',#384,#321,#322);
#271=AXIS2_PLACEMENT_3D('',#385,#323,#324);
#272=AXIS2_PLACEMENT_3D('',#454,#326,#327);
#273=AXIS2_PLACEMENT_3D('',#456,#328,#329);
#274=AXIS2_PLACEMENT_3D('',#457,#330,#331);
#275=AXIS2_PLACEMENT_3D('',#459,#332,#333);
#276=AXIS2_PLACEMENT_3D('',#460,#334,#335);
#277=AXIS2_PLACEMENT_3D('',#462,#336,#337);
#278=AXIS2_PLACEMENT_3D('',#463,#338,#339);
#279=AXIS2_PLACEMENT_3D('',#465,#340,#341);
#280=AXIS2_PLACEMENT_3D('',#466,#342,#343);
#281=AXIS2_PLACEMENT_3D('',#468,#344,#345);
#282=AXIS2_PLACEMENT_3D('',#469,#346,#347);
#283=AXIS2_PLACEMENT_3D('',#471,#348,#349);
#284=AXIS2_PLACEMENT_3D('',#472,#350,#351);
#285=AXIS2_PLACEMENT_3D('',#474,#352,#353);
#286=AXIS2_PLACEMENT_3D('',#475,#354,#355);
#287=AXIS2_PLACEMENT_3D('',#476,#356,#357);
#288=AXIS2_PLACEMENT_3D('',#478,#358,#359);
#289=DIRECTION('',(0.,0.,1.));
#290=DIRECTION('',(1.,0.,0.));
#291=DIRECTION('',(-1.,0.,0.));
#292=DIRECTION('',(0.,0.,1.));
#293=DIRECTION('',(-1.,0.,0.));
#294=DIRECTION('',(0.,0.,1.));
#295=DIRECTION('',(-1.,0.,0.));
#296=DIRECTION('',(0.,0.,1.));
#297=DIRECTION('',(-1.,0.,0.));
#298=DIRECTION('',(0.,0.,1.));
#299=DIRECTION('',(1.,0.,0.));
#300=DIRECTION('',(-2.00800554861772E-16,0.,-1.));
#301=DIRECTION('',(-1.,0.,0.));
#302=DIRECTION('',(0.,0.,1.));
#303=DIRECTION('',(-1.,0.,0.));
#304=DIRECTION('',(0.,0.,1.));
#305=DIRECTION('',(-1.,0.,0.));
#306=DIRECTION('',(0.,0.,1.));
#307=DIRECTION('',(-1.,0.,0.));
#308=DIRECTION('',(7.11407480423621E-17,0.,1.));
#309=DIRECTION('',(-1.,0.,0.));
#310=DIRECTION('',(0.,0.,1.));
#311=DIRECTION('',(-1.,0.,0.));
#312=DIRECTION('',(0.,0.,1.));
#313=DIRECTION('',(-1.,0.,0.));
#314=DIRECTION('',(0.,0.,1.));
#315=DIRECTION('',(-1.,0.,0.));
#316=DIRECTION('',(5.51869280290865E-17,0.,1.));
#317=DIRECTION('',(-1.,0.,0.));
#318=DIRECTION('',(0.,0.,1.));
#319=DIRECTION('',(-1.,0.,0.));
#320=DIRECTION('',(0.,0.,1.));
#321=DIRECTION('',(1.,0.,0.));
#322=DIRECTION('',(0.,0.,-1.));
#323=DIRECTION('',(-1.,0.,0.));
#324=DIRECTION('',(0.,0.,1.));
#325=DIRECTION('',(-1.,0.,0.));
#326=DIRECTION('',(-1.,0.,0.));
#327=DIRECTION('',(0.,0.,1.));
#328=DIRECTION('',(-1.,0.,0.));
#329=DIRECTION('',(3.65999696249849E-17,0.,1.));
#330=DIRECTION('',(-1.,0.,0.));
#331=DIRECTION('',(0.,0.,1.));
#332=DIRECTION('',(-1.,0.,0.));
#333=DIRECTION('',(0.,0.,1.));
#334=DIRECTION('',(-1.,0.,0.));
#335=DIRECTION('',(0.,0.,1.));
#336=DIRECTION('',(-1.,0.,0.));
#337=DIRECTION('',(0.,0.,1.));
#338=DIRECTION('',(-1.,0.,0.));
#339=DIRECTION('',(0.,0.,1.));
#340=DIRECTION('',(1.,0.,0.));
#341=DIRECTION('',(1.36794359860171E-17,0.,-1.));
#342=DIRECTION('',(-1.,0.,0.));
#343=DIRECTION('',(0.,0.,1.));
#344=DIRECTION('',(-1.,0.,0.));
#345=DIRECTION('',(0.,0.,1.));
#346=DIRECTION('',(-1.,0.,0.));
#347=DIRECTION('',(0.,0.,1.));
#348=DIRECTION('',(-1.,0.,0.));
#349=DIRECTION('',(4.10585438101021E-17,0.,1.));
#350=DIRECTION('',(-1.,0.,0.));
#351=DIRECTION('',(0.,0.,1.));
#352=DIRECTION('',(-1.,0.,0.));
#353=DIRECTION('',(0.,0.,1.));
#354=DIRECTION('',(1.,0.,0.));
#355=DIRECTION('',(-1.66930253628555E-17,0.,-1.));
#356=DIRECTION('',(0.,0.984602913930566,0.174805897724987));
#357=DIRECTION('',(1.,0.,0.));
#358=DIRECTION('',(0.,0.,-1.));
#359=DIRECTION('',(1.,0.,0.));
#360=CARTESIAN_POINT('',(0.,0.,0.));
#361=CARTESIAN_POINT('',(42.8004445042265,0.,0.));
#362=CARTESIAN_POINT('',(42.8004445042265,0.,9.03529142706151));
#363=CARTESIAN_POINT('',(43.5352914270615,0.,0.));
#364=CARTESIAN_POINT('',(43.5352914270615,0.,8.30044450422656));
#365=CARTESIAN_POINT('',(43.38,0.,0.));
#366=CARTESIAN_POINT('',(44.2800426762176,0.,0.));
#367=CARTESIAN_POINT('',(44.2800426762176,0.,8.5));
#368=CARTESIAN_POINT('',(44.2800426762176,0.,0.));
#369=CARTESIAN_POINT('',(49.,0.,0.));
#370=CARTESIAN_POINT('',(49.,0.,8.5));
#371=CARTESIAN_POINT('',(0.,0.,0.));
#372=CARTESIAN_POINT('',(50.0825317547305,0.,0.));
#373=CARTESIAN_POINT('',(50.0825317547305,0.,7.875));
#374=CARTESIAN_POINT('',(50.0825317547305,0.,0.));
#375=CARTESIAN_POINT('',(66.,0.,0.));
#376=CARTESIAN_POINT('',(66.,0.,7.875));
#377=CARTESIAN_POINT('',(0.,0.,0.));
#378=CARTESIAN_POINT('',(68.,0.,0.));
#379=CARTESIAN_POINT('',(68.,0.,5.875));
#380=CARTESIAN_POINT('',(68.,0.,0.));
#381=CARTESIAN_POINT('',(68.,0.,0.));
#382=CARTESIAN_POINT('',(3.,0.,0.));
#383=CARTESIAN_POINT('',(3.,0.,11.4412615708567));
#384=CARTESIAN_POINT('',(3.,11.4412615708567,0.));
#385=CARTESIAN_POINT('',(6.94863871450733,0.,0.));
#386=CARTESIAN_POINT('',(6.94863871450733,0.,18.4853455308654));
#387=CARTESIAN_POINT('',(4.73303607812499,10.9156683787365,0.));
#388=CARTESIAN_POINT('',(5.26696392187501,10.9156683787365,0.));
#389=CARTESIAN_POINT('',(5.53118775330281,10.9416685854319,0.));
#390=CARTESIAN_POINT('',(6.05415966313802,11.0454967434424,0.));
#391=CARTESIAN_POINT('',(6.30779738023761,11.122499613211,0.));
#392=CARTESIAN_POINT('',(6.7944980603351,11.3232949781534,0.));
#393=CARTESIAN_POINT('',(7.03060011800711,11.448752932819,0.));
#394=CARTESIAN_POINT('',(7.47233405964016,11.7428622061102,0.));
#395=CARTESIAN_POINT('',(7.67613570895767,11.9096162975644,0.));
#396=CARTESIAN_POINT('',(8.05007788480552,12.2819813966577,0.));
#397=CARTESIAN_POINT('',(8.22117765194349,12.4897635989698,0.));
#398=CARTESIAN_POINT('',(8.51479144717959,12.9282438345117,0.));
#399=CARTESIAN_POINT('',(8.63924701572781,13.1602886088314,0.));
#400=CARTESIAN_POINT('',(8.84264195232966,13.650453533701,0.));
#401=CARTESIAN_POINT('',(8.9200503573674,13.9063884267364,0.));
#402=CARTESIAN_POINT('',(9.02238806772534,14.4227798766343,0.));
#403=CARTESIAN_POINT('',(9.04837369402212,14.6868693242847,0.));
#404=CARTESIAN_POINT('',(9.04745754151333,15.2195199075993,0.));
#405=CARTESIAN_POINT('',(9.02081678864347,15.4817414605964,0.));
#406=CARTESIAN_POINT('',(8.91692220241443,15.9982517315269,0.));
#407=CARTESIAN_POINT('',(8.83830422691287,16.2552542843511,0.));
#408=CARTESIAN_POINT('',(8.6343775135223,16.7432466977797,0.));
#409=CARTESIAN_POINT('',(8.5096233772431,16.9749782890295,0.));
#410=CARTESIAN_POINT('',(8.21459830949297,17.4139470926446,0.));
#411=CARTESIAN_POINT('',(8.04341847686234,17.6211150226759,0.));
#412=CARTESIAN_POINT('',(7.66972501181317,17.9924958027746,0.));
#413=CARTESIAN_POINT('',(7.4656970058,18.1593335299417,0.));
#414=CARTESIAN_POINT('',(7.02219455388275,18.4541143248037,0.));
#415=CARTESIAN_POINT('',(6.78766004520634,18.5784586862109,0.));
#416=CARTESIAN_POINT('',(6.300938234783,18.7789369637047,0.));
#417=CARTESIAN_POINT('',(6.04523753199834,18.8562261875057,0.));
#418=CARTESIAN_POINT('',(5.52435760079946,18.9589651787754,0.));
#419=CARTESIAN_POINT('',(5.26225526082686,18.9843479709658,0.));
#420=CARTESIAN_POINT('',(4.73479080913297,18.9841558871477,0.));
#421=CARTESIAN_POINT('',(4.46697955964557,18.9577310345737,0.));
#422=CARTESIAN_POINT('',(3.9491993027341,18.8546411604324,0.));
#423=CARTESIAN_POINT('',(3.6972170160453,18.7784406690417,0.));
#424=CARTESIAN_POINT('',(3.20724612631334,18.5760932574185,0.));
#425=CARTESIAN_POINT('',(2.97094951183377,18.4499456767736,0.));
#426=CARTESIAN_POINT('',(2.53279839990783,18.1579377460819,0.));
#427=CARTESIAN_POINT('',(2.32794602025429,17.9907501641029,0.));
#428=CARTESIAN_POINT('',(1.95013422810485,17.6141253518066,0.));
#429=CARTESIAN_POINT('',(1.78270882413183,17.4103365025966,0.));
#430=CARTESIAN_POINT('',(1.48926615692972,16.9729247235843,0.));
#431=CARTESIAN_POINT('',(1.36223707202845,16.7364585025425,0.));
#432=CARTESIAN_POINT('',(1.15905698379384,16.247587261311,0.));
#433=CARTESIAN_POINT('',(1.08235411019033,15.9957853582611,0.));
#434=CARTESIAN_POINT('',(0.97856002724267,15.4774971375248,0.));
#435=CARTESIAN_POINT('',(0.952082556268883,15.2098662141026,0.));
#436=CARTESIAN_POINT('',(0.952074308578135,14.6828109187341,0.));
#437=CARTESIAN_POINT('',(0.977713773955836,14.4205463905024,0.));
#438=CARTESIAN_POINT('',(1.08183650940849,13.8986202472696,0.));
#439=CARTESIAN_POINT('',(1.15957192149815,13.6443902289247,0.));
#440=CARTESIAN_POINT('',(1.36183748664369,13.1584150861719,0.));
#441=CARTESIAN_POINT('',(1.48804550356784,12.9231288729086,0.));
#442=CARTESIAN_POINT('',(1.78435790778439,12.4824003354953,0.));
#443=CARTESIAN_POINT('',(1.95215558015848,12.2794664648919,0.));
#444=CARTESIAN_POINT('',(2.3261284851869,11.9076560597634,0.));
#445=CARTESIAN_POINT('',(2.53471204099759,11.7375962768597,0.));
#446=CARTESIAN_POINT('',(2.97473786351817,11.4457898735673,0.));
#447=CARTESIAN_POINT('',(3.20719724151847,11.322341810861,0.));
#448=CARTESIAN_POINT('',(3.69719748686092,11.1206961440529,0.));
#449=CARTESIAN_POINT('',(3.95389451189936,11.0435734105732,0.));
#450=CARTESIAN_POINT('',(4.47049293562462,10.9416653784087,0.));
#451=CARTESIAN_POINT('',(4.73303607812499,10.9156683787365,0.));
#452=CARTESIAN_POINT('',(5.26696392187501,10.9156683787365,0.));
#453=CARTESIAN_POINT('',(0.,0.,0.));
#454=CARTESIAN_POINT('',(15.9623836139685,0.,0.));
#455=CARTESIAN_POINT('',(15.9623836139685,0.,15.2046106882113));
#456=CARTESIAN_POINT('',(15.9623836139685,0.,0.));
#457=CARTESIAN_POINT('',(21.0926857638534,0.,0.));
#458=CARTESIAN_POINT('',(21.0926857638534,0.,14.3));
#459=CARTESIAN_POINT('',(21.0926857638534,0.,0.));
#460=CARTESIAN_POINT('',(38.,0.,0.));
#461=CARTESIAN_POINT('',(38.,0.,14.3));
#462=CARTESIAN_POINT('',(0.,0.,0.));
#463=CARTESIAN_POINT('',(38.2,0.,0.));
#464=CARTESIAN_POINT('',(38.2,0.,14.5));
#465=CARTESIAN_POINT('',(38.2,0.,0.));
#466=CARTESIAN_POINT('',(42.5,0.,0.));
#467=CARTESIAN_POINT('',(42.5,0.,14.5));
#468=CARTESIAN_POINT('',(0.,0.,0.));
#469=CARTESIAN_POINT('',(43.,0.,0.));
#470=CARTESIAN_POINT('',(43.,0.,14.));
#471=CARTESIAN_POINT('',(43.,0.,0.));
#472=CARTESIAN_POINT('',(43.,0.,0.));
#473=CARTESIAN_POINT('',(43.,0.,9.78004267621761));
#474=CARTESIAN_POINT('',(43.,14.,0.));
#475=CARTESIAN_POINT('',(42.8004445042265,0.,0.));
#476=CARTESIAN_POINT('',(5.,-0.635336083487599,15.0198236632598));
#477=CARTESIAN_POINT('',(10.,-0.635336083487599,15.0198236632598));
#478=CARTESIAN_POINT('',(5.,-14.89962264,2.));
#479=CARTESIAN_POINT('',(10.,-14.89962264,2.));
#480=CARTESIAN_POINT('',(10.,-14.89962264,2.));
#481=CARTESIAN_POINT('',(10.,-17.1325894041083,-14.6351810764375));
#482=CARTESIAN_POINT('',(10.,-2.26206370292588,-22.4186799931169));
#483=CARTESIAN_POINT('',(10.,10.134726818751,-11.1034259183231));
#484=CARTESIAN_POINT('',(10.,22.5315173404279,0.211828156470702));
#485=CARTESIAN_POINT('',(10.,16.1340474379254,15.7291658424931));
#486=CARTESIAN_POINT('',(10.,-0.635336083487606,15.0198236632598));
#487=CARTESIAN_POINT('',(10.,-4.89962263999999,2.));
#488=CARTESIAN_POINT('',(10.,-7.13258940410826,-3.47034725589619));
#489=CARTESIAN_POINT('',(10.,-2.75469758642406,-7.43833199658721));
#490=CARTESIAN_POINT('',(10.,2.47050507833604,-4.68005413134468));
#491=CARTESIAN_POINT('',(10.,7.69570774309616,-1.92177626610214));
#492=CARTESIAN_POINT('',(10.,6.88917850191973,3.93145790423739));
#493=CARTESIAN_POINT('',(10.,1.11272289376226,5.17379452395414));
#494=CARTESIAN_POINT('',(-5.10076676829453E-16,-4.89962263999999,2.));
#495=CARTESIAN_POINT('',(-5.10076676829454E-16,-7.13258940410826,-3.47034725589619));
#496=CARTESIAN_POINT('',(-5.10076676829454E-16,-2.75469758642406,-7.43833199658721));
#497=CARTESIAN_POINT('',(-5.10076676829453E-16,2.47050507833604,-4.68005413134468));
#498=CARTESIAN_POINT('',(-5.10076676829454E-16,7.69570774309616,-1.92177626610214));
#499=CARTESIAN_POINT('',(-5.10076676829454E-16,6.88917850191973,3.93145790423739));
#500=CARTESIAN_POINT('',(-5.10076676829453E-16,1.11272289376226,5.17379452395414));
#501=CARTESIAN_POINT('',(-1.7347234759768E-15,-14.89962264,2.));
#502=CARTESIAN_POINT('',(-1.73472347597681E-15,-17.1325894041083,-14.6351810764375));
#503=CARTESIAN_POINT('',(-1.73472347597681E-15,-2.26206370292588,-22.4186799931169));
#504=CARTESIAN_POINT('',(-1.7347234759768E-15,10.134726818751,-11.1034259183231));
#505=CARTESIAN_POINT('',(-1.73472347597681E-15,22.5315173404279,0.211828156470702));
#506=CARTESIAN_POINT('',(-1.73472347597681E-15,16.1340474379254,15.7291658424931));
#507=CARTESIAN_POINT('',(-1.7347234759768E-15,-0.635336083487606,15.0198236632598));
#508=CARTESIAN_POINT('',(-2.95937027512416E-15,-24.89962264,2.));
#509=CARTESIAN_POINT('',(-2.95937027512416E-15,-27.1325894041083,-25.8000148969788));
#510=CARTESIAN_POINT('',(-2.95937027512416E-15,-1.7694298194277,-37.3990279896467));
#511=CARTESIAN_POINT('',(-2.95937027512416E-15,17.7989485591659,-17.5267977053016));
#512=CARTESIAN_POINT('',(-2.95937027512416E-15,37.3673269377597,2.34543257904355));
#513=CARTESIAN_POINT('',(-2.95937027512416E-15,25.378916373931,27.5268737807488));
#514=CARTESIAN_POINT('',(-2.95937027512416E-15,-2.38339506073747,24.8658528025655));
#515=CARTESIAN_POINT('',(10.,-24.89962264,2.));
#516=CARTESIAN_POINT('',(10.,-27.1325894041083,-25.8000148969788));
#517=CARTESIAN_POINT('',(10.,-1.7694298194277,-37.3990279896467));
#518=CARTESIAN_POINT('',(10.,17.7989485591659,-17.5267977053016));
#519=CARTESIAN_POINT('',(10.,37.3673269377597,2.34543257904355));
#520=CARTESIAN_POINT('',(10.,25.378916373931,27.5268737807488));
#521=CARTESIAN_POINT('',(10.,-2.38339506073747,24.8658528025655));
#522=CARTESIAN_POINT('',(10.,-14.89962264,2.));
#523=CARTESIAN_POINT('',(10.,-17.1325894041083,-14.6351810764375));
#524=CARTESIAN_POINT('',(10.,-2.26206370292588,-22.4186799931169));
#525=CARTESIAN_POINT('',(10.,10.134726818751,-11.1034259183231));
#526=CARTESIAN_POINT('',(10.,22.5315173404279,0.211828156470702));
#527=CARTESIAN_POINT('',(10.,16.1340474379254,15.7291658424931));
#528=CARTESIAN_POINT('',(10.,-0.635336083487606,15.0198236632598));
#529=CARTESIAN_POINT('',(10.,-0.635336083487599,15.0198236632598));
#530=CARTESIAN_POINT('',(10.,-8.253483770849,14.6975772625276));
#531=CARTESIAN_POINT('',(10.,-13.8852102396738,9.55718098309809));
#532=CARTESIAN_POINT('',(10.,-14.89962264,2.));
#533=CARTESIAN_POINT('',(10.,1.11272289376226,5.17379452395414));
#534=CARTESIAN_POINT('',(10.,-1.51145776715703,5.73817447473377));
#535=CARTESIAN_POINT('',(10.,-3.88521023967385,4.48511898146737));
#536=CARTESIAN_POINT('',(10.,-4.89962263999999,2.));
#537=CARTESIAN_POINT('',(-5.10076676829453E-16,1.11272289376226,5.17379452395414));
#538=CARTESIAN_POINT('',(-5.10076676829454E-16,-1.51145776715703,5.73817447473377));
#539=CARTESIAN_POINT('',(-5.10076676829454E-16,-3.88521023967385,4.48511898146737));
#540=CARTESIAN_POINT('',(-5.10076676829453E-16,-4.89962263999999,2.));
#541=CARTESIAN_POINT('',(-1.7347234759768E-15,-0.635336083487599,15.0198236632598));
#542=CARTESIAN_POINT('',(-1.73472347597681E-15,-8.253483770849,14.6975772625276));
#543=CARTESIAN_POINT('',(-1.73472347597681E-15,-13.8852102396738,9.55718098309809));
#544=CARTESIAN_POINT('',(-1.7347234759768E-15,-14.89962264,2.));
#545=CARTESIAN_POINT('',(-2.95937027512416E-15,-2.38339506073746,24.8658528025655));
#546=CARTESIAN_POINT('',(-2.95937027512416E-15,-14.995509774541,23.6569800503214));
#547=CARTESIAN_POINT('',(-2.95937027512416E-15,-23.8852102396739,14.6292429847288));
#548=CARTESIAN_POINT('',(-2.95937027512416E-15,-24.89962264,2.));
#549=CARTESIAN_POINT('',(10.,-2.38339506073746,24.8658528025655));
#550=CARTESIAN_POINT('',(10.,-14.995509774541,23.6569800503214));
#551=CARTESIAN_POINT('',(10.,-23.8852102396739,14.6292429847288));
#552=CARTESIAN_POINT('',(10.,-24.89962264,2.));
#553=CARTESIAN_POINT('',(10.,-0.635336083487599,15.0198236632598));
#554=CARTESIAN_POINT('',(10.,-8.253483770849,14.6975772625276));
#555=CARTESIAN_POINT('',(10.,-13.8852102396738,9.55718098309809));
#556=CARTESIAN_POINT('',(10.,-14.89962264,2.));
#557=MECHANICAL_DESIGN_GEOMETRIC_PRESENTATION_REPRESENTATION('',(#35,#36),
#558);
#558=(
GEOMETRIC_REPRESENTATION_CONTEXT(3)
GLOBAL_UNCERTAINTY_ASSIGNED_CONTEXT((#559))
GLOBAL_UNIT_ASSIGNED_CONTEXT((#565,#561,#560))
REPRESENTATION_CONTEXT('AEMR-RD1003-D40-M16-L43-Z05-H',
'TOP_LEVEL_ASSEMBLY_PART')
);
#559=UNCERTAINTY_MEASURE_WITH_UNIT(LENGTH_MEASURE(2.E-5),#565,
'DISTANCE_ACCURACY_VALUE','Maximum Tolerance applied to model');
#560=(
NAMED_UNIT(*)
SI_UNIT($,.STERADIAN.)
SOLID_ANGLE_UNIT()
);
#561=(
CONVERSION_BASED_UNIT('DEGREE',#563)
NAMED_UNIT(#562)
PLANE_ANGLE_UNIT()
);
#562=DIMENSIONAL_EXPONENTS(0.,0.,0.,0.,0.,0.,0.);
#563=PLANE_ANGLE_MEASURE_WITH_UNIT(PLANE_ANGLE_MEASURE(0.0174532925),#564);
#564=(
NAMED_UNIT(*)
PLANE_ANGLE_UNIT()
SI_UNIT($,.RADIAN.)
);
#565=(
LENGTH_UNIT()
NAMED_UNIT(*)
SI_UNIT(.MILLI.,.METRE.)
);
ENDSEC;
END-ISO-10303-21;
