ISO-10303-21;
HEADER;
/* Generated by software containing ST-Developer
 * from STEP Tools, Inc. (www.steptools.com) 
 */
/* OPTION: using custom schema-name function */

FILE_DESCRIPTION(
/* description */ (''),
/* implementation_level */ '2;1');

FILE_NAME(
/* name */ 'AEMR-RD10T3-D32-M16-L45-Z04-H.stp',
/* time_stamp */ '2023-10-21T10:52:08+03:00',
/* author */ (''),
/* organization */ (''),
/* preprocessor_version */ 'ST-DEVELOPER v19.4',
/* originating_system */ 'SIEMENS PLM Software NX2306.5001',
/* authorisation */ '');

FILE_SCHEMA (('AUTOMOTIVE_DESIGN { 1 0 10303 214 3 1 1 1 }'));
ENDSEC;

DATA;
#10=PROPERTY_DEFINITION_REPRESENTATION(#14,#12);
#11=PROPERTY_DEFINITION_REPRESENTATION(#15,#13);
#12=REPRESENTATION('',(#16),#558);
#13=REPRESENTATION('',(#17),#558);
#14=PROPERTY_DEFINITION('pmi validation property','',#21);
#15=PROPERTY_DEFINITION('pmi validation property','',#21);
#16=VALUE_REPRESENTATION_ITEM('number of annotations',COUNT_MEASURE(0.));
#17=VALUE_REPRESENTATION_ITEM('number of views',COUNT_MEASURE(0.));
#18=SHAPE_REPRESENTATION_RELATIONSHIP('None',
'relationship between AEMR-RD10T3-D32-M16-L45-Z04-H-LIGHT_x_t_objects-
None and AEMR-RD10T3-D32-M16-L45-Z04-H-LIGHT_x_t_objects-None',#30,#19);
#19=ADVANCED_BREP_SHAPE_REPRESENTATION(
'AEMR-RD10T3-D32-M16-L45-Z04-H-LIGHT_x_t_objects-None',(#50,#51),#558);
#20=SHAPE_DEFINITION_REPRESENTATION(#21,#30);
#21=PRODUCT_DEFINITION_SHAPE('','',#22);
#22=PRODUCT_DEFINITION(' ','',#24,#23);
#23=PRODUCT_DEFINITION_CONTEXT('part definition',#29,'design');
#24=PRODUCT_DEFINITION_FORMATION_WITH_SPECIFIED_SOURCE(' ',' ',#26,
 .NOT_KNOWN.);
#25=PRODUCT_RELATED_PRODUCT_CATEGORY('part','',(#26));
#26=PRODUCT('AEMR-RD10T3-D32-M16-L45-Z04-H-LIGHT_x_t_objects',
'AEMR-RD10T3-D32-M16-L45-Z04-H-LIGHT_x_t_objects',' ',(#27));
#27=PRODUCT_CONTEXT(' ',#29,'mechanical');
#28=APPLICATION_PROTOCOL_DEFINITION('international standard',
'automotive_design',2010,#29);
#29=APPLICATION_CONTEXT(
'core data for automotive mechanical design processes');
#30=SHAPE_REPRESENTATION(
'AEMR-RD10T3-D32-M16-L45-Z04-H-LIGHT_x_t_objects-None',(#254),#558);
#31=DRAUGHTING_PRE_DEFINED_COLOUR('yellow');
#32=(
BOUNDED_SURFACE()
B_SPLINE_SURFACE(3,3,((#480,#481,#482,#483,#484,#485,#486),(#487,#488,#489,
#490,#491,#492,#493),(#494,#495,#496,#497,#498,#499,#500),(#501,#502,#503,
#504,#505,#506,#507),(#508,#509,#510,#511,#512,#513,#514),(#515,#516,#517,
#518,#519,#520,#521),(#522,#523,#524,#525,#526,#527,#528)),
 .UNSPECIFIED.,.T.,.F.,.F.)
B_SPLINE_SURFACE_WITH_KNOTS((1,3,3,3,1),(4,3,4),(-0.5,0.,0.5,1.,1.5),(0.,
0.5,1.),.UNSPECIFIED.)
GEOMETRIC_REPRESENTATION_ITEM()
RATIONAL_B_SPLINE_SURFACE(((1.,0.56669660294325,0.56669660294325,1.,0.56669660294325,
0.56669660294325,1.),(0.333333333333334,0.18889886764775,0.18889886764775,
0.333333333333334,0.18889886764775,0.18889886764775,0.333333333333334),
(0.333333333333334,0.18889886764775,0.18889886764775,0.333333333333334,
0.18889886764775,0.18889886764775,0.333333333333334),(1.,0.56669660294325,
0.56669660294325,1.,0.56669660294325,0.56669660294325,1.),(0.333333333333334,
0.18889886764775,0.18889886764775,0.333333333333334,0.18889886764775,0.18889886764775,
0.333333333333334),(0.333333333333334,0.18889886764775,0.18889886764775,
0.333333333333334,0.18889886764775,0.18889886764775,0.333333333333334),
(1.,0.56669660294325,0.56669660294325,1.,0.56669660294325,0.56669660294325,
1.)))
REPRESENTATION_ITEM('')
SURFACE()
);
#33=(
BOUNDED_SURFACE()
B_SPLINE_SURFACE(3,3,((#529,#530,#531,#532),(#533,#534,#535,#536),(#537,
#538,#539,#540),(#541,#542,#543,#544),(#545,#546,#547,#548),(#549,#550,
#551,#552),(#553,#554,#555,#556)),.UNSPECIFIED.,.T.,.F.,.F.)
B_SPLINE_SURFACE_WITH_KNOTS((1,3,3,3,1),(4,4),(-0.5,0.,0.5,1.,1.5),(0.,
1.),.UNSPECIFIED.)
GEOMETRIC_REPRESENTATION_ITEM()
RATIONAL_B_SPLINE_SURFACE(((1.,0.836624753190908,0.836624753190908,1.),
(0.333333333333334,0.278874917730302,0.278874917730302,0.333333333333334),
(0.333333333333334,0.278874917730302,0.278874917730302,0.333333333333334),
(1.,0.836624753190908,0.836624753190908,1.),(0.333333333333334,0.278874917730302,
0.278874917730302,0.333333333333334),(0.333333333333334,0.278874917730302,
0.278874917730302,0.333333333333334),(1.,0.836624753190908,0.836624753190908,
1.)))
REPRESENTATION_ITEM('')
SURFACE()
);
#34=PRESENTATION_LAYER_ASSIGNMENT('1','Layer 1',(#50,#51));
#35=STYLED_ITEM('',(#37),#50);
#36=STYLED_ITEM('',(#38),#51);
#37=PRESENTATION_STYLE_ASSIGNMENT((#39));
#38=PRESENTATION_STYLE_ASSIGNMENT((#40));
#39=SURFACE_STYLE_USAGE(.BOTH.,#41);
#40=SURFACE_STYLE_USAGE(.BOTH.,#42);
#41=SURFACE_SIDE_STYLE('',(#43));
#42=SURFACE_SIDE_STYLE('',(#44));
#43=SURFACE_STYLE_FILL_AREA(#45);
#44=SURFACE_STYLE_FILL_AREA(#46);
#45=FILL_AREA_STYLE('',(#47));
#46=FILL_AREA_STYLE('',(#48));
#47=FILL_AREA_STYLE_COLOUR('',#49);
#48=FILL_AREA_STYLE_COLOUR('',#31);
#49=COLOUR_RGB('silver gray',0.6,0.6,0.6);
#50=MANIFOLD_SOLID_BREP('',#52);
#51=MANIFOLD_SOLID_BREP('',#53);
#52=CLOSED_SHELL('',(#104,#105,#106,#107,#108,#109,#110,#111,#112,#113,
#114,#115,#116,#117,#118,#119,#120));
#53=CLOSED_SHELL('',(#121,#122));
#54=SURFACE_OF_REVOLUTION('',#56,#55);
#55=AXIS1_PLACEMENT('',#474,#353);
#56=B_SPLINE_CURVE_WITH_KNOTS('',3,(#408,#409,#410,#411,#412,#413,#414,
#415,#416,#417,#418,#419,#420,#421,#422,#423,#424,#425,#426,#427,#428,#429,
#430,#431,#432,#433,#434,#435,#436,#437,#438,#439,#440,#441,#442,#443,#444,
#445,#446,#447,#448,#449,#450,#451,#452,#453,#454,#455,#456,#457,#458,#459,
#460,#461,#462,#463,#464,#465,#466,#467,#468,#469,#470,#471,#472,#473),
 .UNSPECIFIED.,.T.,.F.,(2,2,2,2,2,2,2,2,2,2,2,2,2,2,2,2,2,2,2,2,2,2,2,2,
2,2,2,2,2,2,2,2,2,2,2),(-0.03125,0.,0.03125,0.0625,0.09375,0.125,0.15625,
0.1875,0.21875,0.25,0.28125,0.3125,0.34375,0.375,0.40625,0.4375,0.46875,
0.5,0.53125,0.5625,0.59375,0.625,0.65625,0.6875,0.71875,0.75,0.78125,0.8125,
0.84375,0.875,0.90625,0.9375,0.96875,1.,1.03125),.UNSPECIFIED.);
#57=TOROIDAL_SURFACE('',#268,8.88,0.6);
#58=TOROIDAL_SURFACE('',#282,16.3,2.);
#59=CYLINDRICAL_SURFACE('',#260,7.875);
#60=CYLINDRICAL_SURFACE('',#264,8.5);
#61=CYLINDRICAL_SURFACE('',#276,14.5);
#62=CYLINDRICAL_SURFACE('',#280,14.3);
#63=CONICAL_SURFACE('',#258,5.875,44.9999999999997);
#64=CONICAL_SURFACE('',#262,7.875,30.);
#65=CONICAL_SURFACE('',#266,8.5,15.0000000000001);
#66=CONICAL_SURFACE('',#270,9.03529142706151,75.);
#67=CONICAL_SURFACE('',#274,14.,45.);
#68=CONICAL_SURFACE('',#278,14.5,45.0000000000002);
#69=CONICAL_SURFACE('',#284,14.4206147584282,19.999999999998);
#70=FACE_BOUND('',#129,.T.);
#71=FACE_BOUND('',#130,.T.);
#72=FACE_BOUND('',#131,.T.);
#73=FACE_BOUND('',#132,.T.);
#74=FACE_BOUND('',#133,.T.);
#75=FACE_BOUND('',#134,.T.);
#76=FACE_BOUND('',#135,.T.);
#77=FACE_BOUND('',#136,.T.);
#78=FACE_BOUND('',#137,.T.);
#79=FACE_BOUND('',#138,.T.);
#80=FACE_BOUND('',#139,.T.);
#81=FACE_BOUND('',#140,.T.);
#82=FACE_BOUND('',#141,.T.);
#83=FACE_BOUND('',#142,.T.);
#84=FACE_BOUND('',#143,.T.);
#85=FACE_BOUND('',#144,.T.);
#86=FACE_BOUND('',#145,.T.);
#87=FACE_BOUND('',#146,.T.);
#88=FACE_BOUND('',#147,.T.);
#89=FACE_BOUND('',#148,.T.);
#90=FACE_BOUND('',#149,.T.);
#91=FACE_BOUND('',#150,.T.);
#92=FACE_BOUND('',#151,.T.);
#93=FACE_BOUND('',#152,.T.);
#94=FACE_BOUND('',#153,.T.);
#95=FACE_BOUND('',#154,.T.);
#96=FACE_BOUND('',#155,.T.);
#97=FACE_BOUND('',#156,.T.);
#98=FACE_BOUND('',#157,.T.);
#99=FACE_BOUND('',#158,.T.);
#100=FACE_BOUND('',#160,.T.);
#101=FACE_BOUND('',#161,.T.);
#102=FACE_BOUND('',#162,.T.);
#103=FACE_BOUND('',#163,.T.);
#104=ADVANCED_FACE('',(#126),#123,.F.);
#105=ADVANCED_FACE('',(#70,#71),#63,.T.);
#106=ADVANCED_FACE('',(#72,#73),#59,.T.);
#107=ADVANCED_FACE('',(#74,#75),#64,.T.);
#108=ADVANCED_FACE('',(#76,#77),#60,.T.);
#109=ADVANCED_FACE('',(#78,#79),#65,.T.);
#110=ADVANCED_FACE('',(#80,#81),#57,.F.);
#111=ADVANCED_FACE('',(#82,#83),#66,.F.);
#112=ADVANCED_FACE('',(#84,#85),#124,.F.);
#113=ADVANCED_FACE('',(#86,#87),#67,.T.);
#114=ADVANCED_FACE('',(#88,#89),#61,.T.);
#115=ADVANCED_FACE('',(#90,#91),#68,.T.);
#116=ADVANCED_FACE('',(#92,#93),#62,.T.);
#117=ADVANCED_FACE('',(#94,#95),#58,.F.);
#118=ADVANCED_FACE('',(#96,#97),#69,.T.);
#119=ADVANCED_FACE('',(#98,#99),#54,.T.);
#120=ADVANCED_FACE('',(#127),#125,.F.);
#121=ADVANCED_FACE('',(#100,#101),#32,.F.);
#122=ADVANCED_FACE('',(#102,#103),#33,.F.);
#123=PLANE('',#256);
#124=PLANE('',#272);
#125=PLANE('',#286);
#126=FACE_OUTER_BOUND('',#128,.T.);
#127=FACE_OUTER_BOUND('',#159,.T.);
#128=EDGE_LOOP('',(#164));
#129=EDGE_LOOP('',(#165));
#130=EDGE_LOOP('',(#166));
#131=EDGE_LOOP('',(#167));
#132=EDGE_LOOP('',(#168));
#133=EDGE_LOOP('',(#169));
#134=EDGE_LOOP('',(#170));
#135=EDGE_LOOP('',(#171));
#136=EDGE_LOOP('',(#172));
#137=EDGE_LOOP('',(#173));
#138=EDGE_LOOP('',(#174));
#139=EDGE_LOOP('',(#175));
#140=EDGE_LOOP('',(#176));
#141=EDGE_LOOP('',(#177));
#142=EDGE_LOOP('',(#178));
#143=EDGE_LOOP('',(#179));
#144=EDGE_LOOP('',(#180));
#145=EDGE_LOOP('',(#181));
#146=EDGE_LOOP('',(#182));
#147=EDGE_LOOP('',(#183));
#148=EDGE_LOOP('',(#184));
#149=EDGE_LOOP('',(#185));
#150=EDGE_LOOP('',(#186));
#151=EDGE_LOOP('',(#187));
#152=EDGE_LOOP('',(#188));
#153=EDGE_LOOP('',(#189));
#154=EDGE_LOOP('',(#190));
#155=EDGE_LOOP('',(#191));
#156=EDGE_LOOP('',(#192));
#157=EDGE_LOOP('',(#193));
#158=EDGE_LOOP('',(#194));
#159=EDGE_LOOP('',(#195));
#160=EDGE_LOOP('',(#196));
#161=EDGE_LOOP('',(#197));
#162=EDGE_LOOP('',(#198));
#163=EDGE_LOOP('',(#199));
#164=ORIENTED_EDGE('',*,*,#218,.F.);
#165=ORIENTED_EDGE('',*,*,#219,.F.);
#166=ORIENTED_EDGE('',*,*,#218,.T.);
#167=ORIENTED_EDGE('',*,*,#220,.F.);
#168=ORIENTED_EDGE('',*,*,#219,.T.);
#169=ORIENTED_EDGE('',*,*,#221,.F.);
#170=ORIENTED_EDGE('',*,*,#220,.T.);
#171=ORIENTED_EDGE('',*,*,#222,.F.);
#172=ORIENTED_EDGE('',*,*,#221,.T.);
#173=ORIENTED_EDGE('',*,*,#223,.F.);
#174=ORIENTED_EDGE('',*,*,#222,.T.);
#175=ORIENTED_EDGE('',*,*,#224,.F.);
#176=ORIENTED_EDGE('',*,*,#223,.T.);
#177=ORIENTED_EDGE('',*,*,#225,.F.);
#178=ORIENTED_EDGE('',*,*,#224,.T.);
#179=ORIENTED_EDGE('',*,*,#226,.F.);
#180=ORIENTED_EDGE('',*,*,#225,.T.);
#181=ORIENTED_EDGE('',*,*,#227,.F.);
#182=ORIENTED_EDGE('',*,*,#226,.T.);
#183=ORIENTED_EDGE('',*,*,#228,.F.);
#184=ORIENTED_EDGE('',*,*,#227,.T.);
#185=ORIENTED_EDGE('',*,*,#229,.F.);
#186=ORIENTED_EDGE('',*,*,#228,.T.);
#187=ORIENTED_EDGE('',*,*,#230,.F.);
#188=ORIENTED_EDGE('',*,*,#229,.T.);
#189=ORIENTED_EDGE('',*,*,#231,.F.);
#190=ORIENTED_EDGE('',*,*,#230,.T.);
#191=ORIENTED_EDGE('',*,*,#232,.F.);
#192=ORIENTED_EDGE('',*,*,#231,.T.);
#193=ORIENTED_EDGE('',*,*,#233,.F.);
#194=ORIENTED_EDGE('',*,*,#232,.T.);
#195=ORIENTED_EDGE('',*,*,#233,.T.);
#196=ORIENTED_EDGE('',*,*,#234,.T.);
#197=ORIENTED_EDGE('',*,*,#235,.T.);
#198=ORIENTED_EDGE('',*,*,#235,.F.);
#199=ORIENTED_EDGE('',*,*,#234,.F.);
#200=VERTEX_POINT('',#362);
#201=VERTEX_POINT('',#365);
#202=VERTEX_POINT('',#368);
#203=VERTEX_POINT('',#371);
#204=VERTEX_POINT('',#374);
#205=VERTEX_POINT('',#377);
#206=VERTEX_POINT('',#380);
#207=VERTEX_POINT('',#383);
#208=VERTEX_POINT('',#386);
#209=VERTEX_POINT('',#389);
#210=VERTEX_POINT('',#392);
#211=VERTEX_POINT('',#395);
#212=VERTEX_POINT('',#398);
#213=VERTEX_POINT('',#401);
#214=VERTEX_POINT('',#404);
#215=VERTEX_POINT('',#407);
#216=VERTEX_POINT('',#477);
#217=VERTEX_POINT('',#479);
#218=EDGE_CURVE('',#200,#200,#236,.T.);
#219=EDGE_CURVE('',#201,#201,#237,.T.);
#220=EDGE_CURVE('',#202,#202,#238,.T.);
#221=EDGE_CURVE('',#203,#203,#239,.T.);
#222=EDGE_CURVE('',#204,#204,#240,.T.);
#223=EDGE_CURVE('',#205,#205,#241,.T.);
#224=EDGE_CURVE('',#206,#206,#242,.T.);
#225=EDGE_CURVE('',#207,#207,#243,.T.);
#226=EDGE_CURVE('',#208,#208,#244,.T.);
#227=EDGE_CURVE('',#209,#209,#245,.T.);
#228=EDGE_CURVE('',#210,#210,#246,.T.);
#229=EDGE_CURVE('',#211,#211,#247,.T.);
#230=EDGE_CURVE('',#212,#212,#248,.T.);
#231=EDGE_CURVE('',#213,#213,#249,.T.);
#232=EDGE_CURVE('',#214,#214,#250,.T.);
#233=EDGE_CURVE('',#215,#215,#251,.T.);
#234=EDGE_CURVE('',#216,#216,#252,.T.);
#235=EDGE_CURVE('',#217,#217,#253,.T.);
#236=CIRCLE('',#255,5.875);
#237=CIRCLE('',#257,7.875);
#238=CIRCLE('',#259,7.875);
#239=CIRCLE('',#261,8.5);
#240=CIRCLE('',#263,8.5);
#241=CIRCLE('',#265,8.30044450422656);
#242=CIRCLE('',#267,9.03529142706151);
#243=CIRCLE('',#269,9.78004267621759);
#244=CIRCLE('',#271,14.);
#245=CIRCLE('',#273,14.5);
#246=CIRCLE('',#275,14.5);
#247=CIRCLE('',#277,14.3);
#248=CIRCLE('',#279,14.3);
#249=CIRCLE('',#281,14.4206147584282);
#250=CIRCLE('',#283,14.4419333240331);
#251=CIRCLE('',#285,7.8517973968244);
#252=CIRCLE('',#287,5.);
#253=CIRCLE('',#288,5.);
#254=AXIS2_PLACEMENT_3D('',#360,#289,#290);
#255=AXIS2_PLACEMENT_3D('',#361,#291,#292);
#256=AXIS2_PLACEMENT_3D('',#363,#293,#294);
#257=AXIS2_PLACEMENT_3D('',#364,#295,#296);
#258=AXIS2_PLACEMENT_3D('',#366,#297,#298);
#259=AXIS2_PLACEMENT_3D('',#367,#299,#300);
#260=AXIS2_PLACEMENT_3D('',#369,#301,#302);
#261=AXIS2_PLACEMENT_3D('',#370,#303,#304);
#262=AXIS2_PLACEMENT_3D('',#372,#305,#306);
#263=AXIS2_PLACEMENT_3D('',#373,#307,#308);
#264=AXIS2_PLACEMENT_3D('',#375,#309,#310);
#265=AXIS2_PLACEMENT_3D('',#376,#311,#312);
#266=AXIS2_PLACEMENT_3D('',#378,#313,#314);
#267=AXIS2_PLACEMENT_3D('',#379,#315,#316);
#268=AXIS2_PLACEMENT_3D('',#381,#317,#318);
#269=AXIS2_PLACEMENT_3D('',#382,#319,#320);
#270=AXIS2_PLACEMENT_3D('',#384,#321,#322);
#271=AXIS2_PLACEMENT_3D('',#385,#323,#324);
#272=AXIS2_PLACEMENT_3D('',#387,#325,#326);
#273=AXIS2_PLACEMENT_3D('',#388,#327,#328);
#274=AXIS2_PLACEMENT_3D('',#390,#329,#330);
#275=AXIS2_PLACEMENT_3D('',#391,#331,#332);
#276=AXIS2_PLACEMENT_3D('',#393,#333,#334);
#277=AXIS2_PLACEMENT_3D('',#394,#335,#336);
#278=AXIS2_PLACEMENT_3D('',#396,#337,#338);
#279=AXIS2_PLACEMENT_3D('',#397,#339,#340);
#280=AXIS2_PLACEMENT_3D('',#399,#341,#342);
#281=AXIS2_PLACEMENT_3D('',#400,#343,#344);
#282=AXIS2_PLACEMENT_3D('',#402,#345,#346);
#283=AXIS2_PLACEMENT_3D('',#403,#347,#348);
#284=AXIS2_PLACEMENT_3D('',#405,#349,#350);
#285=AXIS2_PLACEMENT_3D('',#406,#351,#352);
#286=AXIS2_PLACEMENT_3D('',#475,#354,#355);
#287=AXIS2_PLACEMENT_3D('',#476,#356,#357);
#288=AXIS2_PLACEMENT_3D('',#478,#358,#359);
#289=DIRECTION('',(0.,0.,1.));
#290=DIRECTION('',(1.,0.,0.));
#291=DIRECTION('',(-1.,0.,0.));
#292=DIRECTION('',(0.,0.,1.));
#293=DIRECTION('',(-1.,0.,0.));
#294=DIRECTION('',(0.,0.,1.));
#295=DIRECTION('',(-1.,0.,0.));
#296=DIRECTION('',(0.,0.,1.));
#297=DIRECTION('',(-1.,0.,0.));
#298=DIRECTION('',(5.51869280290875E-17,0.,1.));
#299=DIRECTION('',(-1.,0.,0.));
#300=DIRECTION('',(0.,0.,1.));
#301=DIRECTION('',(-1.,0.,0.));
#302=DIRECTION('',(0.,0.,1.));
#303=DIRECTION('',(-1.,0.,0.));
#304=DIRECTION('',(0.,0.,1.));
#305=DIRECTION('',(-1.,0.,0.));
#306=DIRECTION('',(9.48543307231511E-17,0.,1.));
#307=DIRECTION('',(-1.,0.,0.));
#308=DIRECTION('',(0.,0.,1.));
#309=DIRECTION('',(-1.,0.,0.));
#310=DIRECTION('',(0.,0.,1.));
#311=DIRECTION('',(-1.,0.,0.));
#312=DIRECTION('',(0.,0.,1.));
#313=DIRECTION('',(1.,0.,0.));
#314=DIRECTION('',(-2.0080055486177E-16,0.,-1.));
#315=DIRECTION('',(-1.,0.,0.));
#316=DIRECTION('',(0.,0.,1.));
#317=DIRECTION('',(-1.,0.,0.));
#318=DIRECTION('',(0.,0.,1.));
#319=DIRECTION('',(-1.,0.,0.));
#320=DIRECTION('',(0.,0.,1.));
#321=DIRECTION('',(1.,0.,0.));
#322=DIRECTION('',(-1.66930253628554E-17,0.,-1.));
#323=DIRECTION('',(-1.,0.,0.));
#324=DIRECTION('',(0.,0.,1.));
#325=DIRECTION('',(-1.,0.,0.));
#326=DIRECTION('',(0.,0.,1.));
#327=DIRECTION('',(-1.,0.,0.));
#328=DIRECTION('',(0.,0.,1.));
#329=DIRECTION('',(-1.,0.,0.));
#330=DIRECTION('',(4.10585438101019E-17,0.,1.));
#331=DIRECTION('',(-1.,0.,0.));
#332=DIRECTION('',(0.,0.,1.));
#333=DIRECTION('',(-1.,0.,0.));
#334=DIRECTION('',(0.,0.,1.));
#335=DIRECTION('',(-1.,0.,0.));
#336=DIRECTION('',(0.,0.,1.));
#337=DIRECTION('',(1.,0.,0.));
#338=DIRECTION('',(1.36794359860171E-17,0.,-1.));
#339=DIRECTION('',(-1.,0.,0.));
#340=DIRECTION('',(0.,0.,1.));
#341=DIRECTION('',(-1.,0.,0.));
#342=DIRECTION('',(0.,0.,1.));
#343=DIRECTION('',(-1.,0.,0.));
#344=DIRECTION('',(0.,0.,1.));
#345=DIRECTION('',(-1.,0.,0.));
#346=DIRECTION('',(0.,0.,1.));
#347=DIRECTION('',(-1.,0.,0.));
#348=DIRECTION('',(0.,0.,1.));
#349=DIRECTION('',(-1.,0.,0.));
#350=DIRECTION('',(0.,0.,1.));
#351=DIRECTION('',(-1.,0.,0.));
#352=DIRECTION('',(0.,0.,1.));
#353=DIRECTION('',(-1.,0.,0.));
#354=DIRECTION('',(1.,0.,0.));
#355=DIRECTION('',(0.,0.,-1.));
#356=DIRECTION('',(0.,0.990171268659267,0.13986013986014));
#357=DIRECTION('',(1.,0.,0.));
#358=DIRECTION('',(0.,0.,-1.));
#359=DIRECTION('',(1.,0.,0.));
#360=CARTESIAN_POINT('',(0.,0.,0.));
#361=CARTESIAN_POINT('',(70.,0.,0.));
#362=CARTESIAN_POINT('',(70.,0.,5.875));
#363=CARTESIAN_POINT('',(70.,0.,0.));
#364=CARTESIAN_POINT('',(68.,0.,0.));
#365=CARTESIAN_POINT('',(68.,0.,7.875));
#366=CARTESIAN_POINT('',(70.,0.,0.));
#367=CARTESIAN_POINT('',(52.0825317547306,0.,0.));
#368=CARTESIAN_POINT('',(52.0825317547306,0.,7.875));
#369=CARTESIAN_POINT('',(0.,0.,0.));
#370=CARTESIAN_POINT('',(51.,0.,0.));
#371=CARTESIAN_POINT('',(51.,0.,8.5));
#372=CARTESIAN_POINT('',(52.0825317547306,0.,0.));
#373=CARTESIAN_POINT('',(46.2800426762176,0.,0.));
#374=CARTESIAN_POINT('',(46.2800426762176,0.,8.5));
#375=CARTESIAN_POINT('',(0.,0.,0.));
#376=CARTESIAN_POINT('',(45.5352914270615,0.,0.));
#377=CARTESIAN_POINT('',(45.5352914270615,0.,8.30044450422656));
#378=CARTESIAN_POINT('',(46.2800426762176,0.,0.));
#379=CARTESIAN_POINT('',(44.8004445042266,0.,0.));
#380=CARTESIAN_POINT('',(44.8004445042266,0.,9.03529142706151));
#381=CARTESIAN_POINT('',(45.38,0.,0.));
#382=CARTESIAN_POINT('',(45.,0.,0.));
#383=CARTESIAN_POINT('',(45.,0.,9.78004267621759));
#384=CARTESIAN_POINT('',(44.8004445042266,0.,0.));
#385=CARTESIAN_POINT('',(45.,0.,0.));
#386=CARTESIAN_POINT('',(45.,0.,14.));
#387=CARTESIAN_POINT('',(45.,9.78004267621759,0.));
#388=CARTESIAN_POINT('',(44.5,0.,0.));
#389=CARTESIAN_POINT('',(44.5,0.,14.5));
#390=CARTESIAN_POINT('',(45.,0.,0.));
#391=CARTESIAN_POINT('',(40.2,0.,0.));
#392=CARTESIAN_POINT('',(40.2,0.,14.5));
#393=CARTESIAN_POINT('',(0.,0.,0.));
#394=CARTESIAN_POINT('',(40.,0.,0.));
#395=CARTESIAN_POINT('',(40.,0.,14.3));
#396=CARTESIAN_POINT('',(40.2,0.,0.));
#397=CARTESIAN_POINT('',(7.4555098993305,0.,0.));
#398=CARTESIAN_POINT('',(7.4555098993305,0.,14.3));
#399=CARTESIAN_POINT('',(0.,0.,0.));
#400=CARTESIAN_POINT('',(6.77146961267916,0.,0.));
#401=CARTESIAN_POINT('',(6.77146961267916,0.,14.4206147584282));
#402=CARTESIAN_POINT('',(7.45550989933051,0.,0.));
#403=CARTESIAN_POINT('',(6.71289733506457,0.,0.));
#404=CARTESIAN_POINT('',(6.71289733506457,0.,14.4419333240331));
#405=CARTESIAN_POINT('',(6.77146961267916,0.,0.));
#406=CARTESIAN_POINT('',(2.99999999998684,0.,0.));
#407=CARTESIAN_POINT('',(2.99999999998684,0.,7.8517973968244));
#408=CARTESIAN_POINT('',(4.74890140429823,7.30857741990277,0.));
#409=CARTESIAN_POINT('',(5.25109859570177,7.30857741990277,0.));
#410=CARTESIAN_POINT('',(5.49980586798748,7.33208915014204,0.));
#411=CARTESIAN_POINT('',(5.99224529653992,7.42617321127116,0.));
#412=CARTESIAN_POINT('',(6.23208743536672,7.49622498081852,0.));
#413=CARTESIAN_POINT('',(6.69260892478546,7.67959849657165,0.));
#414=CARTESIAN_POINT('',(6.91626347276945,7.79438225995997,0.));
#415=CARTESIAN_POINT('',(7.33612029381996,8.06518575899111,0.));
#416=CARTESIAN_POINT('',(7.53029127793966,8.21932623382819,0.));
#417=CARTESIAN_POINT('',(7.8870764066886,8.56513456468806,0.));
#418=CARTESIAN_POINT('',(8.05047676588125,8.75871556858367,0.));
#419=CARTESIAN_POINT('',(8.33082435489403,9.16841472508821,0.));
#420=CARTESIAN_POINT('',(8.44974431764304,9.38592758865851,0.));
#421=CARTESIAN_POINT('',(8.64388556248017,9.84698950859235,0.));
#422=CARTESIAN_POINT('',(8.71710518042857,10.0868931258618,0.));
#423=CARTESIAN_POINT('',(8.81359054916721,10.5727016766146,0.));
#424=CARTESIAN_POINT('',(8.83761409842919,10.822641061509,0.));
#425=CARTESIAN_POINT('',(8.83474715725708,11.3225877193853,0.));
#426=CARTESIAN_POINT('',(8.80835467618764,11.5689485434878,0.));
#427=CARTESIAN_POINT('',(8.7071440465374,12.054661181533,0.));
#428=CARTESIAN_POINT('',(8.63100662093817,12.2962458084644,0.));
#429=CARTESIAN_POINT('',(8.435424663883,12.7529145754737,0.));
#430=CARTESIAN_POINT('',(8.31607580250334,12.9698748724216,0.));
#431=CARTESIAN_POINT('',(8.03413876881531,13.3809821098978,0.));
#432=CARTESIAN_POINT('',(7.8715932885348,13.5739123755622,0.));
#433=CARTESIAN_POINT('',(7.51716919508458,13.9200052552845,0.));
#434=CARTESIAN_POINT('',(7.32380481969009,14.0755268308757,0.));
#435=CARTESIAN_POINT('',(6.90362202924832,14.3502732030489,0.));
#436=CARTESIAN_POINT('',(6.68316262846915,14.4652613706145,0.));
#437=CARTESIAN_POINT('',(6.22419670811712,14.651465558469,0.));
#438=CARTESIAN_POINT('',(5.98291210950674,14.7232754706432,0.));
#439=CARTESIAN_POINT('',(5.49299403437975,14.8184534807085,0.));
#440=CARTESIAN_POINT('',(5.24639761721875,14.8419897385304,0.));
#441=CARTESIAN_POINT('',(4.74998454966723,14.8417577342286,0.));
#442=CARTESIAN_POINT('',(4.49800576706649,14.817211932179,0.));
#443=CARTESIAN_POINT('',(4.01063006885942,14.7214976036973,0.));
#444=CARTESIAN_POINT('',(3.77323459898518,14.6507288543457,0.));
#445=CARTESIAN_POINT('',(3.31121977853807,14.4626714091973,0.));
#446=CARTESIAN_POINT('',(3.08817524661103,14.3453873637824,0.));
#447=CARTESIAN_POINT('',(2.67388437759966,14.0735258821917,0.));
#448=CARTESIAN_POINT('',(2.47985963260629,13.9177367531063,0.));
#449=CARTESIAN_POINT('',(2.12137275810978,13.5663930406222,0.));
#450=CARTESIAN_POINT('',(1.96207998445237,13.3760253991295,0.));
#451=CARTESIAN_POINT('',(1.68219390079182,12.9667838459349,0.));
#452=CARTESIAN_POINT('',(1.56063837561346,12.7452415179931,0.));
#453=CARTESIAN_POINT('',(1.36568129053466,12.28693549801,0.));
#454=CARTESIAN_POINT('',(1.29163454613543,12.0504860390941,0.));
#455=CARTESIAN_POINT('',(1.19074159150484,11.5628893040185,0.));
#456=CARTESIAN_POINT('',(1.1645915285883,11.3114049713247,0.));
#457=CARTESIAN_POINT('',(1.16296503338383,10.8155913959578,0.));
#458=CARTESIAN_POINT('',(1.18671929765763,10.5684842091453,0.));
#459=CARTESIAN_POINT('',(1.28561401682364,10.0759423061791,0.));
#460=CARTESIAN_POINT('',(1.35917164768548,9.83861713492113,0.));
#461=CARTESIAN_POINT('',(1.55226337080021,9.38230105736797,0.));
#462=CARTESIAN_POINT('',(1.67364358119347,9.16075342986287,0.));
#463=CARTESIAN_POINT('',(1.95603412334685,8.75037740556416,0.));
#464=CARTESIAN_POINT('',(2.11610419606333,8.56162501202957,0.));
#465=CARTESIAN_POINT('',(2.47324193356782,8.21633663308779,0.));
#466=CARTESIAN_POINT('',(2.67198087028027,8.05934404064583,0.));
#467=CARTESIAN_POINT('',(3.08927937251734,7.79144423581851,0.));
#468=CARTESIAN_POINT('',(3.30957078669298,7.67844797154851,0.));
#469=CARTESIAN_POINT('',(3.77341494002308,7.49432132170812,0.));
#470=CARTESIAN_POINT('',(4.01515927788011,7.42447015484556,0.));
#471=CARTESIAN_POINT('',(4.50176856233444,7.33208207481909,0.));
#472=CARTESIAN_POINT('',(4.74890140429823,7.30857741990277,0.));
#473=CARTESIAN_POINT('',(5.25109859570177,7.30857741990277,0.));
#474=CARTESIAN_POINT('',(0.,0.,0.));
#475=CARTESIAN_POINT('',(2.99999999999342,7.85179739681661,0.));
#476=CARTESIAN_POINT('',(5.,0.459460033822029,11.0471495091973));
#477=CARTESIAN_POINT('',(10.,0.459460033822029,11.0471495091973));
#478=CARTESIAN_POINT('',(5.,-10.8743099,2.));
#479=CARTESIAN_POINT('',(10.,-10.8743099,2.));
#480=CARTESIAN_POINT('',(10.,-10.8743099,2.));
#481=CARTESIAN_POINT('',(10.,-13.0782709282366,-9.98327761428386));
#482=CARTESIAN_POINT('',(10.,-2.62462561542522,-16.2424857326419));
#483=CARTESIAN_POINT('',(10.,6.89782596143155,-8.64121593336487));
#484=CARTESIAN_POINT('',(10.,16.4202775382883,-1.03994613408789));
#485=CARTESIAN_POINT('',(10.,12.6332035295091,10.5408335049093));
#486=CARTESIAN_POINT('',(10.,0.45946003382203,11.0471495091973));
#487=CARTESIAN_POINT('',(10.,-0.874309899999999,2.));
#488=CARTESIAN_POINT('',(10.,-3.07827092823663,1.03652752689927));
#489=CARTESIAN_POINT('',(10.,-2.94723987187068,-1.36525395414273));
#490=CARTESIAN_POINT('',(10.,-0.651545336432068,-2.08324421895553));
#491=CARTESIAN_POINT('',(10.,1.64414919900655,-2.80123448376833));
#492=CARTESIAN_POINT('',(10.,3.12031049108733,-0.902110669960743));
#493=CARTESIAN_POINT('',(10.,1.85806143242343,1.14543682260463));
#494=CARTESIAN_POINT('',(-5.10076676829453E-16,-0.874309899999999,2.));
#495=CARTESIAN_POINT('',(-5.10076676829454E-16,-3.07827092823663,1.03652752689927));
#496=CARTESIAN_POINT('',(-5.10076676829454E-16,-2.94723987187068,-1.36525395414273));
#497=CARTESIAN_POINT('',(-5.10076676829453E-16,-0.651545336432068,-2.08324421895553));
#498=CARTESIAN_POINT('',(-5.10076676829454E-16,1.64414919900655,-2.80123448376833));
#499=CARTESIAN_POINT('',(-5.10076676829454E-16,3.12031049108733,-0.902110669960743));
#500=CARTESIAN_POINT('',(-5.10076676829453E-16,1.85806143242343,1.14543682260463));
#501=CARTESIAN_POINT('',(-1.7347234759768E-15,-10.8743099,2.));
#502=CARTESIAN_POINT('',(-1.73472347597681E-15,-13.0782709282366,-9.98327761428386));
#503=CARTESIAN_POINT('',(-1.73472347597681E-15,-2.62462561542522,-16.2424857326419));
#504=CARTESIAN_POINT('',(-1.7347234759768E-15,6.89782596143155,-8.64121593336487));
#505=CARTESIAN_POINT('',(-1.73472347597681E-15,16.4202775382883,-1.03994613408789));
#506=CARTESIAN_POINT('',(-1.73472347597681E-15,12.6332035295091,10.5408335049093));
#507=CARTESIAN_POINT('',(-1.7347234759768E-15,0.45946003382203,11.0471495091973));
#508=CARTESIAN_POINT('',(-2.95937027512416E-15,-20.8743099,2.));
#509=CARTESIAN_POINT('',(-2.95937027512416E-15,-23.0782709282366,-21.003082755467));
#510=CARTESIAN_POINT('',(-2.95937027512416E-15,-2.30201135897977,-31.119717511141));
#511=CARTESIAN_POINT('',(-2.95937027512416E-15,14.4471972592952,-15.1991876477742));
#512=CARTESIAN_POINT('',(-2.95937027512416E-15,31.1964058775701,0.721342215592554));
#513=CARTESIAN_POINT('',(-2.95937027512416E-15,22.146096567931,21.9837776797793));
#514=CARTESIAN_POINT('',(-2.95937027512416E-15,-0.93914136477937,20.94886219579));
#515=CARTESIAN_POINT('',(10.,-20.8743099,2.));
#516=CARTESIAN_POINT('',(10.,-23.0782709282366,-21.003082755467));
#517=CARTESIAN_POINT('',(10.,-2.30201135897977,-31.119717511141));
#518=CARTESIAN_POINT('',(10.,14.4471972592952,-15.1991876477742));
#519=CARTESIAN_POINT('',(10.,31.1964058775701,0.721342215592554));
#520=CARTESIAN_POINT('',(10.,22.146096567931,21.9837776797793));
#521=CARTESIAN_POINT('',(10.,-0.93914136477937,20.94886219579));
#522=CARTESIAN_POINT('',(10.,-10.8743099,2.));
#523=CARTESIAN_POINT('',(10.,-13.0782709282366,-9.98327761428386));
#524=CARTESIAN_POINT('',(10.,-2.62462561542522,-16.2424857326419));
#525=CARTESIAN_POINT('',(10.,6.89782596143155,-8.64121593336487));
#526=CARTESIAN_POINT('',(10.,16.4202775382883,-1.03994613408789));
#527=CARTESIAN_POINT('',(10.,12.6332035295091,10.5408335049093));
#528=CARTESIAN_POINT('',(10.,0.45946003382203,11.0471495091973));
#529=CARTESIAN_POINT('',(10.,0.459460033822029,11.0471495091973));
#530=CARTESIAN_POINT('',(10.,-5.31349004364522,11.2872512508853));
#531=CARTESIAN_POINT('',(10.,-9.82916244858533,7.6826286389392));
#532=CARTESIAN_POINT('',(10.,-10.8743099,2.));
#533=CARTESIAN_POINT('',(10.,1.85806143242343,1.14543682260463));
#534=CARTESIAN_POINT('',(10.,1.25948624447255,2.11641090793926));
#535=CARTESIAN_POINT('',(10.,0.17083755141468,2.45689138186581));
#536=CARTESIAN_POINT('',(10.,-0.874309899999999,2.));
#537=CARTESIAN_POINT('',(-5.10076676829453E-16,1.85806143242343,1.14543682260463));
#538=CARTESIAN_POINT('',(-5.10076676829454E-16,1.25948624447255,2.11641090793926));
#539=CARTESIAN_POINT('',(-5.10076676829454E-16,0.17083755141468,2.45689138186581));
#540=CARTESIAN_POINT('',(-5.10076676829453E-16,-0.874309899999999,2.));
#541=CARTESIAN_POINT('',(-1.7347234759768E-15,0.459460033822029,11.0471495091973));
#542=CARTESIAN_POINT('',(-1.73472347597681E-15,-5.31349004364522,11.2872512508853));
#543=CARTESIAN_POINT('',(-1.73472347597681E-15,-9.82916244858533,7.6826286389392));
#544=CARTESIAN_POINT('',(-1.7347234759768E-15,-10.8743099,2.));
#545=CARTESIAN_POINT('',(-2.95937027512416E-15,-0.939141364779371,20.94886219579));
#546=CARTESIAN_POINT('',(-2.95937027512416E-15,-11.886466331763,20.4580915938313));
#547=CARTESIAN_POINT('',(-2.95937027512416E-15,-19.8291624485853,12.9083658960126));
#548=CARTESIAN_POINT('',(-2.95937027512416E-15,-20.8743099,2.));
#549=CARTESIAN_POINT('',(10.,-0.939141364779371,20.94886219579));
#550=CARTESIAN_POINT('',(10.,-11.886466331763,20.4580915938313));
#551=CARTESIAN_POINT('',(10.,-19.8291624485853,12.9083658960126));
#552=CARTESIAN_POINT('',(10.,-20.8743099,2.));
#553=CARTESIAN_POINT('',(10.,0.459460033822029,11.0471495091973));
#554=CARTESIAN_POINT('',(10.,-5.31349004364522,11.2872512508853));
#555=CARTESIAN_POINT('',(10.,-9.82916244858533,7.6826286389392));
#556=CARTESIAN_POINT('',(10.,-10.8743099,2.));
#557=MECHANICAL_DESIGN_GEOMETRIC_PRESENTATION_REPRESENTATION('',(#35,#36),
#558);
#558=(
GEOMETRIC_REPRESENTATION_CONTEXT(3)
GLOBAL_UNCERTAINTY_ASSIGNED_CONTEXT((#559))
GLOBAL_UNIT_ASSIGNED_CONTEXT((#565,#561,#560))
REPRESENTATION_CONTEXT('AEMR-RD10T3-D32-M16-L45-Z04-H',
'TOP_LEVEL_ASSEMBLY_PART')
);
#559=UNCERTAINTY_MEASURE_WITH_UNIT(LENGTH_MEASURE(2.E-5),#565,
'DISTANCE_ACCURACY_VALUE','Maximum Tolerance applied to model');
#560=(
NAMED_UNIT(*)
SI_UNIT($,.STERADIAN.)
SOLID_ANGLE_UNIT()
);
#561=(
CONVERSION_BASED_UNIT('DEGREE',#563)
NAMED_UNIT(#562)
PLANE_ANGLE_UNIT()
);
#562=DIMENSIONAL_EXPONENTS(0.,0.,0.,0.,0.,0.,0.);
#563=PLANE_ANGLE_MEASURE_WITH_UNIT(PLANE_ANGLE_MEASURE(0.0174532925),#564);
#564=(
NAMED_UNIT(*)
PLANE_ANGLE_UNIT()
SI_UNIT($,.RADIAN.)
);
#565=(
LENGTH_UNIT()
NAMED_UNIT(*)
SI_UNIT(.MILLI.,.METRE.)
);
ENDSEC;
END-ISO-10303-21;
