ISO-10303-21;
HEADER;
/* Generated by software containing ST-Developer
 * from STEP Tools, Inc. (www.steptools.com) 
 */
/* OPTION: using custom schema-name function */

FILE_DESCRIPTION(
/* description */ (''),
/* implementation_level */ '2;1');

FILE_NAME(
/* name */ 'AEMR-RD10T3-D42-M16-L43-Z05-H.stp',
/* time_stamp */ '2023-10-21T10:57:20+03:00',
/* author */ (''),
/* organization */ (''),
/* preprocessor_version */ 'ST-DEVELOPER v19.4',
/* originating_system */ 'SIEMENS PLM Software NX2306.5001',
/* authorisation */ '');

FILE_SCHEMA (('AUTOMOTIVE_DESIGN { 1 0 10303 214 3 1 1 1 }'));
ENDSEC;

DATA;
#10=PROPERTY_DEFINITION_REPRESENTATION(#14,#12);
#11=PROPERTY_DEFINITION_REPRESENTATION(#15,#13);
#12=REPRESENTATION('',(#16),#492);
#13=REPRESENTATION('',(#17),#492);
#14=PROPERTY_DEFINITION('pmi validation property','',#21);
#15=PROPERTY_DEFINITION('pmi validation property','',#21);
#16=VALUE_REPRESENTATION_ITEM('number of annotations',COUNT_MEASURE(0.));
#17=VALUE_REPRESENTATION_ITEM('number of views',COUNT_MEASURE(0.));
#18=SHAPE_REPRESENTATION_RELATIONSHIP('None',
'relationship between AEMR-RD10T3-D42-M16-L43-Z05-H-LIGHT_x_t_objects-
None and AEMR-RD10T3-D42-M16-L43-Z05-H-LIGHT_x_t_objects-None',#30,#19);
#19=ADVANCED_BREP_SHAPE_REPRESENTATION(
'AEMR-RD10T3-D42-M16-L43-Z05-H-LIGHT_x_t_objects-None',(#67,#68),#492);
#20=SHAPE_DEFINITION_REPRESENTATION(#21,#30);
#21=PRODUCT_DEFINITION_SHAPE('','',#22);
#22=PRODUCT_DEFINITION(' ','',#24,#23);
#23=PRODUCT_DEFINITION_CONTEXT('part definition',#29,'design');
#24=PRODUCT_DEFINITION_FORMATION_WITH_SPECIFIED_SOURCE(' ',' ',#26,
 .NOT_KNOWN.);
#25=PRODUCT_RELATED_PRODUCT_CATEGORY('part','',(#26));
#26=PRODUCT('AEMR-RD10T3-D42-M16-L43-Z05-H-LIGHT_x_t_objects',
'AEMR-RD10T3-D42-M16-L43-Z05-H-LIGHT_x_t_objects',' ',(#27));
#27=PRODUCT_CONTEXT(' ',#29,'mechanical');
#28=APPLICATION_PROTOCOL_DEFINITION('international standard',
'automotive_design',2010,#29);
#29=APPLICATION_CONTEXT(
'core data for automotive mechanical design processes');
#30=SHAPE_REPRESENTATION(
'AEMR-RD10T3-D42-M16-L43-Z05-H-LIGHT_x_t_objects-None',(#252),#492);
#31=COLOUR_RGB('silver gray',0.6,0.6,0.6);
#32=TOROIDAL_SURFACE('',#268,8.88,0.6);
#33=TOROIDAL_SURFACE('',#282,24.3,10.);
#34=TOROIDAL_SURFACE('',#286,16.043854314569,3.80875327415258);
#35=CYLINDRICAL_SURFACE('',#260,7.875);
#36=CYLINDRICAL_SURFACE('',#264,8.5);
#37=CYLINDRICAL_SURFACE('',#276,14.5);
#38=CYLINDRICAL_SURFACE('',#280,14.3);
#39=CONICAL_SURFACE('',#258,5.875,44.9999999999997);
#40=CONICAL_SURFACE('',#262,7.875,30.);
#41=CONICAL_SURFACE('',#266,8.5,15.0000000000001);
#42=CONICAL_SURFACE('',#270,9.03529142706151,75.);
#43=CONICAL_SURFACE('',#274,14.,45.);
#44=CONICAL_SURFACE('',#278,14.5,45.0000000000002);
#45=CONICAL_SURFACE('',#284,14.9030737921409,20.);
#46=PLANE('',#256);
#47=PLANE('',#272);
#48=PLANE('',#287);
#49=FACE_OUTER_BOUND('',#130,.T.);
#50=FACE_OUTER_BOUND('',#161,.T.);
#51=PRESENTATION_LAYER_ASSIGNMENT('1','Layer 1',(#67,#68));
#52=STYLED_ITEM('',(#54),#67);
#53=STYLED_ITEM('',(#55),#68);
#54=PRESENTATION_STYLE_ASSIGNMENT((#56));
#55=PRESENTATION_STYLE_ASSIGNMENT((#57));
#56=SURFACE_STYLE_USAGE(.BOTH.,#58);
#57=SURFACE_STYLE_USAGE(.BOTH.,#59);
#58=SURFACE_SIDE_STYLE('',(#60));
#59=SURFACE_SIDE_STYLE('',(#61));
#60=SURFACE_STYLE_FILL_AREA(#62);
#61=SURFACE_STYLE_FILL_AREA(#63);
#62=FILL_AREA_STYLE('',(#64));
#63=FILL_AREA_STYLE('',(#65));
#64=FILL_AREA_STYLE_COLOUR('',#66);
#65=FILL_AREA_STYLE_COLOUR('',#31);
#66=DRAUGHTING_PRE_DEFINED_COLOUR('yellow');
#67=MANIFOLD_SOLID_BREP('',#69);
#68=MANIFOLD_SOLID_BREP('',#70);
#69=CLOSED_SHELL('',(#71,#72));
#70=CLOSED_SHELL('',(#73,#74,#75,#76,#77,#78,#79,#80,#81,#82,#83,#84,#85,
#86,#87,#88,#89));
#71=ADVANCED_FACE('',(#92,#93),#90,.F.);
#72=ADVANCED_FACE('',(#94,#95),#91,.F.);
#73=ADVANCED_FACE('',(#49),#46,.F.);
#74=ADVANCED_FACE('',(#96,#97),#39,.T.);
#75=ADVANCED_FACE('',(#98,#99),#35,.T.);
#76=ADVANCED_FACE('',(#100,#101),#40,.T.);
#77=ADVANCED_FACE('',(#102,#103),#36,.T.);
#78=ADVANCED_FACE('',(#104,#105),#41,.T.);
#79=ADVANCED_FACE('',(#106,#107),#32,.F.);
#80=ADVANCED_FACE('',(#108,#109),#42,.F.);
#81=ADVANCED_FACE('',(#110,#111),#47,.F.);
#82=ADVANCED_FACE('',(#112,#113),#43,.T.);
#83=ADVANCED_FACE('',(#114,#115),#37,.T.);
#84=ADVANCED_FACE('',(#116,#117),#44,.T.);
#85=ADVANCED_FACE('',(#118,#119),#38,.T.);
#86=ADVANCED_FACE('',(#120,#121),#33,.F.);
#87=ADVANCED_FACE('',(#122,#123),#45,.T.);
#88=ADVANCED_FACE('',(#124,#125),#34,.T.);
#89=ADVANCED_FACE('',(#50),#48,.F.);
#90=(
BOUNDED_SURFACE()
B_SPLINE_SURFACE(3,3,((#365,#366,#367,#368,#369,#370,#371),(#372,#373,#374,
#375,#376,#377,#378),(#379,#380,#381,#382,#383,#384,#385),(#386,#387,#388,
#389,#390,#391,#392),(#393,#394,#395,#396,#397,#398,#399),(#400,#401,#402,
#403,#404,#405,#406),(#407,#408,#409,#410,#411,#412,#413)),
 .UNSPECIFIED.,.T.,.F.,.F.)
B_SPLINE_SURFACE_WITH_KNOTS((1,3,3,3,1),(4,3,4),(-0.5,0.,0.5,1.,1.5),(0.,
0.5,1.),.UNSPECIFIED.)
GEOMETRIC_REPRESENTATION_ITEM()
RATIONAL_B_SPLINE_SURFACE(((1.,0.56669660294325,0.56669660294325,1.,0.56669660294325,
0.56669660294325,1.),(0.333333333333334,0.18889886764775,0.18889886764775,
0.333333333333334,0.18889886764775,0.18889886764775,0.333333333333334),
(0.333333333333334,0.18889886764775,0.18889886764775,0.333333333333334,
0.18889886764775,0.18889886764775,0.333333333333334),(1.,0.56669660294325,
0.56669660294325,1.,0.56669660294325,0.56669660294325,1.),(0.333333333333334,
0.18889886764775,0.18889886764775,0.333333333333334,0.18889886764775,0.18889886764775,
0.333333333333334),(0.333333333333334,0.18889886764775,0.18889886764775,
0.333333333333334,0.18889886764775,0.18889886764775,0.333333333333334),
(1.,0.56669660294325,0.56669660294325,1.,0.56669660294325,0.56669660294325,
1.)))
REPRESENTATION_ITEM('')
SURFACE()
);
#91=(
BOUNDED_SURFACE()
B_SPLINE_SURFACE(3,3,((#414,#415,#416,#417),(#418,#419,#420,#421),(#422,
#423,#424,#425),(#426,#427,#428,#429),(#430,#431,#432,#433),(#434,#435,
#436,#437),(#438,#439,#440,#441)),.UNSPECIFIED.,.T.,.F.,.F.)
B_SPLINE_SURFACE_WITH_KNOTS((1,3,3,3,1),(4,4),(-0.5,0.,0.5,1.,1.5),(0.,
1.),.UNSPECIFIED.)
GEOMETRIC_REPRESENTATION_ITEM()
RATIONAL_B_SPLINE_SURFACE(((1.,0.836624753190908,0.836624753190908,1.),
(0.333333333333334,0.278874917730302,0.278874917730302,0.333333333333334),
(0.333333333333334,0.278874917730302,0.278874917730302,0.333333333333334),
(1.,0.836624753190908,0.836624753190908,1.),(0.333333333333334,0.278874917730302,
0.278874917730302,0.333333333333334),(0.333333333333334,0.278874917730302,
0.278874917730302,0.333333333333334),(1.,0.836624753190908,0.836624753190908,
1.)))
REPRESENTATION_ITEM('')
SURFACE()
);
#92=FACE_BOUND('',#126,.T.);
#93=FACE_BOUND('',#127,.T.);
#94=FACE_BOUND('',#128,.T.);
#95=FACE_BOUND('',#129,.T.);
#96=FACE_BOUND('',#131,.T.);
#97=FACE_BOUND('',#132,.T.);
#98=FACE_BOUND('',#133,.T.);
#99=FACE_BOUND('',#134,.T.);
#100=FACE_BOUND('',#135,.T.);
#101=FACE_BOUND('',#136,.T.);
#102=FACE_BOUND('',#137,.T.);
#103=FACE_BOUND('',#138,.T.);
#104=FACE_BOUND('',#139,.T.);
#105=FACE_BOUND('',#140,.T.);
#106=FACE_BOUND('',#141,.T.);
#107=FACE_BOUND('',#142,.T.);
#108=FACE_BOUND('',#143,.T.);
#109=FACE_BOUND('',#144,.T.);
#110=FACE_BOUND('',#145,.T.);
#111=FACE_BOUND('',#146,.T.);
#112=FACE_BOUND('',#147,.T.);
#113=FACE_BOUND('',#148,.T.);
#114=FACE_BOUND('',#149,.T.);
#115=FACE_BOUND('',#150,.T.);
#116=FACE_BOUND('',#151,.T.);
#117=FACE_BOUND('',#152,.T.);
#118=FACE_BOUND('',#153,.T.);
#119=FACE_BOUND('',#154,.T.);
#120=FACE_BOUND('',#155,.T.);
#121=FACE_BOUND('',#156,.T.);
#122=FACE_BOUND('',#157,.T.);
#123=FACE_BOUND('',#158,.T.);
#124=FACE_BOUND('',#159,.T.);
#125=FACE_BOUND('',#160,.T.);
#126=EDGE_LOOP('',(#162));
#127=EDGE_LOOP('',(#163));
#128=EDGE_LOOP('',(#164));
#129=EDGE_LOOP('',(#165));
#130=EDGE_LOOP('',(#166));
#131=EDGE_LOOP('',(#167));
#132=EDGE_LOOP('',(#168));
#133=EDGE_LOOP('',(#169));
#134=EDGE_LOOP('',(#170));
#135=EDGE_LOOP('',(#171));
#136=EDGE_LOOP('',(#172));
#137=EDGE_LOOP('',(#173));
#138=EDGE_LOOP('',(#174));
#139=EDGE_LOOP('',(#175));
#140=EDGE_LOOP('',(#176));
#141=EDGE_LOOP('',(#177));
#142=EDGE_LOOP('',(#178));
#143=EDGE_LOOP('',(#179));
#144=EDGE_LOOP('',(#180));
#145=EDGE_LOOP('',(#181));
#146=EDGE_LOOP('',(#182));
#147=EDGE_LOOP('',(#183));
#148=EDGE_LOOP('',(#184));
#149=EDGE_LOOP('',(#185));
#150=EDGE_LOOP('',(#186));
#151=EDGE_LOOP('',(#187));
#152=EDGE_LOOP('',(#188));
#153=EDGE_LOOP('',(#189));
#154=EDGE_LOOP('',(#190));
#155=EDGE_LOOP('',(#191));
#156=EDGE_LOOP('',(#192));
#157=EDGE_LOOP('',(#193));
#158=EDGE_LOOP('',(#194));
#159=EDGE_LOOP('',(#195));
#160=EDGE_LOOP('',(#196));
#161=EDGE_LOOP('',(#197));
#162=ORIENTED_EDGE('',*,*,#216,.T.);
#163=ORIENTED_EDGE('',*,*,#217,.T.);
#164=ORIENTED_EDGE('',*,*,#217,.F.);
#165=ORIENTED_EDGE('',*,*,#216,.F.);
#166=ORIENTED_EDGE('',*,*,#218,.F.);
#167=ORIENTED_EDGE('',*,*,#219,.F.);
#168=ORIENTED_EDGE('',*,*,#218,.T.);
#169=ORIENTED_EDGE('',*,*,#220,.F.);
#170=ORIENTED_EDGE('',*,*,#219,.T.);
#171=ORIENTED_EDGE('',*,*,#221,.F.);
#172=ORIENTED_EDGE('',*,*,#220,.T.);
#173=ORIENTED_EDGE('',*,*,#222,.F.);
#174=ORIENTED_EDGE('',*,*,#221,.T.);
#175=ORIENTED_EDGE('',*,*,#223,.F.);
#176=ORIENTED_EDGE('',*,*,#222,.T.);
#177=ORIENTED_EDGE('',*,*,#224,.F.);
#178=ORIENTED_EDGE('',*,*,#223,.T.);
#179=ORIENTED_EDGE('',*,*,#225,.F.);
#180=ORIENTED_EDGE('',*,*,#224,.T.);
#181=ORIENTED_EDGE('',*,*,#226,.F.);
#182=ORIENTED_EDGE('',*,*,#225,.T.);
#183=ORIENTED_EDGE('',*,*,#227,.F.);
#184=ORIENTED_EDGE('',*,*,#226,.T.);
#185=ORIENTED_EDGE('',*,*,#228,.F.);
#186=ORIENTED_EDGE('',*,*,#227,.T.);
#187=ORIENTED_EDGE('',*,*,#229,.F.);
#188=ORIENTED_EDGE('',*,*,#228,.T.);
#189=ORIENTED_EDGE('',*,*,#230,.F.);
#190=ORIENTED_EDGE('',*,*,#229,.T.);
#191=ORIENTED_EDGE('',*,*,#231,.F.);
#192=ORIENTED_EDGE('',*,*,#230,.T.);
#193=ORIENTED_EDGE('',*,*,#232,.F.);
#194=ORIENTED_EDGE('',*,*,#231,.T.);
#195=ORIENTED_EDGE('',*,*,#233,.F.);
#196=ORIENTED_EDGE('',*,*,#232,.T.);
#197=ORIENTED_EDGE('',*,*,#233,.T.);
#198=VERTEX_POINT('',#362);
#199=VERTEX_POINT('',#364);
#200=VERTEX_POINT('',#443);
#201=VERTEX_POINT('',#446);
#202=VERTEX_POINT('',#449);
#203=VERTEX_POINT('',#452);
#204=VERTEX_POINT('',#455);
#205=VERTEX_POINT('',#458);
#206=VERTEX_POINT('',#461);
#207=VERTEX_POINT('',#464);
#208=VERTEX_POINT('',#467);
#209=VERTEX_POINT('',#470);
#210=VERTEX_POINT('',#473);
#211=VERTEX_POINT('',#476);
#212=VERTEX_POINT('',#479);
#213=VERTEX_POINT('',#482);
#214=VERTEX_POINT('',#485);
#215=VERTEX_POINT('',#488);
#216=EDGE_CURVE('',#198,#198,#234,.T.);
#217=EDGE_CURVE('',#199,#199,#235,.T.);
#218=EDGE_CURVE('',#200,#200,#236,.T.);
#219=EDGE_CURVE('',#201,#201,#237,.T.);
#220=EDGE_CURVE('',#202,#202,#238,.T.);
#221=EDGE_CURVE('',#203,#203,#239,.T.);
#222=EDGE_CURVE('',#204,#204,#240,.T.);
#223=EDGE_CURVE('',#205,#205,#241,.T.);
#224=EDGE_CURVE('',#206,#206,#242,.T.);
#225=EDGE_CURVE('',#207,#207,#243,.T.);
#226=EDGE_CURVE('',#208,#208,#244,.T.);
#227=EDGE_CURVE('',#209,#209,#245,.T.);
#228=EDGE_CURVE('',#210,#210,#246,.T.);
#229=EDGE_CURVE('',#211,#211,#247,.T.);
#230=EDGE_CURVE('',#212,#212,#248,.T.);
#231=EDGE_CURVE('',#213,#213,#249,.T.);
#232=EDGE_CURVE('',#214,#214,#250,.T.);
#233=EDGE_CURVE('',#215,#215,#251,.T.);
#234=CIRCLE('',#253,5.);
#235=CIRCLE('',#254,5.);
#236=CIRCLE('',#255,5.875);
#237=CIRCLE('',#257,7.875);
#238=CIRCLE('',#259,7.875);
#239=CIRCLE('',#261,8.5);
#240=CIRCLE('',#263,8.5);
#241=CIRCLE('',#265,8.30044450422656);
#242=CIRCLE('',#267,9.03529142706151);
#243=CIRCLE('',#269,9.78004267621759);
#244=CIRCLE('',#271,14.);
#245=CIRCLE('',#273,14.5);
#246=CIRCLE('',#275,14.5);
#247=CIRCLE('',#277,14.3);
#248=CIRCLE('',#279,14.3);
#249=CIRCLE('',#281,14.9030737921409);
#250=CIRCLE('',#283,19.6229116606844);
#251=CIRCLE('',#285,12.7834710429875);
#252=AXIS2_PLACEMENT_3D('',#360,#288,#289);
#253=AXIS2_PLACEMENT_3D('',#361,#290,#291);
#254=AXIS2_PLACEMENT_3D('',#363,#292,#293);
#255=AXIS2_PLACEMENT_3D('',#442,#294,#295);
#256=AXIS2_PLACEMENT_3D('',#444,#296,#297);
#257=AXIS2_PLACEMENT_3D('',#445,#298,#299);
#258=AXIS2_PLACEMENT_3D('',#447,#300,#301);
#259=AXIS2_PLACEMENT_3D('',#448,#302,#303);
#260=AXIS2_PLACEMENT_3D('',#450,#304,#305);
#261=AXIS2_PLACEMENT_3D('',#451,#306,#307);
#262=AXIS2_PLACEMENT_3D('',#453,#308,#309);
#263=AXIS2_PLACEMENT_3D('',#454,#310,#311);
#264=AXIS2_PLACEMENT_3D('',#456,#312,#313);
#265=AXIS2_PLACEMENT_3D('',#457,#314,#315);
#266=AXIS2_PLACEMENT_3D('',#459,#316,#317);
#267=AXIS2_PLACEMENT_3D('',#460,#318,#319);
#268=AXIS2_PLACEMENT_3D('',#462,#320,#321);
#269=AXIS2_PLACEMENT_3D('',#463,#322,#323);
#270=AXIS2_PLACEMENT_3D('',#465,#324,#325);
#271=AXIS2_PLACEMENT_3D('',#466,#326,#327);
#272=AXIS2_PLACEMENT_3D('',#468,#328,#329);
#273=AXIS2_PLACEMENT_3D('',#469,#330,#331);
#274=AXIS2_PLACEMENT_3D('',#471,#332,#333);
#275=AXIS2_PLACEMENT_3D('',#472,#334,#335);
#276=AXIS2_PLACEMENT_3D('',#474,#336,#337);
#277=AXIS2_PLACEMENT_3D('',#475,#338,#339);
#278=AXIS2_PLACEMENT_3D('',#477,#340,#341);
#279=AXIS2_PLACEMENT_3D('',#478,#342,#343);
#280=AXIS2_PLACEMENT_3D('',#480,#344,#345);
#281=AXIS2_PLACEMENT_3D('',#481,#346,#347);
#282=AXIS2_PLACEMENT_3D('',#483,#348,#349);
#283=AXIS2_PLACEMENT_3D('',#484,#350,#351);
#284=AXIS2_PLACEMENT_3D('',#486,#352,#353);
#285=AXIS2_PLACEMENT_3D('',#487,#354,#355);
#286=AXIS2_PLACEMENT_3D('',#489,#356,#357);
#287=AXIS2_PLACEMENT_3D('',#490,#358,#359);
#288=DIRECTION('',(0.,0.,1.));
#289=DIRECTION('',(1.,0.,0.));
#290=DIRECTION('',(0.,0.990171268659267,0.13986013986014));
#291=DIRECTION('',(1.,0.,0.));
#292=DIRECTION('',(0.,0.,-1.));
#293=DIRECTION('',(1.,0.,0.));
#294=DIRECTION('',(-1.,0.,0.));
#295=DIRECTION('',(0.,0.,1.));
#296=DIRECTION('',(-1.,0.,0.));
#297=DIRECTION('',(0.,0.,1.));
#298=DIRECTION('',(-1.,0.,0.));
#299=DIRECTION('',(0.,0.,1.));
#300=DIRECTION('',(-1.,0.,0.));
#301=DIRECTION('',(5.51869280290875E-17,0.,1.));
#302=DIRECTION('',(-1.,0.,0.));
#303=DIRECTION('',(0.,0.,1.));
#304=DIRECTION('',(-1.,0.,0.));
#305=DIRECTION('',(0.,0.,1.));
#306=DIRECTION('',(-1.,0.,0.));
#307=DIRECTION('',(0.,0.,1.));
#308=DIRECTION('',(-1.,0.,0.));
#309=DIRECTION('',(9.48543307231509E-17,0.,1.));
#310=DIRECTION('',(-1.,0.,0.));
#311=DIRECTION('',(0.,0.,1.));
#312=DIRECTION('',(-1.,0.,0.));
#313=DIRECTION('',(0.,0.,1.));
#314=DIRECTION('',(-1.,0.,0.));
#315=DIRECTION('',(0.,0.,1.));
#316=DIRECTION('',(1.,0.,0.));
#317=DIRECTION('',(-2.0080055486177E-16,0.,-1.));
#318=DIRECTION('',(-1.,0.,0.));
#319=DIRECTION('',(0.,0.,1.));
#320=DIRECTION('',(-1.,0.,0.));
#321=DIRECTION('',(0.,0.,1.));
#322=DIRECTION('',(-1.,0.,0.));
#323=DIRECTION('',(0.,0.,1.));
#324=DIRECTION('',(1.,0.,0.));
#325=DIRECTION('',(-1.66930253628554E-17,0.,-1.));
#326=DIRECTION('',(-1.,0.,0.));
#327=DIRECTION('',(0.,0.,1.));
#328=DIRECTION('',(-1.,0.,0.));
#329=DIRECTION('',(0.,0.,1.));
#330=DIRECTION('',(-1.,0.,0.));
#331=DIRECTION('',(0.,0.,1.));
#332=DIRECTION('',(-1.,0.,0.));
#333=DIRECTION('',(4.10585438101019E-17,0.,1.));
#334=DIRECTION('',(-1.,0.,0.));
#335=DIRECTION('',(0.,0.,1.));
#336=DIRECTION('',(-1.,0.,0.));
#337=DIRECTION('',(0.,0.,1.));
#338=DIRECTION('',(-1.,0.,0.));
#339=DIRECTION('',(0.,0.,1.));
#340=DIRECTION('',(1.,0.,0.));
#341=DIRECTION('',(1.36794359860171E-17,0.,-1.));
#342=DIRECTION('',(-1.,0.,0.));
#343=DIRECTION('',(0.,0.,1.));
#344=DIRECTION('',(-1.,0.,0.));
#345=DIRECTION('',(0.,0.,1.));
#346=DIRECTION('',(-1.,0.,0.));
#347=DIRECTION('',(0.,0.,1.));
#348=DIRECTION('',(-1.,0.,0.));
#349=DIRECTION('',(0.,0.,1.));
#350=DIRECTION('',(-1.,0.,0.));
#351=DIRECTION('',(0.,0.,1.));
#352=DIRECTION('',(-1.,0.,0.));
#353=DIRECTION('',(-6.41009227811197E-17,0.,1.));
#354=DIRECTION('',(-1.,0.,0.));
#355=DIRECTION('',(0.,0.,1.));
#356=DIRECTION('',(-1.,0.,0.));
#357=DIRECTION('',(0.,0.,1.));
#358=DIRECTION('',(1.,0.,0.));
#359=DIRECTION('',(0.,0.,-1.));
#360=CARTESIAN_POINT('',(0.,0.,0.));
#361=CARTESIAN_POINT('',(5.,-0.244053359184961,16.0278305636358));
#362=CARTESIAN_POINT('',(10.,-0.244053359184961,16.0278305636358));
#363=CARTESIAN_POINT('',(5.,-15.90443066,2.));
#364=CARTESIAN_POINT('',(10.,-15.90443066,2.));
#365=CARTESIAN_POINT('',(10.,-15.90443066,2.));
#366=CARTESIAN_POINT('',(10.,-18.1083916882366,-15.5263726754659));
#367=CARTESIAN_POINT('',(10.,-2.4623467485434,-23.7259129746779));
#368=CARTESIAN_POINT('',(10.,10.6952508904647,-11.9399548997792));
#369=CARTESIAN_POINT('',(10.,23.8528485294729,-0.153996824880521));
#370=CARTESIAN_POINT('',(10.,17.4183036055316,16.2967726098628));
#371=CARTESIAN_POINT('',(10.,-0.244053359184957,16.0278305636358));
#372=CARTESIAN_POINT('',(10.,-5.90443066,2.));
#373=CARTESIAN_POINT('',(10.,-8.10839168823662,-4.50656753428273));
#374=CARTESIAN_POINT('',(10.,-2.78496100498886,-8.84868119617876));
#375=CARTESIAN_POINT('',(10.,3.14587959260112,-5.38198318536985));
#376=CARTESIAN_POINT('',(10.,9.07672019019111,-1.91528517456096));
#377=CARTESIAN_POINT('',(10.,7.90541056710983,4.85382843499273));
#378=CARTESIAN_POINT('',(10.,1.15454803941644,6.12611787704314));
#379=CARTESIAN_POINT('',(-5.10076676829453E-16,-5.90443066,2.));
#380=CARTESIAN_POINT('',(-5.10076676829454E-16,-8.10839168823662,-4.50656753428273));
#381=CARTESIAN_POINT('',(-5.10076676829454E-16,-2.78496100498886,-8.84868119617876));
#382=CARTESIAN_POINT('',(-5.10076676829453E-16,3.14587959260112,-5.38198318536985));
#383=CARTESIAN_POINT('',(-5.10076676829454E-16,9.07672019019111,-1.91528517456096));
#384=CARTESIAN_POINT('',(-5.10076676829454E-16,7.90541056710983,4.85382843499273));
#385=CARTESIAN_POINT('',(-5.10076676829453E-16,1.15454803941644,6.12611787704314));
#386=CARTESIAN_POINT('',(-1.7347234759768E-15,-15.90443066,2.));
#387=CARTESIAN_POINT('',(-1.73472347597681E-15,-18.1083916882366,-15.5263726754659));
#388=CARTESIAN_POINT('',(-1.73472347597681E-15,-2.4623467485434,-23.7259129746779));
#389=CARTESIAN_POINT('',(-1.7347234759768E-15,10.6952508904647,-11.9399548997792));
#390=CARTESIAN_POINT('',(-1.73472347597681E-15,23.8528485294729,-0.153996824880521));
#391=CARTESIAN_POINT('',(-1.73472347597681E-15,17.4183036055316,16.2967726098628));
#392=CARTESIAN_POINT('',(-1.7347234759768E-15,-0.244053359184957,16.0278305636358));
#393=CARTESIAN_POINT('',(-2.95937027512416E-15,-25.90443066,2.));
#394=CARTESIAN_POINT('',(-2.95937027512416E-15,-28.1083916882366,-26.546177816649));
#395=CARTESIAN_POINT('',(-2.95937027512416E-15,-2.13973249209795,-38.603144753177));
#396=CARTESIAN_POINT('',(-2.95937027512416E-15,18.2446221883284,-18.4979266141885));
#397=CARTESIAN_POINT('',(-2.95937027512416E-15,38.6289768687547,1.60729152479992));
#398=CARTESIAN_POINT('',(-2.95937027512416E-15,26.9311966439535,27.7397167847328));
#399=CARTESIAN_POINT('',(-2.95937027512416E-15,-1.64265475778635,25.9295432502285));
#400=CARTESIAN_POINT('',(10.,-25.90443066,2.));
#401=CARTESIAN_POINT('',(10.,-28.1083916882366,-26.546177816649));
#402=CARTESIAN_POINT('',(10.,-2.13973249209795,-38.603144753177));
#403=CARTESIAN_POINT('',(10.,18.2446221883284,-18.4979266141885));
#404=CARTESIAN_POINT('',(10.,38.6289768687547,1.60729152479992));
#405=CARTESIAN_POINT('',(10.,26.9311966439535,27.7397167847328));
#406=CARTESIAN_POINT('',(10.,-1.64265475778635,25.9295432502285));
#407=CARTESIAN_POINT('',(10.,-15.90443066,2.));
#408=CARTESIAN_POINT('',(10.,-18.1083916882366,-15.5263726754659));
#409=CARTESIAN_POINT('',(10.,-2.4623467485434,-23.7259129746779));
#410=CARTESIAN_POINT('',(10.,10.6952508904647,-11.9399548997792));
#411=CARTESIAN_POINT('',(10.,23.8528485294729,-0.153996824880521));
#412=CARTESIAN_POINT('',(10.,17.4183036055316,16.2967726098628));
#413=CARTESIAN_POINT('',(10.,-0.244053359184957,16.0278305636358));
#414=CARTESIAN_POINT('',(10.,-0.244053359184961,16.0278305636358));
#415=CARTESIAN_POINT('',(10.,-8.6197764918301,15.9002946904551));
#416=CARTESIAN_POINT('',(10.,-14.8592832085853,10.3112375852502));
#417=CARTESIAN_POINT('',(10.,-15.90443066,2.));
#418=CARTESIAN_POINT('',(10.,1.15454803941644,6.12611787704314));
#419=CARTESIAN_POINT('',(10.,-2.04680020371234,6.72945434750911));
#420=CARTESIAN_POINT('',(10.,-4.85928320858532,5.08550032817684));
#421=CARTESIAN_POINT('',(10.,-5.90443066,2.));
#422=CARTESIAN_POINT('',(-5.10076676829453E-16,1.15454803941644,6.12611787704314));
#423=CARTESIAN_POINT('',(-5.10076676829454E-16,-2.04680020371234,6.72945434750911));
#424=CARTESIAN_POINT('',(-5.10076676829454E-16,-4.85928320858532,5.08550032817684));
#425=CARTESIAN_POINT('',(-5.10076676829453E-16,-5.90443066,2.));
#426=CARTESIAN_POINT('',(-1.7347234759768E-15,-0.244053359184961,16.0278305636358));
#427=CARTESIAN_POINT('',(-1.73472347597681E-15,-8.6197764918301,15.9002946904551));
#428=CARTESIAN_POINT('',(-1.73472347597681E-15,-14.8592832085853,10.3112375852502));
#429=CARTESIAN_POINT('',(-1.7347234759768E-15,-15.90443066,2.));
#430=CARTESIAN_POINT('',(-2.95937027512416E-15,-1.64265475778636,25.9295432502285));
#431=CARTESIAN_POINT('',(-2.95937027512416E-15,-15.1927527799479,25.0711350334012));
#432=CARTESIAN_POINT('',(-2.95937027512416E-15,-24.8592832085853,15.5369748423236));
#433=CARTESIAN_POINT('',(-2.95937027512416E-15,-25.90443066,2.));
#434=CARTESIAN_POINT('',(10.,-1.64265475778636,25.9295432502285));
#435=CARTESIAN_POINT('',(10.,-15.1927527799479,25.0711350334012));
#436=CARTESIAN_POINT('',(10.,-24.8592832085853,15.5369748423236));
#437=CARTESIAN_POINT('',(10.,-25.90443066,2.));
#438=CARTESIAN_POINT('',(10.,-0.244053359184961,16.0278305636358));
#439=CARTESIAN_POINT('',(10.,-8.6197764918301,15.9002946904551));
#440=CARTESIAN_POINT('',(10.,-14.8592832085853,10.3112375852502));
#441=CARTESIAN_POINT('',(10.,-15.90443066,2.));
#442=CARTESIAN_POINT('',(70.,0.,0.));
#443=CARTESIAN_POINT('',(70.,0.,5.875));
#444=CARTESIAN_POINT('',(70.,0.,0.));
#445=CARTESIAN_POINT('',(68.,0.,0.));
#446=CARTESIAN_POINT('',(68.,0.,7.875));
#447=CARTESIAN_POINT('',(70.,0.,0.));
#448=CARTESIAN_POINT('',(52.0825317547306,0.,0.));
#449=CARTESIAN_POINT('',(52.0825317547306,0.,7.875));
#450=CARTESIAN_POINT('',(0.,0.,0.));
#451=CARTESIAN_POINT('',(51.,0.,0.));
#452=CARTESIAN_POINT('',(51.,0.,8.5));
#453=CARTESIAN_POINT('',(52.0825317547306,0.,0.));
#454=CARTESIAN_POINT('',(46.2800426762176,0.,0.));
#455=CARTESIAN_POINT('',(46.2800426762176,0.,8.5));
#456=CARTESIAN_POINT('',(0.,0.,0.));
#457=CARTESIAN_POINT('',(45.5352914270615,0.,0.));
#458=CARTESIAN_POINT('',(45.5352914270615,0.,8.30044450422656));
#459=CARTESIAN_POINT('',(46.2800426762176,0.,0.));
#460=CARTESIAN_POINT('',(44.8004445042266,0.,0.));
#461=CARTESIAN_POINT('',(44.8004445042266,0.,9.03529142706151));
#462=CARTESIAN_POINT('',(45.38,0.,0.));
#463=CARTESIAN_POINT('',(45.,0.,0.));
#464=CARTESIAN_POINT('',(45.,0.,9.78004267621759));
#465=CARTESIAN_POINT('',(44.8004445042266,0.,0.));
#466=CARTESIAN_POINT('',(45.,0.,0.));
#467=CARTESIAN_POINT('',(45.,0.,14.));
#468=CARTESIAN_POINT('',(45.,9.78004267621759,0.));
#469=CARTESIAN_POINT('',(44.5,0.,0.));
#470=CARTESIAN_POINT('',(44.5,0.,14.5));
#471=CARTESIAN_POINT('',(45.,0.,0.));
#472=CARTESIAN_POINT('',(40.2,0.,0.));
#473=CARTESIAN_POINT('',(40.2,0.,14.5));
#474=CARTESIAN_POINT('',(0.,0.,0.));
#475=CARTESIAN_POINT('',(40.,0.,0.));
#476=CARTESIAN_POINT('',(40.,0.,14.3));
#477=CARTESIAN_POINT('',(40.2,0.,0.));
#478=CARTESIAN_POINT('',(22.6594032893287,0.,0.));
#479=CARTESIAN_POINT('',(22.6594032893287,0.,14.3));
#480=CARTESIAN_POINT('',(0.,0.,0.));
#481=CARTESIAN_POINT('',(19.239201856072,0.,0.));
#482=CARTESIAN_POINT('',(19.239201856072,0.,14.9030737921409));
#483=CARTESIAN_POINT('',(22.6594032893287,0.,0.));
#484=CARTESIAN_POINT('',(6.271553888762,0.,0.));
#485=CARTESIAN_POINT('',(6.271553888762,0.,19.6229116606844));
#486=CARTESIAN_POINT('',(19.239201856072,0.,0.));
#487=CARTESIAN_POINT('',(3.,0.,0.));
#488=CARTESIAN_POINT('',(3.,0.,12.7834710429875));
#489=CARTESIAN_POINT('',(4.96888354804422,0.,0.));
#490=CARTESIAN_POINT('',(3.,12.7834710429875,0.));
#491=MECHANICAL_DESIGN_GEOMETRIC_PRESENTATION_REPRESENTATION('',(#52,#53),
#492);
#492=(
GEOMETRIC_REPRESENTATION_CONTEXT(3)
GLOBAL_UNCERTAINTY_ASSIGNED_CONTEXT((#493))
GLOBAL_UNIT_ASSIGNED_CONTEXT((#499,#495,#494))
REPRESENTATION_CONTEXT('AEMR-RD10T3-D42-M16-L43-Z05-H',
'TOP_LEVEL_ASSEMBLY_PART')
);
#493=UNCERTAINTY_MEASURE_WITH_UNIT(LENGTH_MEASURE(2.E-5),#499,
'DISTANCE_ACCURACY_VALUE','Maximum Tolerance applied to model');
#494=(
NAMED_UNIT(*)
SI_UNIT($,.STERADIAN.)
SOLID_ANGLE_UNIT()
);
#495=(
CONVERSION_BASED_UNIT('DEGREE',#497)
NAMED_UNIT(#496)
PLANE_ANGLE_UNIT()
);
#496=DIMENSIONAL_EXPONENTS(0.,0.,0.,0.,0.,0.,0.);
#497=PLANE_ANGLE_MEASURE_WITH_UNIT(PLANE_ANGLE_MEASURE(0.0174532925),#498);
#498=(
NAMED_UNIT(*)
PLANE_ANGLE_UNIT()
SI_UNIT($,.RADIAN.)
);
#499=(
LENGTH_UNIT()
NAMED_UNIT(*)
SI_UNIT(.MILLI.,.METRE.)
);
ENDSEC;
END-ISO-10303-21;
