ISO-10303-21;
HEADER;
/* Generated by software containing ST-Developer
 * from STEP Tools, Inc. (www.steptools.com) 
 */
/* OPTION: using custom schema-name function */

FILE_DESCRIPTION(
/* description */ (''),
/* implementation_level */ '2;1');

FILE_NAME(
/* name */ 'AEMR-RD1204-D25-M12-L35-Z02-H.stp',
/* time_stamp */ '2023-10-21T11:01:11+03:00',
/* author */ (''),
/* organization */ (''),
/* preprocessor_version */ 'ST-DEVELOPER v19.4',
/* originating_system */ 'SIEMENS PLM Software NX2306.5001',
/* authorisation */ '');

FILE_SCHEMA (('AUTOMOTIVE_DESIGN { 1 0 10303 214 3 1 1 1 }'));
ENDSEC;

DATA;
#10=PROPERTY_DEFINITION_REPRESENTATION(#14,#12);
#11=PROPERTY_DEFINITION_REPRESENTATION(#15,#13);
#12=REPRESENTATION('',(#16),#560);
#13=REPRESENTATION('',(#17),#560);
#14=PROPERTY_DEFINITION('pmi validation property','',#21);
#15=PROPERTY_DEFINITION('pmi validation property','',#21);
#16=VALUE_REPRESENTATION_ITEM('number of annotations',COUNT_MEASURE(0.));
#17=VALUE_REPRESENTATION_ITEM('number of views',COUNT_MEASURE(0.));
#18=SHAPE_REPRESENTATION_RELATIONSHIP('None',
'relationship between AEMR-RD1204-D25-M12-L35-Z02-H-LIGHT_x_t_objects-
None and AEMR-RD1204-D25-M12-L35-Z02-H-LIGHT_x_t_objects-None',#30,#19);
#19=ADVANCED_BREP_SHAPE_REPRESENTATION(
'AEMR-RD1204-D25-M12-L35-Z02-H-LIGHT_x_t_objects-None',(#50,#51),#560);
#20=SHAPE_DEFINITION_REPRESENTATION(#21,#30);
#21=PRODUCT_DEFINITION_SHAPE('','',#22);
#22=PRODUCT_DEFINITION(' ','',#24,#23);
#23=PRODUCT_DEFINITION_CONTEXT('part definition',#29,'design');
#24=PRODUCT_DEFINITION_FORMATION_WITH_SPECIFIED_SOURCE(' ',' ',#26,
 .NOT_KNOWN.);
#25=PRODUCT_RELATED_PRODUCT_CATEGORY('part','',(#26));
#26=PRODUCT('AEMR-RD1204-D25-M12-L35-Z02-H-LIGHT_x_t_objects',
'AEMR-RD1204-D25-M12-L35-Z02-H-LIGHT_x_t_objects',' ',(#27));
#27=PRODUCT_CONTEXT(' ',#29,'mechanical');
#28=APPLICATION_PROTOCOL_DEFINITION('international standard',
'automotive_design',2010,#29);
#29=APPLICATION_CONTEXT(
'core data for automotive mechanical design processes');
#30=SHAPE_REPRESENTATION(
'AEMR-RD1204-D25-M12-L35-Z02-H-LIGHT_x_t_objects-None',(#254),#560);
#31=DRAUGHTING_PRE_DEFINED_COLOUR('yellow');
#32=(
BOUNDED_SURFACE()
B_SPLINE_SURFACE(3,3,((#482,#483,#484,#485,#486,#487,#488),(#489,#490,#491,
#492,#493,#494,#495),(#496,#497,#498,#499,#500,#501,#502),(#503,#504,#505,
#506,#507,#508,#509),(#510,#511,#512,#513,#514,#515,#516),(#517,#518,#519,
#520,#521,#522,#523),(#524,#525,#526,#527,#528,#529,#530)),
 .UNSPECIFIED.,.T.,.F.,.F.)
B_SPLINE_SURFACE_WITH_KNOTS((1,3,3,3,1),(4,3,4),(-0.5,0.,0.5,1.,1.5),(0.,
0.5,1.),.UNSPECIFIED.)
GEOMETRIC_REPRESENTATION_ITEM()
RATIONAL_B_SPLINE_SURFACE(((1.,0.558073038067407,0.558073038067407,1.,0.558073038067407,
0.558073038067407,1.),(0.333333333333334,0.186024346022469,0.186024346022469,
0.333333333333334,0.186024346022469,0.186024346022469,0.333333333333334),
(0.333333333333334,0.186024346022469,0.186024346022469,0.333333333333334,
0.186024346022469,0.186024346022469,0.333333333333334),(1.,0.558073038067407,
0.558073038067407,1.,0.558073038067407,0.558073038067407,1.),(0.333333333333334,
0.186024346022469,0.186024346022469,0.333333333333334,0.186024346022469,
0.186024346022469,0.333333333333334),(0.333333333333334,0.186024346022469,
0.186024346022469,0.333333333333334,0.186024346022469,0.186024346022469,
0.333333333333334),(1.,0.558073038067407,0.558073038067407,1.,0.558073038067407,
0.558073038067407,1.)))
REPRESENTATION_ITEM('')
SURFACE()
);
#33=(
BOUNDED_SURFACE()
B_SPLINE_SURFACE(3,3,((#531,#532,#533,#534),(#535,#536,#537,#538),(#539,
#540,#541,#542),(#543,#544,#545,#546),(#547,#548,#549,#550),(#551,#552,
#553,#554),(#555,#556,#557,#558)),.UNSPECIFIED.,.T.,.F.,.F.)
B_SPLINE_SURFACE_WITH_KNOTS((1,3,3,3,1),(4,4),(-0.5,0.,0.5,1.,1.5),(0.,
1.),.UNSPECIFIED.)
GEOMETRIC_REPRESENTATION_ITEM()
RATIONAL_B_SPLINE_SURFACE(((1.,0.848476195348124,0.848476195348124,1.),
(0.333333333333334,0.282825398449375,0.282825398449375,0.333333333333334),
(0.333333333333334,0.282825398449375,0.282825398449375,0.333333333333334),
(1.,0.848476195348124,0.848476195348124,1.),(0.333333333333334,0.282825398449375,
0.282825398449375,0.333333333333334),(0.333333333333334,0.282825398449375,
0.282825398449375,0.333333333333334),(1.,0.848476195348124,0.848476195348124,
1.)))
REPRESENTATION_ITEM('')
SURFACE()
);
#34=PRESENTATION_LAYER_ASSIGNMENT('1','Layer 1',(#50,#51));
#35=STYLED_ITEM('',(#37),#50);
#36=STYLED_ITEM('',(#38),#51);
#37=PRESENTATION_STYLE_ASSIGNMENT((#39));
#38=PRESENTATION_STYLE_ASSIGNMENT((#40));
#39=SURFACE_STYLE_USAGE(.BOTH.,#41);
#40=SURFACE_STYLE_USAGE(.BOTH.,#42);
#41=SURFACE_SIDE_STYLE('',(#43));
#42=SURFACE_SIDE_STYLE('',(#44));
#43=SURFACE_STYLE_FILL_AREA(#45);
#44=SURFACE_STYLE_FILL_AREA(#46);
#45=FILL_AREA_STYLE('',(#47));
#46=FILL_AREA_STYLE('',(#48));
#47=FILL_AREA_STYLE_COLOUR('',#49);
#48=FILL_AREA_STYLE_COLOUR('',#31);
#49=COLOUR_RGB('silver gray',0.6,0.6,0.6);
#50=MANIFOLD_SOLID_BREP('',#52);
#51=MANIFOLD_SOLID_BREP('',#53);
#52=CLOSED_SHELL('',(#73,#74,#75,#76,#77,#78,#79,#80,#81,#82,#83,#84,#85,
#86,#87,#88,#89));
#53=CLOSED_SHELL('',(#90,#91));
#54=FACE_OUTER_BOUND('',#148,.T.);
#55=FACE_OUTER_BOUND('',#149,.T.);
#56=SURFACE_OF_REVOLUTION('',#58,#57);
#57=AXIS1_PLACEMENT('',#460,#331);
#58=B_SPLINE_CURVE_WITH_KNOTS('',3,(#392,#393,#394,#395,#396,#397,#398,
#399,#400,#401,#402,#403,#404,#405,#406,#407,#408,#409,#410,#411,#412,#413,
#414,#415,#416,#417,#418,#419,#420,#421,#422,#423,#424,#425,#426,#427,#428,
#429,#430,#431,#432,#433,#434,#435,#436,#437,#438,#439,#440,#441,#442,#443,
#444,#445,#446,#447,#448,#449,#450,#451,#452,#453,#454,#455,#456,#457,#458,
#459),.UNSPECIFIED.,.T.,.F.,(2,2,2,2,2,2,2,2,2,2,2,2,2,2,2,2,2,2,2,2,2,
2,2,2,2,2,2,2,2,2,2,2,2,2,2,2),(-0.03125,0.,0.03125,0.0625,0.09375,0.109375,
0.125,0.15625,0.1875,0.21875,0.25,0.28125,0.3125,0.34375,0.375,0.40625,
0.4375,0.46875,0.5,0.53125,0.5625,0.59375,0.625,0.65625,0.6875,0.71875,
0.75,0.78125,0.8125,0.84375,0.875,0.90625,0.9375,0.96875,1.,1.03125),
 .UNSPECIFIED.);
#59=CYLINDRICAL_SURFACE('',#265,10.5);
#60=CYLINDRICAL_SURFACE('',#269,10.3);
#61=CYLINDRICAL_SURFACE('',#281,5.875);
#62=CYLINDRICAL_SURFACE('',#285,6.25);
#63=PLANE('',#261);
#64=PLANE('',#275);
#65=PLANE('',#277);
#66=CONICAL_SURFACE('',#259,6.78529142706151,75.0000000000006);
#67=CONICAL_SURFACE('',#263,10.,44.9999999999996);
#68=CONICAL_SURFACE('',#267,10.5,45.0000000000005);
#69=CONICAL_SURFACE('',#273,10.6015368960704,19.9999999999996);
#70=CONICAL_SURFACE('',#279,4.375,45.0000000000001);
#71=CONICAL_SURFACE('',#283,5.875,30.0000000000005);
#72=CONICAL_SURFACE('',#286,6.25,14.9999999999999);
#73=ADVANCED_FACE('',(#94,#95),#92,.F.);
#74=ADVANCED_FACE('',(#96,#97),#66,.F.);
#75=ADVANCED_FACE('',(#98,#99),#63,.F.);
#76=ADVANCED_FACE('',(#100,#101),#67,.T.);
#77=ADVANCED_FACE('',(#102,#103),#59,.T.);
#78=ADVANCED_FACE('',(#104,#105),#68,.T.);
#79=ADVANCED_FACE('',(#106,#107),#60,.T.);
#80=ADVANCED_FACE('',(#108,#109),#93,.F.);
#81=ADVANCED_FACE('',(#110,#111),#69,.T.);
#82=ADVANCED_FACE('',(#112,#113),#56,.T.);
#83=ADVANCED_FACE('',(#54),#64,.F.);
#84=ADVANCED_FACE('',(#55),#65,.F.);
#85=ADVANCED_FACE('',(#114,#115),#70,.T.);
#86=ADVANCED_FACE('',(#116,#117),#61,.T.);
#87=ADVANCED_FACE('',(#118,#119),#71,.T.);
#88=ADVANCED_FACE('',(#120,#121),#62,.T.);
#89=ADVANCED_FACE('',(#122,#123),#72,.T.);
#90=ADVANCED_FACE('',(#124,#125),#32,.F.);
#91=ADVANCED_FACE('',(#126,#127),#33,.F.);
#92=TOROIDAL_SURFACE('',#257,6.63,0.6);
#93=TOROIDAL_SURFACE('',#271,15.3,5.);
#94=FACE_BOUND('',#128,.T.);
#95=FACE_BOUND('',#129,.T.);
#96=FACE_BOUND('',#130,.T.);
#97=FACE_BOUND('',#131,.T.);
#98=FACE_BOUND('',#132,.T.);
#99=FACE_BOUND('',#133,.T.);
#100=FACE_BOUND('',#134,.T.);
#101=FACE_BOUND('',#135,.T.);
#102=FACE_BOUND('',#136,.T.);
#103=FACE_BOUND('',#137,.T.);
#104=FACE_BOUND('',#138,.T.);
#105=FACE_BOUND('',#139,.T.);
#106=FACE_BOUND('',#140,.T.);
#107=FACE_BOUND('',#141,.T.);
#108=FACE_BOUND('',#142,.T.);
#109=FACE_BOUND('',#143,.T.);
#110=FACE_BOUND('',#144,.T.);
#111=FACE_BOUND('',#145,.T.);
#112=FACE_BOUND('',#146,.T.);
#113=FACE_BOUND('',#147,.T.);
#114=FACE_BOUND('',#150,.T.);
#115=FACE_BOUND('',#151,.T.);
#116=FACE_BOUND('',#152,.T.);
#117=FACE_BOUND('',#153,.T.);
#118=FACE_BOUND('',#154,.T.);
#119=FACE_BOUND('',#155,.T.);
#120=FACE_BOUND('',#156,.T.);
#121=FACE_BOUND('',#157,.T.);
#122=FACE_BOUND('',#158,.T.);
#123=FACE_BOUND('',#159,.T.);
#124=FACE_BOUND('',#160,.T.);
#125=FACE_BOUND('',#161,.T.);
#126=FACE_BOUND('',#162,.T.);
#127=FACE_BOUND('',#163,.T.);
#128=EDGE_LOOP('',(#164));
#129=EDGE_LOOP('',(#165));
#130=EDGE_LOOP('',(#166));
#131=EDGE_LOOP('',(#167));
#132=EDGE_LOOP('',(#168));
#133=EDGE_LOOP('',(#169));
#134=EDGE_LOOP('',(#170));
#135=EDGE_LOOP('',(#171));
#136=EDGE_LOOP('',(#172));
#137=EDGE_LOOP('',(#173));
#138=EDGE_LOOP('',(#174));
#139=EDGE_LOOP('',(#175));
#140=EDGE_LOOP('',(#176));
#141=EDGE_LOOP('',(#177));
#142=EDGE_LOOP('',(#178));
#143=EDGE_LOOP('',(#179));
#144=EDGE_LOOP('',(#180));
#145=EDGE_LOOP('',(#181));
#146=EDGE_LOOP('',(#182));
#147=EDGE_LOOP('',(#183));
#148=EDGE_LOOP('',(#184));
#149=EDGE_LOOP('',(#185));
#150=EDGE_LOOP('',(#186));
#151=EDGE_LOOP('',(#187));
#152=EDGE_LOOP('',(#188));
#153=EDGE_LOOP('',(#189));
#154=EDGE_LOOP('',(#190));
#155=EDGE_LOOP('',(#191));
#156=EDGE_LOOP('',(#192));
#157=EDGE_LOOP('',(#193));
#158=EDGE_LOOP('',(#194));
#159=EDGE_LOOP('',(#195));
#160=EDGE_LOOP('',(#196));
#161=EDGE_LOOP('',(#197));
#162=EDGE_LOOP('',(#198));
#163=EDGE_LOOP('',(#199));
#164=ORIENTED_EDGE('',*,*,#218,.F.);
#165=ORIENTED_EDGE('',*,*,#219,.T.);
#166=ORIENTED_EDGE('',*,*,#220,.F.);
#167=ORIENTED_EDGE('',*,*,#218,.T.);
#168=ORIENTED_EDGE('',*,*,#221,.F.);
#169=ORIENTED_EDGE('',*,*,#220,.T.);
#170=ORIENTED_EDGE('',*,*,#222,.F.);
#171=ORIENTED_EDGE('',*,*,#221,.T.);
#172=ORIENTED_EDGE('',*,*,#223,.F.);
#173=ORIENTED_EDGE('',*,*,#222,.T.);
#174=ORIENTED_EDGE('',*,*,#224,.F.);
#175=ORIENTED_EDGE('',*,*,#223,.T.);
#176=ORIENTED_EDGE('',*,*,#225,.F.);
#177=ORIENTED_EDGE('',*,*,#224,.T.);
#178=ORIENTED_EDGE('',*,*,#226,.F.);
#179=ORIENTED_EDGE('',*,*,#225,.T.);
#180=ORIENTED_EDGE('',*,*,#227,.F.);
#181=ORIENTED_EDGE('',*,*,#226,.T.);
#182=ORIENTED_EDGE('',*,*,#228,.F.);
#183=ORIENTED_EDGE('',*,*,#227,.T.);
#184=ORIENTED_EDGE('',*,*,#228,.T.);
#185=ORIENTED_EDGE('',*,*,#229,.F.);
#186=ORIENTED_EDGE('',*,*,#230,.F.);
#187=ORIENTED_EDGE('',*,*,#229,.T.);
#188=ORIENTED_EDGE('',*,*,#231,.F.);
#189=ORIENTED_EDGE('',*,*,#230,.T.);
#190=ORIENTED_EDGE('',*,*,#232,.F.);
#191=ORIENTED_EDGE('',*,*,#231,.T.);
#192=ORIENTED_EDGE('',*,*,#233,.F.);
#193=ORIENTED_EDGE('',*,*,#232,.T.);
#194=ORIENTED_EDGE('',*,*,#219,.F.);
#195=ORIENTED_EDGE('',*,*,#233,.T.);
#196=ORIENTED_EDGE('',*,*,#234,.T.);
#197=ORIENTED_EDGE('',*,*,#235,.T.);
#198=ORIENTED_EDGE('',*,*,#235,.F.);
#199=ORIENTED_EDGE('',*,*,#234,.F.);
#200=VERTEX_POINT('',#362);
#201=VERTEX_POINT('',#364);
#202=VERTEX_POINT('',#367);
#203=VERTEX_POINT('',#370);
#204=VERTEX_POINT('',#373);
#205=VERTEX_POINT('',#376);
#206=VERTEX_POINT('',#379);
#207=VERTEX_POINT('',#382);
#208=VERTEX_POINT('',#385);
#209=VERTEX_POINT('',#388);
#210=VERTEX_POINT('',#391);
#211=VERTEX_POINT('',#463);
#212=VERTEX_POINT('',#466);
#213=VERTEX_POINT('',#469);
#214=VERTEX_POINT('',#472);
#215=VERTEX_POINT('',#475);
#216=VERTEX_POINT('',#479);
#217=VERTEX_POINT('',#481);
#218=EDGE_CURVE('',#200,#200,#236,.T.);
#219=EDGE_CURVE('',#201,#201,#237,.T.);
#220=EDGE_CURVE('',#202,#202,#238,.T.);
#221=EDGE_CURVE('',#203,#203,#239,.T.);
#222=EDGE_CURVE('',#204,#204,#240,.T.);
#223=EDGE_CURVE('',#205,#205,#241,.T.);
#224=EDGE_CURVE('',#206,#206,#242,.T.);
#225=EDGE_CURVE('',#207,#207,#243,.T.);
#226=EDGE_CURVE('',#208,#208,#244,.T.);
#227=EDGE_CURVE('',#209,#209,#245,.T.);
#228=EDGE_CURVE('',#210,#210,#246,.T.);
#229=EDGE_CURVE('',#211,#211,#247,.T.);
#230=EDGE_CURVE('',#212,#212,#248,.T.);
#231=EDGE_CURVE('',#213,#213,#249,.T.);
#232=EDGE_CURVE('',#214,#214,#250,.T.);
#233=EDGE_CURVE('',#215,#215,#251,.T.);
#234=EDGE_CURVE('',#216,#216,#252,.T.);
#235=EDGE_CURVE('',#217,#217,#253,.T.);
#236=CIRCLE('',#255,6.78529142706151);
#237=CIRCLE('',#256,6.05044450422656);
#238=CIRCLE('',#258,7.53004267621759);
#239=CIRCLE('',#260,10.);
#240=CIRCLE('',#262,10.5);
#241=CIRCLE('',#264,10.5);
#242=CIRCLE('',#266,10.3);
#243=CIRCLE('',#268,10.3);
#244=CIRCLE('',#270,10.6015368960704);
#245=CIRCLE('',#272,10.8398703778464);
#246=CIRCLE('',#274,3.51072751581735);
#247=CIRCLE('',#276,4.375);
#248=CIRCLE('',#278,5.875);
#249=CIRCLE('',#280,5.875);
#250=CIRCLE('',#282,6.25);
#251=CIRCLE('',#284,6.25);
#252=CIRCLE('',#287,6.);
#253=CIRCLE('',#288,6.);
#254=AXIS2_PLACEMENT_3D('',#360,#289,#290);
#255=AXIS2_PLACEMENT_3D('',#361,#291,#292);
#256=AXIS2_PLACEMENT_3D('',#363,#293,#294);
#257=AXIS2_PLACEMENT_3D('',#365,#295,#296);
#258=AXIS2_PLACEMENT_3D('',#366,#297,#298);
#259=AXIS2_PLACEMENT_3D('',#368,#299,#300);
#260=AXIS2_PLACEMENT_3D('',#369,#301,#302);
#261=AXIS2_PLACEMENT_3D('',#371,#303,#304);
#262=AXIS2_PLACEMENT_3D('',#372,#305,#306);
#263=AXIS2_PLACEMENT_3D('',#374,#307,#308);
#264=AXIS2_PLACEMENT_3D('',#375,#309,#310);
#265=AXIS2_PLACEMENT_3D('',#377,#311,#312);
#266=AXIS2_PLACEMENT_3D('',#378,#313,#314);
#267=AXIS2_PLACEMENT_3D('',#380,#315,#316);
#268=AXIS2_PLACEMENT_3D('',#381,#317,#318);
#269=AXIS2_PLACEMENT_3D('',#383,#319,#320);
#270=AXIS2_PLACEMENT_3D('',#384,#321,#322);
#271=AXIS2_PLACEMENT_3D('',#386,#323,#324);
#272=AXIS2_PLACEMENT_3D('',#387,#325,#326);
#273=AXIS2_PLACEMENT_3D('',#389,#327,#328);
#274=AXIS2_PLACEMENT_3D('',#390,#329,#330);
#275=AXIS2_PLACEMENT_3D('',#461,#332,#333);
#276=AXIS2_PLACEMENT_3D('',#462,#334,#335);
#277=AXIS2_PLACEMENT_3D('',#464,#336,#337);
#278=AXIS2_PLACEMENT_3D('',#465,#338,#339);
#279=AXIS2_PLACEMENT_3D('',#467,#340,#341);
#280=AXIS2_PLACEMENT_3D('',#468,#342,#343);
#281=AXIS2_PLACEMENT_3D('',#470,#344,#345);
#282=AXIS2_PLACEMENT_3D('',#471,#346,#347);
#283=AXIS2_PLACEMENT_3D('',#473,#348,#349);
#284=AXIS2_PLACEMENT_3D('',#474,#350,#351);
#285=AXIS2_PLACEMENT_3D('',#476,#352,#353);
#286=AXIS2_PLACEMENT_3D('',#477,#354,#355);
#287=AXIS2_PLACEMENT_3D('',#478,#356,#357);
#288=AXIS2_PLACEMENT_3D('',#480,#358,#359);
#289=DIRECTION('',(0.,0.,1.));
#290=DIRECTION('',(1.,0.,0.));
#291=DIRECTION('',(-1.,0.,0.));
#292=DIRECTION('',(0.,0.,1.));
#293=DIRECTION('',(-1.,0.,0.));
#294=DIRECTION('',(0.,0.,1.));
#295=DIRECTION('',(-1.,0.,0.));
#296=DIRECTION('',(0.,0.,1.));
#297=DIRECTION('',(-1.,0.,0.));
#298=DIRECTION('',(0.,0.,1.));
#299=DIRECTION('',(1.,0.,0.));
#300=DIRECTION('',(-1.85589678717673E-17,0.,-1.));
#301=DIRECTION('',(-1.,0.,0.));
#302=DIRECTION('',(0.,0.,1.));
#303=DIRECTION('',(-1.,0.,0.));
#304=DIRECTION('',(0.,0.,1.));
#305=DIRECTION('',(-1.,0.,0.));
#306=DIRECTION('',(0.,0.,1.));
#307=DIRECTION('',(-1.,0.,0.));
#308=DIRECTION('',(2.74807679362666E-17,0.,1.));
#309=DIRECTION('',(-1.,0.,0.));
#310=DIRECTION('',(0.,0.,1.));
#311=DIRECTION('',(-1.,0.,0.));
#312=DIRECTION('',(0.,0.,1.));
#313=DIRECTION('',(-1.,0.,0.));
#314=DIRECTION('',(0.,0.,1.));
#315=DIRECTION('',(1.,0.,0.));
#316=DIRECTION('',(3.43339629089911E-18,0.,-1.));
#317=DIRECTION('',(-1.,0.,0.));
#318=DIRECTION('',(0.,0.,1.));
#319=DIRECTION('',(-1.,0.,0.));
#320=DIRECTION('',(0.,0.,1.));
#321=DIRECTION('',(-1.,0.,0.));
#322=DIRECTION('',(0.,0.,1.));
#323=DIRECTION('',(-1.,0.,0.));
#324=DIRECTION('',(0.,0.,1.));
#325=DIRECTION('',(-1.,0.,0.));
#326=DIRECTION('',(0.,0.,1.));
#327=DIRECTION('',(-1.,0.,0.));
#328=DIRECTION('',(6.02058321632819E-17,0.,1.));
#329=DIRECTION('',(-1.,0.,0.));
#330=DIRECTION('',(0.,0.,1.));
#331=DIRECTION('',(-1.,0.,0.));
#332=DIRECTION('',(1.,0.,0.));
#333=DIRECTION('',(0.,0.,-1.));
#334=DIRECTION('',(-1.,0.,0.));
#335=DIRECTION('',(0.,0.,1.));
#336=DIRECTION('',(-1.,0.,0.));
#337=DIRECTION('',(0.,0.,1.));
#338=DIRECTION('',(-1.,0.,0.));
#339=DIRECTION('',(0.,0.,1.));
#340=DIRECTION('',(-1.,0.,0.));
#341=DIRECTION('',(4.83606793551715E-17,0.,1.));
#342=DIRECTION('',(-1.,0.,0.));
#343=DIRECTION('',(0.,0.,1.));
#344=DIRECTION('',(-1.,0.,0.));
#345=DIRECTION('',(0.,0.,1.));
#346=DIRECTION('',(-1.,0.,0.));
#347=DIRECTION('',(0.,0.,1.));
#348=DIRECTION('',(-1.,0.,0.));
#349=DIRECTION('',(1.18974507286841E-17,0.,1.));
#350=DIRECTION('',(-1.,0.,0.));
#351=DIRECTION('',(0.,0.,1.));
#352=DIRECTION('',(-1.,0.,0.));
#353=DIRECTION('',(0.,0.,1.));
#354=DIRECTION('',(1.,0.,0.));
#355=DIRECTION('',(-2.27754300008934E-16,0.,-1.));
#356=DIRECTION('',(0.,0.980966953385612,0.194174757281553));
#357=DIRECTION('',(1.,0.,0.));
#358=DIRECTION('',(0.,0.,-1.));
#359=DIRECTION('',(1.,0.,0.));
#360=CARTESIAN_POINT('',(0.,0.,0.));
#361=CARTESIAN_POINT('',(34.8004445042265,0.,0.));
#362=CARTESIAN_POINT('',(34.8004445042265,0.,6.78529142706151));
#363=CARTESIAN_POINT('',(35.5352914270615,0.,0.));
#364=CARTESIAN_POINT('',(35.5352914270615,0.,6.05044450422656));
#365=CARTESIAN_POINT('',(35.38,0.,0.));
#366=CARTESIAN_POINT('',(35.,0.,0.));
#367=CARTESIAN_POINT('',(35.,0.,7.53004267621759));
#368=CARTESIAN_POINT('',(34.8004445042265,0.,0.));
#369=CARTESIAN_POINT('',(35.,0.,0.));
#370=CARTESIAN_POINT('',(35.,0.,10.));
#371=CARTESIAN_POINT('',(35.,10.,0.));
#372=CARTESIAN_POINT('',(34.5,0.,0.));
#373=CARTESIAN_POINT('',(34.5,0.,10.5));
#374=CARTESIAN_POINT('',(35.,0.,0.));
#375=CARTESIAN_POINT('',(30.2,0.,0.));
#376=CARTESIAN_POINT('',(30.2,0.,10.5));
#377=CARTESIAN_POINT('',(0.,0.,0.));
#378=CARTESIAN_POINT('',(30.,0.,0.));
#379=CARTESIAN_POINT('',(30.,0.,10.3));
#380=CARTESIAN_POINT('',(30.2,0.,0.));
#381=CARTESIAN_POINT('',(10.4188452153653,0.,0.));
#382=CARTESIAN_POINT('',(10.4188452153653,0.,10.3));
#383=CARTESIAN_POINT('',(0.,0.,0.));
#384=CARTESIAN_POINT('',(8.70874449873702,0.,0.));
#385=CARTESIAN_POINT('',(8.70874449873702,0.,10.6015368960704));
#386=CARTESIAN_POINT('',(10.4188452153653,0.,0.));
#387=CARTESIAN_POINT('',(8.05392863925745,0.,0.));
#388=CARTESIAN_POINT('',(8.05392863925745,0.,10.8398703778464));
#389=CARTESIAN_POINT('',(8.70874449873702,0.,0.));
#390=CARTESIAN_POINT('',(4.,0.,0.));
#391=CARTESIAN_POINT('',(4.,0.,3.51072751581735));
#392=CARTESIAN_POINT('',(5.71315821007515,3.24930161173908,0.));
#393=CARTESIAN_POINT('',(6.28684178992485,3.24930161173908,0.));
#394=CARTESIAN_POINT('',(6.57379465523029,3.26311295239279,0.));
#395=CARTESIAN_POINT('',(7.14273944664239,3.32170051163209,0.));
#396=CARTESIAN_POINT('',(7.42553795676368,3.36644838844708,0.));
#397=CARTESIAN_POINT('',(7.98649064982189,3.49882275001076,0.));
#398=CARTESIAN_POINT('',(8.25911365155867,3.5853747234793,0.));
#399=CARTESIAN_POINT('',(8.65166734961332,3.755281170481,0.));
#400=CARTESIAN_POINT('',(8.77981469680153,3.81863613016487,0.));
#401=CARTESIAN_POINT('',(9.02986206115407,3.96087140837081,0.));
#402=CARTESIAN_POINT('',(9.1516822648466,4.03989685508517,0.));
#403=CARTESIAN_POINT('',(9.49677355015521,4.29584866751645,0.));
#404=CARTESIAN_POINT('',(9.70361420421952,4.49372693687532,0.));
#405=CARTESIAN_POINT('',(10.0642663437725,4.94639095692565,0.));
#406=CARTESIAN_POINT('',(10.2102672662327,5.19084995730489,0.));
#407=CARTESIAN_POINT('',(10.4394989661213,5.71291665231465,0.));
#408=CARTESIAN_POINT('',(10.5223415551084,5.99354487985879,0.));
#409=CARTESIAN_POINT('',(10.6186942940947,6.55456133688752,0.));
#410=CARTESIAN_POINT('',(10.6343597594553,6.83852120745696,0.));
#411=CARTESIAN_POINT('',(10.6032913774276,7.41306580563502,0.));
#412=CARTESIAN_POINT('',(10.5564240580138,7.69693462351273,0.));
#413=CARTESIAN_POINT('',(10.4079102994694,8.24533215175665,0.));
#414=CARTESIAN_POINT('',(10.3052000781993,8.51380954831865,0.));
#415=CARTESIAN_POINT('',(10.0475563746616,9.028071330391,0.));
#416=CARTESIAN_POINT('',(9.89562840870489,9.26873391657626,0.));
#417=CARTESIAN_POINT('',(9.54846752846579,9.71919457037045,0.));
#418=CARTESIAN_POINT('',(9.35082691113374,9.93092784638186,0.));
#419=CARTESIAN_POINT('',(8.92264222184479,10.3111920908816,0.));
#420=CARTESIAN_POINT('',(8.6934291636887,10.4794534035415,0.));
#421=CARTESIAN_POINT('',(8.20569462287071,10.7735839174536,0.));
#422=CARTESIAN_POINT('',(7.94433905051727,10.9002438563254,0.));
#423=CARTESIAN_POINT('',(7.40977120370476,11.1016067116472,0.));
#424=CARTESIAN_POINT('',(7.13576316058038,11.1774320218924,0.));
#425=CARTESIAN_POINT('',(6.57441691003898,11.2798068794992,0.));
#426=CARTESIAN_POINT('',(6.28505462646473,11.3059360850615,0.));
#427=CARTESIAN_POINT('',(5.71478750751784,11.3059266461047,0.));
#428=CARTESIAN_POINT('',(5.43147923686599,11.2805622390223,0.));
#429=CARTESIAN_POINT('',(4.86855504168741,11.178533738391,0.));
#430=CARTESIAN_POINT('',(4.5891113205632,11.1012095927086,0.));
#431=CARTESIAN_POINT('',(4.056084631552,10.9003796036622,0.));
#432=CARTESIAN_POINT('',(3.79957589734893,10.7765100936262,0.));
#433=CARTESIAN_POINT('',(3.30730096168596,10.4801428870195,0.));
#434=CARTESIAN_POINT('',(3.07535146572011,10.3094965606564,0.));
#435=CARTESIAN_POINT('',(2.6496130109017,9.93123197149009,0.));
#436=CARTESIAN_POINT('',(2.45304554092072,9.72122789515808,0.));
#437=CARTESIAN_POINT('',(2.10203789839575,9.26563562298999,0.));
#438=CARTESIAN_POINT('',(1.9502837055773,9.02411721113683,0.));
#439=CARTESIAN_POINT('',(1.69475445020813,8.51335857029782,0.));
#440=CARTESIAN_POINT('',(1.59072857678001,8.24172252743643,0.));
#441=CARTESIAN_POINT('',(1.44207662777345,7.68995442741007,0.));
#442=CARTESIAN_POINT('',(1.39592817281491,7.40742476781828,0.));
#443=CARTESIAN_POINT('',(1.36572130123328,6.83102584138821,0.));
#444=CARTESIAN_POINT('',(1.38198749541546,6.54569330220505,0.));
#445=CARTESIAN_POINT('',(1.48067391031885,5.98107415325054,0.));
#446=CARTESIAN_POINT('',(1.56407395312499,5.70246848463277,0.));
#447=CARTESIAN_POINT('',(1.79526830238294,5.18064710032948,0.));
#448=CARTESIAN_POINT('',(1.94671324410773,4.93056350436401,0.));
#449=CARTESIAN_POINT('',(2.304086645061,4.48621825584532,0.));
#450=CARTESIAN_POINT('',(2.50979549685555,4.28987314387108,0.));
#451=CARTESIAN_POINT('',(2.97411104157292,3.94774216761249,0.));
#452=CARTESIAN_POINT('',(3.22482716682181,3.80809948823246,0.));
#453=CARTESIAN_POINT('',(3.74961627402749,3.58225381716598,0.));
#454=CARTESIAN_POINT('',(4.02657511057627,3.49520702672766,0.));
#455=CARTESIAN_POINT('',(4.58203794917574,3.36521324322498,0.));
#456=CARTESIAN_POINT('',(4.86268309922241,3.32100402847865,0.));
#457=CARTESIAN_POINT('',(5.42824251293126,3.26304309923052,0.));
#458=CARTESIAN_POINT('',(5.71315821007515,3.24930161173908,0.));
#459=CARTESIAN_POINT('',(6.28684178992485,3.24930161173908,0.));
#460=CARTESIAN_POINT('',(0.,0.,0.));
#461=CARTESIAN_POINT('',(4.,3.51072751581735,0.));
#462=CARTESIAN_POINT('',(57.,0.,0.));
#463=CARTESIAN_POINT('',(57.,0.,4.375));
#464=CARTESIAN_POINT('',(57.,0.,0.));
#465=CARTESIAN_POINT('',(55.5,0.,0.));
#466=CARTESIAN_POINT('',(55.5,0.,5.875));
#467=CARTESIAN_POINT('',(57.,0.,0.));
#468=CARTESIAN_POINT('',(41.6495190528383,0.,0.));
#469=CARTESIAN_POINT('',(41.6495190528383,0.,5.875));
#470=CARTESIAN_POINT('',(0.,0.,0.));
#471=CARTESIAN_POINT('',(41.,0.,0.));
#472=CARTESIAN_POINT('',(41.,0.,6.25));
#473=CARTESIAN_POINT('',(41.6495190528383,0.,0.));
#474=CARTESIAN_POINT('',(36.2800426762176,0.,0.));
#475=CARTESIAN_POINT('',(36.2800426762176,0.,6.25));
#476=CARTESIAN_POINT('',(0.,0.,0.));
#477=CARTESIAN_POINT('',(36.2800426762176,0.,0.));
#478=CARTESIAN_POINT('',(6.,0.73099994172268,6.6070030533527));
#479=CARTESIAN_POINT('',(12.,0.73099994172268,6.6070030533527));
#480=CARTESIAN_POINT('',(6.,-6.33930992,2.));
#481=CARTESIAN_POINT('',(12.,-6.33930992,2.));
#482=CARTESIAN_POINT('',(12.,-6.33930992,2.));
#483=CARTESIAN_POINT('',(12.,-8.58863419789229,-5.12958185406972));
#484=CARTESIAN_POINT('',(12.,-2.63464809852134,-9.65069307250854));
#485=CARTESIAN_POINT('',(12.,3.62896741326118,-5.56933081934436));
#486=CARTESIAN_POINT('',(12.,9.89258292504369,-1.48796856618019));
#487=CARTESIAN_POINT('',(12.,8.16164612773004,5.78487509532536));
#488=CARTESIAN_POINT('',(12.,0.730999941722679,6.6070030533527));
#489=CARTESIAN_POINT('',(12.,5.66069008,2.));
#490=CARTESIAN_POINT('',(12.,3.41136580210771,8.36636381328402));
#491=CARTESIAN_POINT('',(12.,-3.34061432230489,8.39486486142749));
#492=CARTESIAN_POINT('',(12.,-5.64360410300506,2.04771699957657));
#493=CARTESIAN_POINT('',(12.,-7.94659388370523,-4.29943086227433));
#494=CARTESIAN_POINT('',(12.,-2.74733348925307,-8.60730031954545));
#495=CARTESIAN_POINT('',(12.,3.06109702910132,-5.16460038727465));
#496=CARTESIAN_POINT('',(6.0221442098842E-16,5.66069008,2.));
#497=CARTESIAN_POINT('',(6.02214420988421E-16,3.41136580210771,8.36636381328402));
#498=CARTESIAN_POINT('',(6.02214420988421E-16,-3.34061432230489,8.39486486142749));
#499=CARTESIAN_POINT('',(6.0221442098842E-16,-5.64360410300506,2.04771699957657));
#500=CARTESIAN_POINT('',(6.02214420988421E-16,-7.94659388370523,-4.29943086227433));
#501=CARTESIAN_POINT('',(6.02214420988421E-16,-2.74733348925307,-8.60730031954545));
#502=CARTESIAN_POINT('',(6.0221442098842E-16,3.06109702910132,-5.16460038727465));
#503=CARTESIAN_POINT('',(-8.67361737988404E-16,-6.33930992,2.));
#504=CARTESIAN_POINT('',(-8.67361737988404E-16,-8.58863419789229,-5.12958185406972));
#505=CARTESIAN_POINT('',(-8.67361737988404E-16,-2.63464809852134,-9.65069307250854));
#506=CARTESIAN_POINT('',(-8.67361737988404E-16,3.62896741326118,-5.56933081934436));
#507=CARTESIAN_POINT('',(-8.67361737988404E-16,9.89258292504369,-1.48796856618019));
#508=CARTESIAN_POINT('',(-8.67361737988404E-16,8.16164612773004,5.78487509532536));
#509=CARTESIAN_POINT('',(-8.67361737988404E-16,0.730999941722679,6.6070030533527));
#510=CARTESIAN_POINT('',(-2.33693789696523E-15,-18.33930992,2.));
#511=CARTESIAN_POINT('',(-2.33693789696523E-15,-20.5886341978923,-18.6255275214235));
#512=CARTESIAN_POINT('',(-2.33693789696523E-15,-1.92868187473779,-27.6962510064446));
#513=CARTESIAN_POINT('',(-2.33693789696523E-15,12.9015389295274,-13.1863786382653));
#514=CARTESIAN_POINT('',(-2.33693789696523E-15,27.7317597337926,1.32349372991396));
#515=CARTESIAN_POINT('',(-2.33693789696523E-15,19.0706257447132,20.1770505101962));
#516=CARTESIAN_POINT('',(-2.33693789696523E-15,-1.59909714565596,18.3786064939801));
#517=CARTESIAN_POINT('',(12.,-18.33930992,2.));
#518=CARTESIAN_POINT('',(12.,-20.5886341978923,-18.6255275214235));
#519=CARTESIAN_POINT('',(12.,-1.92868187473779,-27.6962510064446));
#520=CARTESIAN_POINT('',(12.,12.9015389295274,-13.1863786382653));
#521=CARTESIAN_POINT('',(12.,27.7317597337926,1.32349372991396));
#522=CARTESIAN_POINT('',(12.,19.0706257447132,20.1770505101962));
#523=CARTESIAN_POINT('',(12.,-1.59909714565596,18.3786064939801));
#524=CARTESIAN_POINT('',(12.,-6.33930992,2.));
#525=CARTESIAN_POINT('',(12.,-8.58863419789229,-5.12958185406972));
#526=CARTESIAN_POINT('',(12.,-2.63464809852134,-9.65069307250854));
#527=CARTESIAN_POINT('',(12.,3.62896741326118,-5.56933081934436));
#528=CARTESIAN_POINT('',(12.,9.89258292504369,-1.48796856618019));
#529=CARTESIAN_POINT('',(12.,8.16164612773004,5.78487509532536));
#530=CARTESIAN_POINT('',(12.,0.730999941722679,6.6070030533527));
#531=CARTESIAN_POINT('',(12.,0.73099994172268,6.6070030533527));
#532=CARTESIAN_POINT('',(12.,-2.56417914082697,6.97158222758014));
#533=CARTESIAN_POINT('',(12.,-5.34182919963692,5.1616697128032));
#534=CARTESIAN_POINT('',(12.,-6.33930992,2.));
#535=CARTESIAN_POINT('',(12.,3.06109702910132,-5.16460038727465));
#536=CARTESIAN_POINT('',(12.,5.63689168644439,-3.63790775243002));
#537=CARTESIAN_POINT('',(12.,6.65817080036307,-0.823214609375262));
#538=CARTESIAN_POINT('',(12.,5.66069008,2.));
#539=CARTESIAN_POINT('',(6.0221442098842E-16,3.06109702910132,-5.16460038727465));
#540=CARTESIAN_POINT('',(6.0221442098842E-16,5.63689168644439,-3.63790775243002));
#541=CARTESIAN_POINT('',(6.0221442098842E-16,6.65817080036307,-0.823214609375264));
#542=CARTESIAN_POINT('',(6.0221442098842E-16,5.66069008,2.));
#543=CARTESIAN_POINT('',(-8.67361737988404E-16,0.73099994172268,6.6070030533527));
#544=CARTESIAN_POINT('',(-8.67361737988403E-16,-2.56417914082697,6.97158222758014));
#545=CARTESIAN_POINT('',(-8.67361737988403E-16,-5.34182919963692,5.1616697128032));
#546=CARTESIAN_POINT('',(-8.67361737988404E-16,-6.33930992,2.));
#547=CARTESIAN_POINT('',(-2.33693789696523E-15,-1.59909714565596,18.3786064939801));
#548=CARTESIAN_POINT('',(-2.33693789696522E-15,-10.7652499680983,17.5810722075903));
#549=CARTESIAN_POINT('',(-2.33693789696522E-15,-17.3418291996369,11.1465540349817));
#550=CARTESIAN_POINT('',(-2.33693789696523E-15,-18.33930992,2.));
#551=CARTESIAN_POINT('',(12.,-1.59909714565596,18.3786064939801));
#552=CARTESIAN_POINT('',(12.,-10.7652499680983,17.5810722075903));
#553=CARTESIAN_POINT('',(12.,-17.3418291996369,11.1465540349817));
#554=CARTESIAN_POINT('',(12.,-18.33930992,2.));
#555=CARTESIAN_POINT('',(12.,0.73099994172268,6.6070030533527));
#556=CARTESIAN_POINT('',(12.,-2.56417914082697,6.97158222758014));
#557=CARTESIAN_POINT('',(12.,-5.34182919963692,5.1616697128032));
#558=CARTESIAN_POINT('',(12.,-6.33930992,2.));
#559=MECHANICAL_DESIGN_GEOMETRIC_PRESENTATION_REPRESENTATION('',(#35,#36),
#560);
#560=(
GEOMETRIC_REPRESENTATION_CONTEXT(3)
GLOBAL_UNCERTAINTY_ASSIGNED_CONTEXT((#561))
GLOBAL_UNIT_ASSIGNED_CONTEXT((#567,#563,#562))
REPRESENTATION_CONTEXT('AEMR-RD1204-D25-M12-L35-Z02-H',
'TOP_LEVEL_ASSEMBLY_PART')
);
#561=UNCERTAINTY_MEASURE_WITH_UNIT(LENGTH_MEASURE(2.E-5),#567,
'DISTANCE_ACCURACY_VALUE','Maximum Tolerance applied to model');
#562=(
NAMED_UNIT(*)
SI_UNIT($,.STERADIAN.)
SOLID_ANGLE_UNIT()
);
#563=(
CONVERSION_BASED_UNIT('DEGREE',#565)
NAMED_UNIT(#564)
PLANE_ANGLE_UNIT()
);
#564=DIMENSIONAL_EXPONENTS(0.,0.,0.,0.,0.,0.,0.);
#565=PLANE_ANGLE_MEASURE_WITH_UNIT(PLANE_ANGLE_MEASURE(0.0174532925),#566);
#566=(
NAMED_UNIT(*)
PLANE_ANGLE_UNIT()
SI_UNIT($,.RADIAN.)
);
#567=(
LENGTH_UNIT()
NAMED_UNIT(*)
SI_UNIT(.MILLI.,.METRE.)
);
ENDSEC;
END-ISO-10303-21;
