ISO-10303-21;
HEADER;
/* Generated by software containing ST-Developer
 * from STEP Tools, Inc. (www.steptools.com) 
 */
/* OPTION: using custom schema-name function */

FILE_DESCRIPTION(
/* description */ (''),
/* implementation_level */ '2;1');

FILE_NAME(
/* name */ 'AEMR-RP10T3-D25-M12-L35-Z02-H.stp',
/* time_stamp */ '2023-10-21T12:03:24+03:00',
/* author */ (''),
/* organization */ (''),
/* preprocessor_version */ 'ST-DEVELOPER v19.4',
/* originating_system */ 'SIEMENS PLM Software NX2306.5001',
/* authorisation */ '');

FILE_SCHEMA (('AUTOMOTIVE_DESIGN { 1 0 10303 214 3 1 1 1 }'));
ENDSEC;

DATA;
#10=PROPERTY_DEFINITION_REPRESENTATION(#14,#12);
#11=PROPERTY_DEFINITION_REPRESENTATION(#15,#13);
#12=REPRESENTATION('',(#16),#470);
#13=REPRESENTATION('',(#17),#470);
#14=PROPERTY_DEFINITION('pmi validation property','',#21);
#15=PROPERTY_DEFINITION('pmi validation property','',#21);
#16=VALUE_REPRESENTATION_ITEM('number of annotations',COUNT_MEASURE(0.));
#17=VALUE_REPRESENTATION_ITEM('number of views',COUNT_MEASURE(0.));
#18=SHAPE_REPRESENTATION_RELATIONSHIP('None',
'relationship between AEMR-RP10T3-D25-M12-L35-Z02-H-LIGHT_x_t_objects-
None and AEMR-RP10T3-D25-M12-L35-Z02-H-LIGHT_x_t_objects-None',#30,#19);
#19=ADVANCED_BREP_SHAPE_REPRESENTATION(
'AEMR-RP10T3-D25-M12-L35-Z02-H-LIGHT_x_t_objects-None',(#49,#50),#470);
#20=SHAPE_DEFINITION_REPRESENTATION(#21,#30);
#21=PRODUCT_DEFINITION_SHAPE('','',#22);
#22=PRODUCT_DEFINITION(' ','',#24,#23);
#23=PRODUCT_DEFINITION_CONTEXT('part definition',#29,'design');
#24=PRODUCT_DEFINITION_FORMATION_WITH_SPECIFIED_SOURCE(' ',' ',#26,
 .NOT_KNOWN.);
#25=PRODUCT_RELATED_PRODUCT_CATEGORY('part','',(#26));
#26=PRODUCT('AEMR-RP10T3-D25-M12-L35-Z02-H-LIGHT_x_t_objects',
'AEMR-RP10T3-D25-M12-L35-Z02-H-LIGHT_x_t_objects',' ',(#27));
#27=PRODUCT_CONTEXT(' ',#29,'mechanical');
#28=APPLICATION_PROTOCOL_DEFINITION('international standard',
'automotive_design',2010,#29);
#29=APPLICATION_CONTEXT(
'core data for automotive mechanical design processes');
#30=SHAPE_REPRESENTATION(
'AEMR-RP10T3-D25-M12-L35-Z02-H-LIGHT_x_t_objects-None',(#221),#470);
#31=DRAUGHTING_PRE_DEFINED_COLOUR('yellow');
#32=(
BOUNDED_SURFACE()
B_SPLINE_SURFACE(3,3,((#420,#421,#422,#423,#424,#425,#426),(#427,#428,#429,
#430,#431,#432,#433),(#434,#435,#436,#437,#438,#439,#440),(#441,#442,#443,
#444,#445,#446,#447),(#448,#449,#450,#451,#452,#453,#454),(#455,#456,#457,
#458,#459,#460,#461),(#462,#463,#464,#465,#466,#467,#468)),
 .UNSPECIFIED.,.T.,.T.,.F.)
B_SPLINE_SURFACE_WITH_KNOTS((1,3,3,3,1),(1,3,3,3,1),(-0.5,0.,0.5,1.,1.5),
(-0.5,0.,0.5,1.,1.5),.UNSPECIFIED.)
GEOMETRIC_REPRESENTATION_ITEM()
RATIONAL_B_SPLINE_SURFACE(((1.,0.333333333333334,0.333333333333334,1.,0.333333333333334,
0.333333333333334,1.),(0.333333333333334,0.111111111111111,0.111111111111111,
0.333333333333334,0.111111111111111,0.111111111111111,0.333333333333334),
(0.333333333333334,0.111111111111111,0.111111111111111,0.333333333333334,
0.111111111111111,0.111111111111111,0.333333333333334),(1.,0.333333333333334,
0.333333333333334,1.,0.333333333333334,0.333333333333334,1.),(0.333333333333334,
0.111111111111111,0.111111111111111,0.333333333333334,0.111111111111111,
0.111111111111111,0.333333333333334),(0.333333333333334,0.111111111111111,
0.111111111111111,0.333333333333334,0.111111111111111,0.111111111111111,
0.333333333333334),(1.,0.333333333333334,0.333333333333334,1.,0.333333333333334,
0.333333333333334,1.)))
REPRESENTATION_ITEM('')
SURFACE()
);
#33=PRESENTATION_LAYER_ASSIGNMENT('1','Layer 1',(#49,#50));
#34=STYLED_ITEM('',(#36),#49);
#35=STYLED_ITEM('',(#37),#50);
#36=PRESENTATION_STYLE_ASSIGNMENT((#38));
#37=PRESENTATION_STYLE_ASSIGNMENT((#39));
#38=SURFACE_STYLE_USAGE(.BOTH.,#40);
#39=SURFACE_STYLE_USAGE(.BOTH.,#41);
#40=SURFACE_SIDE_STYLE('',(#42));
#41=SURFACE_SIDE_STYLE('',(#43));
#42=SURFACE_STYLE_FILL_AREA(#44);
#43=SURFACE_STYLE_FILL_AREA(#45);
#44=FILL_AREA_STYLE('',(#46));
#45=FILL_AREA_STYLE('',(#47));
#46=FILL_AREA_STYLE_COLOUR('',#48);
#47=FILL_AREA_STYLE_COLOUR('',#31);
#48=COLOUR_RGB('silver gray',0.6,0.6,0.6);
#49=MANIFOLD_SOLID_BREP('',#51);
#50=MANIFOLD_SOLID_BREP('',#52);
#51=CLOSED_SHELL('',(#68,#69,#70,#71,#72,#73,#74,#75,#76,#77,#78,#79,#80,
#81,#82));
#52=CLOSED_SHELL('',(#83));
#53=FACE_OUTER_BOUND('',#140,.T.);
#54=FACE_OUTER_BOUND('',#141,.T.);
#55=SURFACE_OF_REVOLUTION('',#57,#56);
#56=AXIS1_PLACEMENT('',#412,#301);
#57=B_SPLINE_CURVE_WITH_KNOTS('',3,(#350,#351,#352,#353,#354,#355,#356,
#357,#358,#359,#360,#361,#362,#363,#364,#365,#366,#367,#368,#369,#370,#371,
#372,#373,#374,#375,#376,#377,#378,#379,#380,#381,#382,#383,#384,#385,#386,
#387,#388,#389,#390,#391,#392,#393,#394,#395,#396,#397,#398,#399,#400,#401,
#402,#403,#404,#405,#406,#407,#408,#409,#410,#411),.UNSPECIFIED.,.T.,.F.,
(2,2,2,2,2,2,2,2,2,2,2,2,2,2,2,2,2,2,2,2,2,2,2,2,2,2,2,2,2,2,2,2,2),(-0.0625,
0.,0.03125,0.0625,0.09375,0.125,0.15625,0.1875,0.21875,0.25,0.28125,0.3125,
0.34375,0.375,0.40625,0.4375,0.46875,0.5,0.53125,0.5625,0.625,0.65625,0.6875,
0.71875,0.75,0.78125,0.8125,0.84375,0.875,0.90625,0.9375,1.,1.03125),
 .UNSPECIFIED.);
#58=PLANE('',#236);
#59=PLANE('',#246);
#60=PLANE('',#248);
#61=TOROIDAL_SURFACE('',#232,6.63,0.6);
#62=CONICAL_SURFACE('',#226,5.875,29.9999999999999);
#63=CONICAL_SURFACE('',#230,6.25,15.);
#64=CONICAL_SURFACE('',#234,6.78529142706151,74.9999999999999);
#65=CONICAL_SURFACE('',#238,10.,45.);
#66=CONICAL_SURFACE('',#242,10.5,45.0000000000002);
#67=CONICAL_SURFACE('',#249,4.375,45.);
#68=ADVANCED_FACE('',(#88,#89),#84,.T.);
#69=ADVANCED_FACE('',(#90,#91),#62,.T.);
#70=ADVANCED_FACE('',(#92,#93),#85,.T.);
#71=ADVANCED_FACE('',(#94,#95),#63,.T.);
#72=ADVANCED_FACE('',(#96,#97),#61,.F.);
#73=ADVANCED_FACE('',(#98,#99),#64,.F.);
#74=ADVANCED_FACE('',(#100,#101),#58,.F.);
#75=ADVANCED_FACE('',(#102,#103),#65,.T.);
#76=ADVANCED_FACE('',(#104,#105),#86,.T.);
#77=ADVANCED_FACE('',(#106,#107),#66,.T.);
#78=ADVANCED_FACE('',(#108,#109),#87,.T.);
#79=ADVANCED_FACE('',(#110,#111),#55,.T.);
#80=ADVANCED_FACE('',(#53),#59,.F.);
#81=ADVANCED_FACE('',(#54),#60,.F.);
#82=ADVANCED_FACE('',(#112,#113),#67,.T.);
#83=ADVANCED_FACE('',(#114,#115),#32,.F.);
#84=CYLINDRICAL_SURFACE('',#224,5.875);
#85=CYLINDRICAL_SURFACE('',#228,6.25);
#86=CYLINDRICAL_SURFACE('',#240,10.5);
#87=CYLINDRICAL_SURFACE('',#244,10.3);
#88=FACE_BOUND('',#116,.T.);
#89=FACE_BOUND('',#117,.T.);
#90=FACE_BOUND('',#118,.T.);
#91=FACE_BOUND('',#119,.T.);
#92=FACE_BOUND('',#120,.T.);
#93=FACE_BOUND('',#121,.T.);
#94=FACE_BOUND('',#122,.T.);
#95=FACE_BOUND('',#123,.T.);
#96=FACE_BOUND('',#124,.T.);
#97=FACE_BOUND('',#125,.T.);
#98=FACE_BOUND('',#126,.T.);
#99=FACE_BOUND('',#127,.T.);
#100=FACE_BOUND('',#128,.T.);
#101=FACE_BOUND('',#129,.T.);
#102=FACE_BOUND('',#130,.T.);
#103=FACE_BOUND('',#131,.T.);
#104=FACE_BOUND('',#132,.T.);
#105=FACE_BOUND('',#133,.T.);
#106=FACE_BOUND('',#134,.T.);
#107=FACE_BOUND('',#135,.T.);
#108=FACE_BOUND('',#136,.T.);
#109=FACE_BOUND('',#137,.T.);
#110=FACE_BOUND('',#138,.T.);
#111=FACE_BOUND('',#139,.T.);
#112=FACE_BOUND('',#142,.T.);
#113=FACE_BOUND('',#143,.T.);
#114=FACE_BOUND('',#144,.T.);
#115=FACE_BOUND('',#145,.T.);
#116=EDGE_LOOP('',(#146));
#117=EDGE_LOOP('',(#147));
#118=EDGE_LOOP('',(#148));
#119=EDGE_LOOP('',(#149));
#120=EDGE_LOOP('',(#150));
#121=EDGE_LOOP('',(#151));
#122=EDGE_LOOP('',(#152));
#123=EDGE_LOOP('',(#153));
#124=EDGE_LOOP('',(#154));
#125=EDGE_LOOP('',(#155));
#126=EDGE_LOOP('',(#156));
#127=EDGE_LOOP('',(#157));
#128=EDGE_LOOP('',(#158));
#129=EDGE_LOOP('',(#159));
#130=EDGE_LOOP('',(#160));
#131=EDGE_LOOP('',(#161));
#132=EDGE_LOOP('',(#162));
#133=EDGE_LOOP('',(#163));
#134=EDGE_LOOP('',(#164));
#135=EDGE_LOOP('',(#165));
#136=EDGE_LOOP('',(#166));
#137=EDGE_LOOP('',(#167));
#138=EDGE_LOOP('',(#168));
#139=EDGE_LOOP('',(#169));
#140=EDGE_LOOP('',(#170));
#141=EDGE_LOOP('',(#171));
#142=EDGE_LOOP('',(#172));
#143=EDGE_LOOP('',(#173));
#144=EDGE_LOOP('',(#174));
#145=EDGE_LOOP('',(#175));
#146=ORIENTED_EDGE('',*,*,#191,.F.);
#147=ORIENTED_EDGE('',*,*,#192,.T.);
#148=ORIENTED_EDGE('',*,*,#193,.F.);
#149=ORIENTED_EDGE('',*,*,#191,.T.);
#150=ORIENTED_EDGE('',*,*,#194,.F.);
#151=ORIENTED_EDGE('',*,*,#193,.T.);
#152=ORIENTED_EDGE('',*,*,#195,.F.);
#153=ORIENTED_EDGE('',*,*,#194,.T.);
#154=ORIENTED_EDGE('',*,*,#196,.F.);
#155=ORIENTED_EDGE('',*,*,#195,.T.);
#156=ORIENTED_EDGE('',*,*,#197,.F.);
#157=ORIENTED_EDGE('',*,*,#196,.T.);
#158=ORIENTED_EDGE('',*,*,#198,.F.);
#159=ORIENTED_EDGE('',*,*,#197,.T.);
#160=ORIENTED_EDGE('',*,*,#199,.F.);
#161=ORIENTED_EDGE('',*,*,#198,.T.);
#162=ORIENTED_EDGE('',*,*,#200,.F.);
#163=ORIENTED_EDGE('',*,*,#199,.T.);
#164=ORIENTED_EDGE('',*,*,#201,.F.);
#165=ORIENTED_EDGE('',*,*,#200,.T.);
#166=ORIENTED_EDGE('',*,*,#202,.F.);
#167=ORIENTED_EDGE('',*,*,#201,.T.);
#168=ORIENTED_EDGE('',*,*,#203,.F.);
#169=ORIENTED_EDGE('',*,*,#202,.T.);
#170=ORIENTED_EDGE('',*,*,#203,.T.);
#171=ORIENTED_EDGE('',*,*,#204,.F.);
#172=ORIENTED_EDGE('',*,*,#192,.F.);
#173=ORIENTED_EDGE('',*,*,#204,.T.);
#174=ORIENTED_EDGE('',*,*,#205,.T.);
#175=ORIENTED_EDGE('',*,*,#205,.F.);
#176=VERTEX_POINT('',#314);
#177=VERTEX_POINT('',#316);
#178=VERTEX_POINT('',#319);
#179=VERTEX_POINT('',#322);
#180=VERTEX_POINT('',#325);
#181=VERTEX_POINT('',#328);
#182=VERTEX_POINT('',#331);
#183=VERTEX_POINT('',#334);
#184=VERTEX_POINT('',#337);
#185=VERTEX_POINT('',#340);
#186=VERTEX_POINT('',#343);
#187=VERTEX_POINT('',#346);
#188=VERTEX_POINT('',#349);
#189=VERTEX_POINT('',#415);
#190=VERTEX_POINT('',#419);
#191=EDGE_CURVE('',#176,#176,#206,.T.);
#192=EDGE_CURVE('',#177,#177,#207,.T.);
#193=EDGE_CURVE('',#178,#178,#208,.T.);
#194=EDGE_CURVE('',#179,#179,#209,.T.);
#195=EDGE_CURVE('',#180,#180,#210,.T.);
#196=EDGE_CURVE('',#181,#181,#211,.T.);
#197=EDGE_CURVE('',#182,#182,#212,.T.);
#198=EDGE_CURVE('',#183,#183,#213,.T.);
#199=EDGE_CURVE('',#184,#184,#214,.T.);
#200=EDGE_CURVE('',#185,#185,#215,.T.);
#201=EDGE_CURVE('',#186,#186,#216,.T.);
#202=EDGE_CURVE('',#187,#187,#217,.T.);
#203=EDGE_CURVE('',#188,#188,#218,.T.);
#204=EDGE_CURVE('',#189,#189,#219,.T.);
#205=EDGE_CURVE('',#190,#190,#220,.T.);
#206=CIRCLE('',#222,5.875);
#207=CIRCLE('',#223,5.875);
#208=CIRCLE('',#225,6.25);
#209=CIRCLE('',#227,6.25);
#210=CIRCLE('',#229,6.05044450422656);
#211=CIRCLE('',#231,6.78529142706151);
#212=CIRCLE('',#233,7.53004267621758);
#213=CIRCLE('',#235,10.);
#214=CIRCLE('',#237,10.5);
#215=CIRCLE('',#239,10.5);
#216=CIRCLE('',#241,10.3);
#217=CIRCLE('',#243,10.3);
#218=CIRCLE('',#245,5.19742182161247);
#219=CIRCLE('',#247,4.375);
#220=CIRCLE('',#250,5.);
#221=AXIS2_PLACEMENT_3D('',#312,#251,#252);
#222=AXIS2_PLACEMENT_3D('',#313,#253,#254);
#223=AXIS2_PLACEMENT_3D('',#315,#255,#256);
#224=AXIS2_PLACEMENT_3D('',#317,#257,#258);
#225=AXIS2_PLACEMENT_3D('',#318,#259,#260);
#226=AXIS2_PLACEMENT_3D('',#320,#261,#262);
#227=AXIS2_PLACEMENT_3D('',#321,#263,#264);
#228=AXIS2_PLACEMENT_3D('',#323,#265,#266);
#229=AXIS2_PLACEMENT_3D('',#324,#267,#268);
#230=AXIS2_PLACEMENT_3D('',#326,#269,#270);
#231=AXIS2_PLACEMENT_3D('',#327,#271,#272);
#232=AXIS2_PLACEMENT_3D('',#329,#273,#274);
#233=AXIS2_PLACEMENT_3D('',#330,#275,#276);
#234=AXIS2_PLACEMENT_3D('',#332,#277,#278);
#235=AXIS2_PLACEMENT_3D('',#333,#279,#280);
#236=AXIS2_PLACEMENT_3D('',#335,#281,#282);
#237=AXIS2_PLACEMENT_3D('',#336,#283,#284);
#238=AXIS2_PLACEMENT_3D('',#338,#285,#286);
#239=AXIS2_PLACEMENT_3D('',#339,#287,#288);
#240=AXIS2_PLACEMENT_3D('',#341,#289,#290);
#241=AXIS2_PLACEMENT_3D('',#342,#291,#292);
#242=AXIS2_PLACEMENT_3D('',#344,#293,#294);
#243=AXIS2_PLACEMENT_3D('',#345,#295,#296);
#244=AXIS2_PLACEMENT_3D('',#347,#297,#298);
#245=AXIS2_PLACEMENT_3D('',#348,#299,#300);
#246=AXIS2_PLACEMENT_3D('',#413,#302,#303);
#247=AXIS2_PLACEMENT_3D('',#414,#304,#305);
#248=AXIS2_PLACEMENT_3D('',#416,#306,#307);
#249=AXIS2_PLACEMENT_3D('',#417,#308,#309);
#250=AXIS2_PLACEMENT_3D('',#418,#310,#311);
#251=DIRECTION('',(0.,0.,1.));
#252=DIRECTION('',(1.,0.,0.));
#253=DIRECTION('',(-1.,0.,0.));
#254=DIRECTION('',(0.,0.,1.));
#255=DIRECTION('',(-1.,0.,0.));
#256=DIRECTION('',(0.,0.,1.));
#257=DIRECTION('',(-1.,0.,0.));
#258=DIRECTION('',(0.,0.,1.));
#259=DIRECTION('',(-1.,0.,0.));
#260=DIRECTION('',(0.,0.,1.));
#261=DIRECTION('',(-1.,0.,0.));
#262=DIRECTION('',(-7.13847043721062E-17,0.,1.));
#263=DIRECTION('',(-1.,0.,0.));
#264=DIRECTION('',(0.,0.,1.));
#265=DIRECTION('',(-1.,0.,0.));
#266=DIRECTION('',(0.,0.,1.));
#267=DIRECTION('',(-1.,0.,0.));
#268=DIRECTION('',(0.,0.,1.));
#269=DIRECTION('',(1.,0.,0.));
#270=DIRECTION('',(-2.27754300008932E-16,0.,-1.));
#271=DIRECTION('',(-1.,0.,0.));
#272=DIRECTION('',(0.,0.,1.));
#273=DIRECTION('',(-1.,0.,0.));
#274=DIRECTION('',(0.,0.,1.));
#275=DIRECTION('',(-1.,0.,0.));
#276=DIRECTION('',(0.,0.,1.));
#277=DIRECTION('',(1.,0.,0.));
#278=DIRECTION('',(-1.85589678717682E-17,0.,-1.));
#279=DIRECTION('',(-1.,0.,0.));
#280=DIRECTION('',(0.,0.,1.));
#281=DIRECTION('',(-1.,0.,0.));
#282=DIRECTION('',(0.,0.,1.));
#283=DIRECTION('',(-1.,0.,0.));
#284=DIRECTION('',(0.,0.,1.));
#285=DIRECTION('',(-1.,0.,0.));
#286=DIRECTION('',(2.74807679362663E-17,0.,1.));
#287=DIRECTION('',(-1.,0.,0.));
#288=DIRECTION('',(0.,0.,1.));
#289=DIRECTION('',(-1.,0.,0.));
#290=DIRECTION('',(0.,0.,1.));
#291=DIRECTION('',(-1.,0.,0.));
#292=DIRECTION('',(0.,0.,1.));
#293=DIRECTION('',(1.,0.,0.));
#294=DIRECTION('',(-1.03001888726974E-16,0.,-1.));
#295=DIRECTION('',(-1.,0.,0.));
#296=DIRECTION('',(0.,0.,1.));
#297=DIRECTION('',(-1.,0.,0.));
#298=DIRECTION('',(0.,0.,1.));
#299=DIRECTION('',(-1.,0.,0.));
#300=DIRECTION('',(0.,0.,1.));
#301=DIRECTION('',(-1.,0.,0.));
#302=DIRECTION('',(1.,0.,0.));
#303=DIRECTION('',(0.,0.,-1.));
#304=DIRECTION('',(-1.,0.,0.));
#305=DIRECTION('',(0.,0.,1.));
#306=DIRECTION('',(-1.,0.,0.));
#307=DIRECTION('',(0.,0.,1.));
#308=DIRECTION('',(-1.,0.,0.));
#309=DIRECTION('',(4.83606793551718E-17,0.,1.));
#310=DIRECTION('',(0.0174524064372835,-0.0697458494953012,0.99741211642316));
#311=DIRECTION('',(0.,-0.997564050259824,-0.0697564737441255));
#312=CARTESIAN_POINT('',(0.,0.,0.));
#313=CARTESIAN_POINT('',(41.6495190528384,0.,0.));
#314=CARTESIAN_POINT('',(41.6495190528384,0.,5.875));
#315=CARTESIAN_POINT('',(55.5,0.,0.));
#316=CARTESIAN_POINT('',(55.5,0.,5.875));
#317=CARTESIAN_POINT('',(0.,0.,0.));
#318=CARTESIAN_POINT('',(41.,0.,0.));
#319=CARTESIAN_POINT('',(41.,0.,6.25));
#320=CARTESIAN_POINT('',(41.6495190528384,0.,0.));
#321=CARTESIAN_POINT('',(36.2800426762176,0.,0.));
#322=CARTESIAN_POINT('',(36.2800426762176,0.,6.25));
#323=CARTESIAN_POINT('',(0.,0.,0.));
#324=CARTESIAN_POINT('',(35.5352914270615,0.,0.));
#325=CARTESIAN_POINT('',(35.5352914270615,0.,6.05044450422656));
#326=CARTESIAN_POINT('',(36.2800426762176,0.,0.));
#327=CARTESIAN_POINT('',(34.8004445042265,0.,0.));
#328=CARTESIAN_POINT('',(34.8004445042265,0.,6.78529142706151));
#329=CARTESIAN_POINT('',(35.38,0.,0.));
#330=CARTESIAN_POINT('',(35.,0.,0.));
#331=CARTESIAN_POINT('',(35.,0.,7.53004267621758));
#332=CARTESIAN_POINT('',(34.8004445042265,0.,0.));
#333=CARTESIAN_POINT('',(35.,0.,0.));
#334=CARTESIAN_POINT('',(35.,0.,10.));
#335=CARTESIAN_POINT('',(35.,10.,0.));
#336=CARTESIAN_POINT('',(34.5,0.,0.));
#337=CARTESIAN_POINT('',(34.5,0.,10.5));
#338=CARTESIAN_POINT('',(35.,0.,0.));
#339=CARTESIAN_POINT('',(31.2,0.,0.));
#340=CARTESIAN_POINT('',(31.2,0.,10.5));
#341=CARTESIAN_POINT('',(0.,0.,0.));
#342=CARTESIAN_POINT('',(31.,0.,0.));
#343=CARTESIAN_POINT('',(31.,0.,10.3));
#344=CARTESIAN_POINT('',(31.2,0.,0.));
#345=CARTESIAN_POINT('',(8.44751017536632,0.,0.));
#346=CARTESIAN_POINT('',(8.44751017536632,0.,10.3));
#347=CARTESIAN_POINT('',(0.,0.,0.));
#348=CARTESIAN_POINT('',(3.00000000000072,0.,0.));
#349=CARTESIAN_POINT('',(3.00000000000072,0.,5.19742182161247));
#350=CARTESIAN_POINT('',(4.41668122782508,4.87176055959984,0.));
#351=CARTESIAN_POINT('',(5.18658801942637,4.88149267212388,0.));
#352=CARTESIAN_POINT('',(5.4420454249972,4.90105731661028,0.));
#353=CARTESIAN_POINT('',(5.94788659315932,4.97379389381889,0.));
#354=CARTESIAN_POINT('',(6.20038851305716,5.02750998076341,0.));
#355=CARTESIAN_POINT('',(6.6909583712457,5.17221392691859,0.));
#356=CARTESIAN_POINT('',(6.92861980030919,5.26278736336931,0.));
#357=CARTESIAN_POINT('',(7.38587206757826,5.48712602588443,0.));
#358=CARTESIAN_POINT('',(7.60758797600917,5.62282918380446,0.));
#359=CARTESIAN_POINT('',(8.01161848535945,5.93594424657197,0.));
#360=CARTESIAN_POINT('',(8.19604580281001,6.11421342297063,0.));
#361=CARTESIAN_POINT('',(8.52023082351965,6.51504973151993,0.));
#362=CARTESIAN_POINT('',(8.65503051199065,6.73106777272146,0.));
#363=CARTESIAN_POINT('',(8.87035791177236,7.19412434507619,0.));
#364=CARTESIAN_POINT('',(8.9500739775893,7.44233138908961,0.));
#365=CARTESIAN_POINT('',(9.04663166188602,7.94108511314916,0.));
#366=CARTESIAN_POINT('',(9.06538535640963,8.19629742327697,0.));
#367=CARTESIAN_POINT('',(9.04412716435476,8.71090802072022,0.));
#368=CARTESIAN_POINT('',(9.00477354867611,8.9619241059186,0.));
#369=CARTESIAN_POINT('',(8.87415930684703,9.45259127261212,0.));
#370=CARTESIAN_POINT('',(8.78115694262881,9.69505588226737,0.));
#371=CARTESIAN_POINT('',(8.55088004818627,10.1505579527775,0.));
#372=CARTESIAN_POINT('',(8.41425165279904,10.3642447445626,0.));
#373=CARTESIAN_POINT('',(8.1001011192675,10.7648551386595,0.));
#374=CARTESIAN_POINT('',(7.92072703481005,10.9527745457495,0.));
#375=CARTESIAN_POINT('',(7.536385850483,11.2862850875851,0.));
#376=CARTESIAN_POINT('',(7.33013674835112,11.4340407809227,0.));
#377=CARTESIAN_POINT('',(6.88991491714871,11.6921378956324,0.));
#378=CARTESIAN_POINT('',(6.65525836808234,11.8020948209881,0.));
#379=CARTESIAN_POINT('',(6.17746399846434,11.975599654707,0.));
#380=CARTESIAN_POINT('',(5.93202773585119,12.0406811518567,0.));
#381=CARTESIAN_POINT('',(5.4279725933548,12.1271561141459,0.));
#382=CARTESIAN_POINT('',(5.17047530923761,12.1478209235426,0.));
#383=CARTESIAN_POINT('',(4.66236717623347,12.1436475158448,0.));
#384=CARTESIAN_POINT('',(4.40929444473859,12.1193144283512,0.));
#385=CARTESIAN_POINT('',(3.9051698873975,12.0248353127877,0.));
#386=CARTESIAN_POINT('',(3.65778667319063,11.9550405218798,0.));
#387=CARTESIAN_POINT('',(2.94538800942864,11.6838863960764,0.));
#388=CARTESIAN_POINT('',(2.4978702466428,11.4144132094415,0.));
#389=CARTESIAN_POINT('',(1.92750980651387,10.9072471053423,0.));
#390=CARTESIAN_POINT('',(1.75081427699823,10.718212841672,0.));
#391=CARTESIAN_POINT('',(1.43897823610987,10.3127612790246,0.));
#392=CARTESIAN_POINT('',(1.30367107531574,10.0971454947749,0.));
#393=CARTESIAN_POINT('',(1.07597220919943,9.63907466018056,0.));
#394=CARTESIAN_POINT('',(0.984396099789153,9.39678514841924,0.));
#395=CARTESIAN_POINT('',(0.854882714381779,8.90393219329671,0.));
#396=CARTESIAN_POINT('',(0.815535343475148,8.64827617887735,0.));
#397=CARTESIAN_POINT('',(0.794686887066556,8.13631134969806,0.));
#398=CARTESIAN_POINT('',(0.812575684537405,7.88207998136925,0.));
#399=CARTESIAN_POINT('',(0.90917209374445,7.37737864268197,0.));
#400=CARTESIAN_POINT('',(0.987467752972923,7.13222823349816,0.));
#401=CARTESIAN_POINT('',(1.20066485038293,6.67010479087236,0.));
#402=CARTESIAN_POINT('',(1.33875572252513,6.44846891754675,0.));
#403=CARTESIAN_POINT('',(1.65856949367455,6.05381600514468,0.));
#404=CARTESIAN_POINT('',(1.84069347512515,5.87808502174531,0.));
#405=CARTESIAN_POINT('',(2.24670210073389,5.56721527549233,0.));
#406=CARTESIAN_POINT('',(2.46859099348352,5.43447024346327,0.));
#407=CARTESIAN_POINT('',(2.92816722245482,5.21679011303309,0.));
#408=CARTESIAN_POINT('',(3.16968574623321,5.12961704940519,0.));
#409=CARTESIAN_POINT('',(3.91165428143567,4.92772134319701,0.));
#410=CARTESIAN_POINT('',(4.41668122782508,4.87176055959984,0.));
#411=CARTESIAN_POINT('',(5.18658801942637,4.88149267212388,0.));
#412=CARTESIAN_POINT('',(0.,0.,0.));
#413=CARTESIAN_POINT('',(3.00000000000036,5.19742182161268,0.));
#414=CARTESIAN_POINT('',(57.,0.,0.));
#415=CARTESIAN_POINT('',(57.,0.,4.375));
#416=CARTESIAN_POINT('',(57.,0.,0.));
#417=CARTESIAN_POINT('',(57.,0.,0.));
#418=CARTESIAN_POINT('',(4.99923847578196,-7.50460431834293,-0.0870494662617862));
#419=CARTESIAN_POINT('',(4.99923847578196,-12.4924245696421,-0.435831834982414));
#420=CARTESIAN_POINT('',(4.99923847578196,-12.4924245696421,-0.435831834982413));
#421=CARTESIAN_POINT('',(4.99923847578195,-11.6207608996772,-25.4206809742665));
#422=CARTESIAN_POINT('',(4.99923847578195,13.3640882396069,-24.5490173043017));
#423=CARTESIAN_POINT('',(4.99923847578196,12.4924245696421,0.435831834982413));
#424=CARTESIAN_POINT('',(4.99923847578195,11.6207608996772,25.4206809742665));
#425=CARTESIAN_POINT('',(4.99923847578195,-13.3640882396069,24.5490173043017));
#426=CARTESIAN_POINT('',(4.99923847578196,-12.4924245696421,-0.435831834982413));
#427=CARTESIAN_POINT('',(14.9977154273459,-12.4802503863279,-0.609930767505985));
#428=CARTESIAN_POINT('',(14.9977154273459,-11.260388851316,-25.5704315401618));
#429=CARTESIAN_POINT('',(14.9977154273459,13.7001119213399,-24.3505700051499));
#430=CARTESIAN_POINT('',(14.9977154273459,12.4802503863279,0.609930767505985));
#431=CARTESIAN_POINT('',(14.9977154273459,11.260388851316,25.5704315401618));
#432=CARTESIAN_POINT('',(14.9977154273459,-13.7001119213399,24.3505700051499));
#433=CARTESIAN_POINT('',(14.9977154273459,-12.4802503863279,-0.609930767505985));
#434=CARTESIAN_POINT('',(14.9977154273459,-2.50460988372967,0.087633969935269));
#435=CARTESIAN_POINT('',(14.9977154273459,-2.67987782360021,-4.92158579752407));
#436=CARTESIAN_POINT('',(14.9977154273459,2.32934194385913,-5.09685373739461));
#437=CARTESIAN_POINT('',(14.9977154273459,2.50460988372967,-0.087633969935269));
#438=CARTESIAN_POINT('',(14.9977154273459,2.67987782360021,4.92158579752407));
#439=CARTESIAN_POINT('',(14.9977154273459,-2.32934194385913,5.09685373739461));
#440=CARTESIAN_POINT('',(14.9977154273459,-2.50460988372967,0.087633969935269));
#441=CARTESIAN_POINT('',(4.99923847578196,-2.51678406704381,0.261732902458841));
#442=CARTESIAN_POINT('',(4.99923847578195,-3.04024987196149,-4.77183523162878));
#443=CARTESIAN_POINT('',(4.99923847578195,1.99331826212613,-5.29530103654645));
#444=CARTESIAN_POINT('',(4.99923847578196,2.51678406704381,-0.261732902458841));
#445=CARTESIAN_POINT('',(4.99923847578195,3.04024987196149,4.77183523162878));
#446=CARTESIAN_POINT('',(4.99923847578195,-1.99331826212613,5.29530103654645));
#447=CARTESIAN_POINT('',(4.99923847578196,-2.51678406704381,0.261732902458841));
#448=CARTESIAN_POINT('',(-4.99923847578196,-2.52895825035795,0.435831834982413));
#449=CARTESIAN_POINT('',(-4.99923847578196,-3.40062192032278,-4.6220846657335));
#450=CARTESIAN_POINT('',(-4.99923847578196,1.65729458039312,-5.49374833569832));
#451=CARTESIAN_POINT('',(-4.99923847578196,2.52895825035795,-0.435831834982413));
#452=CARTESIAN_POINT('',(-4.99923847578196,3.40062192032278,4.6220846657335));
#453=CARTESIAN_POINT('',(-4.99923847578196,-1.65729458039312,5.49374833569832));
#454=CARTESIAN_POINT('',(-4.99923847578196,-2.52895825035795,0.435831834982413));
#455=CARTESIAN_POINT('',(-4.99923847578196,-12.5045987529562,-0.261732902458841));
#456=CARTESIAN_POINT('',(-4.99923847578196,-11.9811329480385,-25.2709304083713));
#457=CARTESIAN_POINT('',(-4.99923847578196,13.0280645578739,-24.7474646034536));
#458=CARTESIAN_POINT('',(-4.99923847578196,12.5045987529562,0.261732902458841));
#459=CARTESIAN_POINT('',(-4.99923847578196,11.9811329480385,25.2709304083713));
#460=CARTESIAN_POINT('',(-4.99923847578196,-13.0280645578739,24.7474646034536));
#461=CARTESIAN_POINT('',(-4.99923847578196,-12.5045987529562,-0.261732902458841));
#462=CARTESIAN_POINT('',(4.99923847578196,-12.4924245696421,-0.435831834982413));
#463=CARTESIAN_POINT('',(4.99923847578195,-11.6207608996772,-25.4206809742665));
#464=CARTESIAN_POINT('',(4.99923847578195,13.3640882396069,-24.5490173043017));
#465=CARTESIAN_POINT('',(4.99923847578196,12.4924245696421,0.435831834982413));
#466=CARTESIAN_POINT('',(4.99923847578195,11.6207608996772,25.4206809742665));
#467=CARTESIAN_POINT('',(4.99923847578195,-13.3640882396069,24.5490173043017));
#468=CARTESIAN_POINT('',(4.99923847578196,-12.4924245696421,-0.435831834982413));
#469=MECHANICAL_DESIGN_GEOMETRIC_PRESENTATION_REPRESENTATION('',(#34,#35),
#470);
#470=(
GEOMETRIC_REPRESENTATION_CONTEXT(3)
GLOBAL_UNCERTAINTY_ASSIGNED_CONTEXT((#471))
GLOBAL_UNIT_ASSIGNED_CONTEXT((#477,#473,#472))
REPRESENTATION_CONTEXT('AEMR-RP10T3-D25-M12-L35-Z02-H',
'TOP_LEVEL_ASSEMBLY_PART')
);
#471=UNCERTAINTY_MEASURE_WITH_UNIT(LENGTH_MEASURE(2.E-5),#477,
'DISTANCE_ACCURACY_VALUE','Maximum Tolerance applied to model');
#472=(
NAMED_UNIT(*)
SI_UNIT($,.STERADIAN.)
SOLID_ANGLE_UNIT()
);
#473=(
CONVERSION_BASED_UNIT('DEGREE',#475)
NAMED_UNIT(#474)
PLANE_ANGLE_UNIT()
);
#474=DIMENSIONAL_EXPONENTS(0.,0.,0.,0.,0.,0.,0.);
#475=PLANE_ANGLE_MEASURE_WITH_UNIT(PLANE_ANGLE_MEASURE(0.0174532925),#476);
#476=(
NAMED_UNIT(*)
PLANE_ANGLE_UNIT()
SI_UNIT($,.RADIAN.)
);
#477=(
LENGTH_UNIT()
NAMED_UNIT(*)
SI_UNIT(.MILLI.,.METRE.)
);
ENDSEC;
END-ISO-10303-21;
