ISO-10303-21;
HEADER;
/* Generated by software containing ST-Developer
 * from STEP Tools, Inc. (www.steptools.com) 
 */
/* OPTION: using custom schema-name function */

FILE_DESCRIPTION(
/* description */ (''),
/* implementation_level */ '2;1');

FILE_NAME(
/* name */ 'AEMR-RP10T3A-D32-M16-L43-Z04-H.stp',
/* time_stamp */ '2023-10-21T11:53:01+03:00',
/* author */ (''),
/* organization */ (''),
/* preprocessor_version */ 'ST-DEVELOPER v19.4',
/* originating_system */ 'SIEMENS PLM Software NX2306.5001',
/* authorisation */ '');

FILE_SCHEMA (('AUTOMOTIVE_DESIGN { 1 0 10303 214 3 1 1 1 }'));
ENDSEC;

DATA;
#10=PROPERTY_DEFINITION_REPRESENTATION(#14,#12);
#11=PROPERTY_DEFINITION_REPRESENTATION(#15,#13);
#12=REPRESENTATION('',(#16),#492);
#13=REPRESENTATION('',(#17),#492);
#14=PROPERTY_DEFINITION('pmi validation property','',#21);
#15=PROPERTY_DEFINITION('pmi validation property','',#21);
#16=VALUE_REPRESENTATION_ITEM('number of annotations',COUNT_MEASURE(0.));
#17=VALUE_REPRESENTATION_ITEM('number of views',COUNT_MEASURE(0.));
#18=SHAPE_REPRESENTATION_RELATIONSHIP('None',
'relationship between AEMR-RP10T3A-D32-M16-L43-Z04-H-LIGHT_x_t_objects
-None and AEMR-RP10T3A-D32-M16-L43-Z04-H-LIGHT_x_t_objects-None',#30,#19);
#19=ADVANCED_BREP_SHAPE_REPRESENTATION(
'AEMR-RP10T3A-D32-M16-L43-Z04-H-LIGHT_x_t_objects-None',(#49,#50),#492);
#20=SHAPE_DEFINITION_REPRESENTATION(#21,#30);
#21=PRODUCT_DEFINITION_SHAPE('','',#22);
#22=PRODUCT_DEFINITION(' ','',#24,#23);
#23=PRODUCT_DEFINITION_CONTEXT('part definition',#29,'design');
#24=PRODUCT_DEFINITION_FORMATION_WITH_SPECIFIED_SOURCE(' ',' ',#26,
 .NOT_KNOWN.);
#25=PRODUCT_RELATED_PRODUCT_CATEGORY('part','',(#26));
#26=PRODUCT('AEMR-RP10T3A-D32-M16-L43-Z04-H-LIGHT_x_t_objects',
'AEMR-RP10T3A-D32-M16-L43-Z04-H-LIGHT_x_t_objects',' ',(#27));
#27=PRODUCT_CONTEXT(' ',#29,'mechanical');
#28=APPLICATION_PROTOCOL_DEFINITION('international standard',
'automotive_design',2010,#29);
#29=APPLICATION_CONTEXT(
'core data for automotive mechanical design processes');
#30=SHAPE_REPRESENTATION(
'AEMR-RP10T3A-D32-M16-L43-Z04-H-LIGHT_x_t_objects-None',(#232),#492);
#31=DRAUGHTING_PRE_DEFINED_COLOUR('yellow');
#32=(
BOUNDED_SURFACE()
B_SPLINE_SURFACE(3,3,((#442,#443,#444,#445,#446,#447,#448),(#449,#450,#451,
#452,#453,#454,#455),(#456,#457,#458,#459,#460,#461,#462),(#463,#464,#465,
#466,#467,#468,#469),(#470,#471,#472,#473,#474,#475,#476),(#477,#478,#479,
#480,#481,#482,#483),(#484,#485,#486,#487,#488,#489,#490)),
 .UNSPECIFIED.,.T.,.T.,.F.)
B_SPLINE_SURFACE_WITH_KNOTS((1,3,3,3,1),(1,3,3,3,1),(-0.5,0.,0.5,1.,1.5),
(-0.5,0.,0.5,1.,1.5),.UNSPECIFIED.)
GEOMETRIC_REPRESENTATION_ITEM()
RATIONAL_B_SPLINE_SURFACE(((1.,0.333333333333334,0.333333333333334,1.,0.333333333333334,
0.333333333333334,1.),(0.333333333333334,0.111111111111111,0.111111111111111,
0.333333333333334,0.111111111111111,0.111111111111111,0.333333333333334),
(0.333333333333334,0.111111111111111,0.111111111111111,0.333333333333334,
0.111111111111111,0.111111111111111,0.333333333333334),(1.,0.333333333333334,
0.333333333333334,1.,0.333333333333334,0.333333333333334,1.),(0.333333333333334,
0.111111111111111,0.111111111111111,0.333333333333334,0.111111111111111,
0.111111111111111,0.333333333333334),(0.333333333333334,0.111111111111111,
0.111111111111111,0.333333333333334,0.111111111111111,0.111111111111111,
0.333333333333334),(1.,0.333333333333334,0.333333333333334,1.,0.333333333333334,
0.333333333333334,1.)))
REPRESENTATION_ITEM('')
SURFACE()
);
#33=PRESENTATION_LAYER_ASSIGNMENT('1','Layer 1',(#49,#50));
#34=STYLED_ITEM('',(#36),#49);
#35=STYLED_ITEM('',(#37),#50);
#36=PRESENTATION_STYLE_ASSIGNMENT((#38));
#37=PRESENTATION_STYLE_ASSIGNMENT((#39));
#38=SURFACE_STYLE_USAGE(.BOTH.,#40);
#39=SURFACE_STYLE_USAGE(.BOTH.,#41);
#40=SURFACE_SIDE_STYLE('',(#42));
#41=SURFACE_SIDE_STYLE('',(#43));
#42=SURFACE_STYLE_FILL_AREA(#44);
#43=SURFACE_STYLE_FILL_AREA(#45);
#44=FILL_AREA_STYLE('',(#46));
#45=FILL_AREA_STYLE('',(#47));
#46=FILL_AREA_STYLE_COLOUR('',#48);
#47=FILL_AREA_STYLE_COLOUR('',#31);
#48=COLOUR_RGB('silver gray',0.6,0.6,0.6);
#49=MANIFOLD_SOLID_BREP('',#51);
#50=MANIFOLD_SOLID_BREP('',#52);
#51=CLOSED_SHELL('',(#72,#73,#74,#75,#76,#77,#78,#79,#80,#81,#82,#83,#84,
#85,#86,#87));
#52=CLOSED_SHELL('',(#88));
#53=FACE_OUTER_BOUND('',#136,.T.);
#54=FACE_OUTER_BOUND('',#137,.T.);
#55=SURFACE_OF_REVOLUTION('',#57,#56);
#56=AXIS1_PLACEMENT('',#419,#298);
#57=B_SPLINE_CURVE_WITH_KNOTS('',3,(#355,#356,#357,#358,#359,#360,#361,
#362,#363,#364,#365,#366,#367,#368,#369,#370,#371,#372,#373,#374,#375,#376,
#377,#378,#379,#380,#381,#382,#383,#384,#385,#386,#387,#388,#389,#390,#391,
#392,#393,#394,#395,#396,#397,#398,#399,#400,#401,#402,#403,#404,#405,#406,
#407,#408,#409,#410,#411,#412,#413,#414,#415,#416,#417,#418),
 .UNSPECIFIED.,.T.,.F.,(2,2,2,2,2,2,2,2,2,2,2,2,2,2,2,2,2,2,2,2,2,2,2,2,
2,2,2,2,2,2,2,2,2,2),(-0.03125,0.,0.0625,0.09375,0.125,0.15625,0.1875,0.21875,
0.25,0.28125,0.3125,0.34375,0.375,0.40625,0.4375,0.46875,0.5,0.53125,0.5625,
0.59375,0.625,0.65625,0.6875,0.71875,0.75,0.78125,0.8125,0.84375,0.875,
0.90625,0.9375,0.96875,1.,1.0625),.UNSPECIFIED.);
#58=CYLINDRICAL_SURFACE('',#243,14.5);
#59=CYLINDRICAL_SURFACE('',#247,14.);
#60=CYLINDRICAL_SURFACE('',#255,7.875);
#61=CYLINDRICAL_SURFACE('',#259,8.5);
#62=CYLINDRICAL_SURFACE('',#262,8.3);
#63=PLANE('',#239);
#64=PLANE('',#249);
#65=PLANE('',#251);
#66=CONICAL_SURFACE('',#237,8.80352761804101,74.9999999999995);
#67=CONICAL_SURFACE('',#241,14.,45.0000000000007);
#68=CONICAL_SURFACE('',#245,14.5,44.9999999999992);
#69=CONICAL_SURFACE('',#253,5.875,45.0000000000002);
#70=CONICAL_SURFACE('',#257,7.875,30.0000000000005);
#71=CONICAL_SURFACE('',#261,8.5,15.);
#72=ADVANCED_FACE('',(#90,#91),#89,.F.);
#73=ADVANCED_FACE('',(#92,#93),#66,.F.);
#74=ADVANCED_FACE('',(#94,#95),#63,.F.);
#75=ADVANCED_FACE('',(#96,#97),#67,.T.);
#76=ADVANCED_FACE('',(#98,#99),#58,.T.);
#77=ADVANCED_FACE('',(#100,#101),#68,.T.);
#78=ADVANCED_FACE('',(#102,#103),#59,.T.);
#79=ADVANCED_FACE('',(#104,#105),#55,.T.);
#80=ADVANCED_FACE('',(#53),#64,.F.);
#81=ADVANCED_FACE('',(#54),#65,.F.);
#82=ADVANCED_FACE('',(#106,#107),#69,.T.);
#83=ADVANCED_FACE('',(#108,#109),#60,.T.);
#84=ADVANCED_FACE('',(#110,#111),#70,.T.);
#85=ADVANCED_FACE('',(#112,#113),#61,.T.);
#86=ADVANCED_FACE('',(#114,#115),#71,.T.);
#87=ADVANCED_FACE('',(#116,#117),#62,.T.);
#88=ADVANCED_FACE('',(#118,#119),#32,.F.);
#89=TOROIDAL_SURFACE('',#235,8.7,0.4);
#90=FACE_BOUND('',#120,.T.);
#91=FACE_BOUND('',#121,.T.);
#92=FACE_BOUND('',#122,.T.);
#93=FACE_BOUND('',#123,.T.);
#94=FACE_BOUND('',#124,.T.);
#95=FACE_BOUND('',#125,.T.);
#96=FACE_BOUND('',#126,.T.);
#97=FACE_BOUND('',#127,.T.);
#98=FACE_BOUND('',#128,.T.);
#99=FACE_BOUND('',#129,.T.);
#100=FACE_BOUND('',#130,.T.);
#101=FACE_BOUND('',#131,.T.);
#102=FACE_BOUND('',#132,.T.);
#103=FACE_BOUND('',#133,.T.);
#104=FACE_BOUND('',#134,.T.);
#105=FACE_BOUND('',#135,.T.);
#106=FACE_BOUND('',#138,.T.);
#107=FACE_BOUND('',#139,.T.);
#108=FACE_BOUND('',#140,.T.);
#109=FACE_BOUND('',#141,.T.);
#110=FACE_BOUND('',#142,.T.);
#111=FACE_BOUND('',#143,.T.);
#112=FACE_BOUND('',#144,.T.);
#113=FACE_BOUND('',#145,.T.);
#114=FACE_BOUND('',#146,.T.);
#115=FACE_BOUND('',#147,.T.);
#116=FACE_BOUND('',#148,.T.);
#117=FACE_BOUND('',#149,.T.);
#118=FACE_BOUND('',#150,.T.);
#119=FACE_BOUND('',#151,.T.);
#120=EDGE_LOOP('',(#152));
#121=EDGE_LOOP('',(#153));
#122=EDGE_LOOP('',(#154));
#123=EDGE_LOOP('',(#155));
#124=EDGE_LOOP('',(#156));
#125=EDGE_LOOP('',(#157));
#126=EDGE_LOOP('',(#158));
#127=EDGE_LOOP('',(#159));
#128=EDGE_LOOP('',(#160));
#129=EDGE_LOOP('',(#161));
#130=EDGE_LOOP('',(#162));
#131=EDGE_LOOP('',(#163));
#132=EDGE_LOOP('',(#164));
#133=EDGE_LOOP('',(#165));
#134=EDGE_LOOP('',(#166));
#135=EDGE_LOOP('',(#167));
#136=EDGE_LOOP('',(#168));
#137=EDGE_LOOP('',(#169));
#138=EDGE_LOOP('',(#170));
#139=EDGE_LOOP('',(#171));
#140=EDGE_LOOP('',(#172));
#141=EDGE_LOOP('',(#173));
#142=EDGE_LOOP('',(#174));
#143=EDGE_LOOP('',(#175));
#144=EDGE_LOOP('',(#176));
#145=EDGE_LOOP('',(#177));
#146=EDGE_LOOP('',(#178));
#147=EDGE_LOOP('',(#179));
#148=EDGE_LOOP('',(#180));
#149=EDGE_LOOP('',(#181));
#150=EDGE_LOOP('',(#182));
#151=EDGE_LOOP('',(#183));
#152=ORIENTED_EDGE('',*,*,#200,.F.);
#153=ORIENTED_EDGE('',*,*,#201,.T.);
#154=ORIENTED_EDGE('',*,*,#202,.F.);
#155=ORIENTED_EDGE('',*,*,#200,.T.);
#156=ORIENTED_EDGE('',*,*,#203,.F.);
#157=ORIENTED_EDGE('',*,*,#202,.T.);
#158=ORIENTED_EDGE('',*,*,#204,.F.);
#159=ORIENTED_EDGE('',*,*,#203,.T.);
#160=ORIENTED_EDGE('',*,*,#205,.F.);
#161=ORIENTED_EDGE('',*,*,#204,.T.);
#162=ORIENTED_EDGE('',*,*,#206,.F.);
#163=ORIENTED_EDGE('',*,*,#205,.T.);
#164=ORIENTED_EDGE('',*,*,#207,.F.);
#165=ORIENTED_EDGE('',*,*,#206,.T.);
#166=ORIENTED_EDGE('',*,*,#208,.F.);
#167=ORIENTED_EDGE('',*,*,#207,.T.);
#168=ORIENTED_EDGE('',*,*,#208,.T.);
#169=ORIENTED_EDGE('',*,*,#209,.F.);
#170=ORIENTED_EDGE('',*,*,#210,.F.);
#171=ORIENTED_EDGE('',*,*,#209,.T.);
#172=ORIENTED_EDGE('',*,*,#211,.F.);
#173=ORIENTED_EDGE('',*,*,#210,.T.);
#174=ORIENTED_EDGE('',*,*,#212,.F.);
#175=ORIENTED_EDGE('',*,*,#211,.T.);
#176=ORIENTED_EDGE('',*,*,#213,.F.);
#177=ORIENTED_EDGE('',*,*,#212,.T.);
#178=ORIENTED_EDGE('',*,*,#214,.F.);
#179=ORIENTED_EDGE('',*,*,#213,.T.);
#180=ORIENTED_EDGE('',*,*,#201,.F.);
#181=ORIENTED_EDGE('',*,*,#214,.T.);
#182=ORIENTED_EDGE('',*,*,#215,.T.);
#183=ORIENTED_EDGE('',*,*,#215,.F.);
#184=VERTEX_POINT('',#331);
#185=VERTEX_POINT('',#333);
#186=VERTEX_POINT('',#336);
#187=VERTEX_POINT('',#339);
#188=VERTEX_POINT('',#342);
#189=VERTEX_POINT('',#345);
#190=VERTEX_POINT('',#348);
#191=VERTEX_POINT('',#351);
#192=VERTEX_POINT('',#354);
#193=VERTEX_POINT('',#422);
#194=VERTEX_POINT('',#425);
#195=VERTEX_POINT('',#428);
#196=VERTEX_POINT('',#431);
#197=VERTEX_POINT('',#434);
#198=VERTEX_POINT('',#437);
#199=VERTEX_POINT('',#441);
#200=EDGE_CURVE('',#184,#184,#216,.T.);
#201=EDGE_CURVE('',#185,#185,#217,.T.);
#202=EDGE_CURVE('',#186,#186,#218,.T.);
#203=EDGE_CURVE('',#187,#187,#219,.T.);
#204=EDGE_CURVE('',#188,#188,#220,.T.);
#205=EDGE_CURVE('',#189,#189,#221,.T.);
#206=EDGE_CURVE('',#190,#190,#222,.T.);
#207=EDGE_CURVE('',#191,#191,#223,.T.);
#208=EDGE_CURVE('',#192,#192,#224,.T.);
#209=EDGE_CURVE('',#193,#193,#225,.T.);
#210=EDGE_CURVE('',#194,#194,#226,.T.);
#211=EDGE_CURVE('',#195,#195,#227,.T.);
#212=EDGE_CURVE('',#196,#196,#228,.T.);
#213=EDGE_CURVE('',#197,#197,#229,.T.);
#214=EDGE_CURVE('',#198,#198,#230,.T.);
#215=EDGE_CURVE('',#199,#199,#231,.T.);
#216=CIRCLE('',#233,8.80352761804101);
#217=CIRCLE('',#234,8.3);
#218=CIRCLE('',#236,10.);
#219=CIRCLE('',#238,14.);
#220=CIRCLE('',#240,14.5);
#221=CIRCLE('',#242,14.5);
#222=CIRCLE('',#244,14.);
#223=CIRCLE('',#246,14.);
#224=CIRCLE('',#248,7.52519759391436);
#225=CIRCLE('',#250,5.875);
#226=CIRCLE('',#252,7.875);
#227=CIRCLE('',#254,7.875);
#228=CIRCLE('',#256,8.5);
#229=CIRCLE('',#258,8.5);
#230=CIRCLE('',#260,8.3);
#231=CIRCLE('',#263,5.);
#232=AXIS2_PLACEMENT_3D('',#329,#264,#265);
#233=AXIS2_PLACEMENT_3D('',#330,#266,#267);
#234=AXIS2_PLACEMENT_3D('',#332,#268,#269);
#235=AXIS2_PLACEMENT_3D('',#334,#270,#271);
#236=AXIS2_PLACEMENT_3D('',#335,#272,#273);
#237=AXIS2_PLACEMENT_3D('',#337,#274,#275);
#238=AXIS2_PLACEMENT_3D('',#338,#276,#277);
#239=AXIS2_PLACEMENT_3D('',#340,#278,#279);
#240=AXIS2_PLACEMENT_3D('',#341,#280,#281);
#241=AXIS2_PLACEMENT_3D('',#343,#282,#283);
#242=AXIS2_PLACEMENT_3D('',#344,#284,#285);
#243=AXIS2_PLACEMENT_3D('',#346,#286,#287);
#244=AXIS2_PLACEMENT_3D('',#347,#288,#289);
#245=AXIS2_PLACEMENT_3D('',#349,#290,#291);
#246=AXIS2_PLACEMENT_3D('',#350,#292,#293);
#247=AXIS2_PLACEMENT_3D('',#352,#294,#295);
#248=AXIS2_PLACEMENT_3D('',#353,#296,#297);
#249=AXIS2_PLACEMENT_3D('',#420,#299,#300);
#250=AXIS2_PLACEMENT_3D('',#421,#301,#302);
#251=AXIS2_PLACEMENT_3D('',#423,#303,#304);
#252=AXIS2_PLACEMENT_3D('',#424,#305,#306);
#253=AXIS2_PLACEMENT_3D('',#426,#307,#308);
#254=AXIS2_PLACEMENT_3D('',#427,#309,#310);
#255=AXIS2_PLACEMENT_3D('',#429,#311,#312);
#256=AXIS2_PLACEMENT_3D('',#430,#313,#314);
#257=AXIS2_PLACEMENT_3D('',#432,#315,#316);
#258=AXIS2_PLACEMENT_3D('',#433,#317,#318);
#259=AXIS2_PLACEMENT_3D('',#435,#319,#320);
#260=AXIS2_PLACEMENT_3D('',#436,#321,#322);
#261=AXIS2_PLACEMENT_3D('',#438,#323,#324);
#262=AXIS2_PLACEMENT_3D('',#439,#325,#326);
#263=AXIS2_PLACEMENT_3D('',#440,#327,#328);
#264=DIRECTION('',(0.,0.,1.));
#265=DIRECTION('',(1.,0.,0.));
#266=DIRECTION('',(-1.,0.,0.));
#267=DIRECTION('',(0.,0.,1.));
#268=DIRECTION('',(-1.,0.,0.));
#269=DIRECTION('',(0.,0.,1.));
#270=DIRECTION('',(-1.,0.,0.));
#271=DIRECTION('',(0.,0.,1.));
#272=DIRECTION('',(-1.,0.,0.));
#273=DIRECTION('',(0.,0.,1.));
#274=DIRECTION('',(1.,0.,0.));
#275=DIRECTION('',(-9.2744775419874E-18,0.,-1.));
#276=DIRECTION('',(-1.,0.,0.));
#277=DIRECTION('',(0.,0.,1.));
#278=DIRECTION('',(-1.,0.,0.));
#279=DIRECTION('',(0.,0.,1.));
#280=DIRECTION('',(-1.,0.,0.));
#281=DIRECTION('',(0.,0.,1.));
#282=DIRECTION('',(-1.,0.,0.));
#283=DIRECTION('',(4.1058543810101E-17,0.,1.));
#284=DIRECTION('',(-1.,0.,0.));
#285=DIRECTION('',(0.,0.,1.));
#286=DIRECTION('',(-1.,0.,0.));
#287=DIRECTION('',(0.,0.,1.));
#288=DIRECTION('',(-1.,0.,0.));
#289=DIRECTION('',(0.,0.,1.));
#290=DIRECTION('',(1.,0.,0.));
#291=DIRECTION('',(-2.05191539790264E-17,0.,-1.));
#292=DIRECTION('',(-1.,0.,0.));
#293=DIRECTION('',(0.,0.,1.));
#294=DIRECTION('',(-1.,0.,0.));
#295=DIRECTION('',(0.,0.,1.));
#296=DIRECTION('',(-1.,0.,0.));
#297=DIRECTION('',(0.,0.,1.));
#298=DIRECTION('',(-1.,0.,0.));
#299=DIRECTION('',(1.,0.,0.));
#300=DIRECTION('',(0.,0.,-1.));
#301=DIRECTION('',(-1.,0.,0.));
#302=DIRECTION('',(0.,0.,1.));
#303=DIRECTION('',(-1.,0.,0.));
#304=DIRECTION('',(0.,0.,1.));
#305=DIRECTION('',(-1.,0.,0.));
#306=DIRECTION('',(0.,0.,1.));
#307=DIRECTION('',(-1.,0.,0.));
#308=DIRECTION('',(5.51869280290865E-17,0.,1.));
#309=DIRECTION('',(-1.,0.,0.));
#310=DIRECTION('',(0.,0.,1.));
#311=DIRECTION('',(-1.,0.,0.));
#312=DIRECTION('',(0.,0.,1.));
#313=DIRECTION('',(-1.,0.,0.));
#314=DIRECTION('',(0.,0.,1.));
#315=DIRECTION('',(-1.,0.,0.));
#316=DIRECTION('',(7.11407480423617E-17,0.,1.));
#317=DIRECTION('',(-1.,0.,0.));
#318=DIRECTION('',(0.,0.,1.));
#319=DIRECTION('',(-1.,0.,0.));
#320=DIRECTION('',(0.,0.,1.));
#321=DIRECTION('',(-1.,0.,0.));
#322=DIRECTION('',(0.,0.,1.));
#323=DIRECTION('',(1.,0.,0.));
#324=DIRECTION('',(5.02001387154426E-17,0.,-1.));
#325=DIRECTION('',(-1.,0.,0.));
#326=DIRECTION('',(0.,0.,1.));
#327=DIRECTION('',(0.,0.,1.));
#328=DIRECTION('',(1.,0.,0.));
#329=CARTESIAN_POINT('',(0.,0.,0.));
#330=CARTESIAN_POINT('',(42.6794061914879,0.,0.));
#331=CARTESIAN_POINT('',(42.6794061914879,0.,8.80352761804101));
#332=CARTESIAN_POINT('',(43.0657765220036,0.,0.));
#333=CARTESIAN_POINT('',(43.0657765220036,0.,8.3));
#334=CARTESIAN_POINT('',(43.0657765220036,0.,0.));
#335=CARTESIAN_POINT('',(43.,0.,0.));
#336=CARTESIAN_POINT('',(43.,0.,10.));
#337=CARTESIAN_POINT('',(42.6794061914879,0.,0.));
#338=CARTESIAN_POINT('',(43.,0.,0.));
#339=CARTESIAN_POINT('',(43.,0.,14.));
#340=CARTESIAN_POINT('',(43.,14.,0.));
#341=CARTESIAN_POINT('',(42.5,0.,0.));
#342=CARTESIAN_POINT('',(42.5,0.,14.5));
#343=CARTESIAN_POINT('',(43.,0.,0.));
#344=CARTESIAN_POINT('',(38.5,0.,0.));
#345=CARTESIAN_POINT('',(38.5,0.,14.5));
#346=CARTESIAN_POINT('',(0.,0.,0.));
#347=CARTESIAN_POINT('',(38.,0.,0.));
#348=CARTESIAN_POINT('',(38.,0.,14.));
#349=CARTESIAN_POINT('',(38.5,0.,0.));
#350=CARTESIAN_POINT('',(7.85033713653332,0.,0.));
#351=CARTESIAN_POINT('',(7.85033713653332,0.,14.));
#352=CARTESIAN_POINT('',(0.,0.,0.));
#353=CARTESIAN_POINT('',(2.99999999999722,0.,0.));
#354=CARTESIAN_POINT('',(2.99999999999722,0.,7.52519759391436));
#355=CARTESIAN_POINT('',(0.871689827276745,11.3216858650929,0.));
#356=CARTESIAN_POINT('',(0.871689827276745,10.5105668914303,0.));
#357=CARTESIAN_POINT('',(0.983034505682987,9.97382518424503,0.));
#358=CARTESIAN_POINT('',(1.29839062683544,9.23871100220212,0.));
#359=CARTESIAN_POINT('',(1.43031334845234,9.00083513507529,0.));
#360=CARTESIAN_POINT('',(1.7363958013383,8.56103233201848,0.));
#361=CARTESIAN_POINT('',(1.90972855349165,8.35886608279445,0.));
#362=CARTESIAN_POINT('',(2.29624835428006,7.98936694425118,0.));
#363=CARTESIAN_POINT('',(2.5110680210855,7.82171163646552,0.));
#364=CARTESIAN_POINT('',(2.96162073378286,7.53617894369332,0.));
#365=CARTESIAN_POINT('',(3.19933410146017,7.41600179529364,0.));
#366=CARTESIAN_POINT('',(3.6995940229176,7.22075172351163,0.));
#367=CARTESIAN_POINT('',(3.96013033989284,7.14706272959178,0.));
#368=CARTESIAN_POINT('',(4.48420764737062,7.05046769535806,0.));
#369=CARTESIAN_POINT('',(4.75019921403494,7.02653435468036,0.));
#370=CARTESIAN_POINT('',(5.29036163904887,7.0290815603815,0.));
#371=CARTESIAN_POINT('',(5.55655474987569,7.05556505914576,0.));
#372=CARTESIAN_POINT('',(6.08013958468881,7.15730557181698,0.));
#373=CARTESIAN_POINT('',(6.34021721888739,7.23364866217936,0.));
#374=CARTESIAN_POINT('',(6.83838232182006,7.4338083889128,0.));
#375=CARTESIAN_POINT('',(7.07522673673315,7.55649232465354,0.));
#376=CARTESIAN_POINT('',(7.52415219532662,7.84759861661541,0.));
#377=CARTESIAN_POINT('',(7.7370351634233,8.01754793940225,0.));
#378=CARTESIAN_POINT('',(8.11904653869353,8.39065023421474,0.));
#379=CARTESIAN_POINT('',(8.29067414121851,8.59504170157908,0.));
#380=CARTESIAN_POINT('',(8.593592087587,9.04096089600625,0.));
#381=CARTESIAN_POINT('',(8.7213009564721,9.27779261910388,0.));
#382=CARTESIAN_POINT('',(8.92606465988457,9.76996454334248,0.));
#383=CARTESIAN_POINT('',(9.0044712492975,10.0294051015772,0.));
#384=CARTESIAN_POINT('',(9.10667014872818,10.5566712247115,0.));
#385=CARTESIAN_POINT('',(9.13066857420249,10.822103718874,0.));
#386=CARTESIAN_POINT('',(9.12559082313191,11.3564927130821,0.));
#387=CARTESIAN_POINT('',(9.09558010432804,11.6274509799711,0.));
#388=CARTESIAN_POINT('',(8.98418084457391,12.1496582609162,0.));
#389=CARTESIAN_POINT('',(8.90314813118415,12.4035949309288,0.));
#390=CARTESIAN_POINT('',(8.68980754821924,12.8969620412041,0.));
#391=CARTESIAN_POINT('',(8.55824079719932,13.1332893739401,0.));
#392=CARTESIAN_POINT('',(8.25500933486996,13.5714223262555,0.));
#393=CARTESIAN_POINT('',(8.08154465551231,13.7763842560885,0.));
#394=CARTESIAN_POINT('',(7.69422963721145,14.151740267766,0.));
#395=CARTESIAN_POINT('',(7.48527634138924,14.317709096173,0.));
#396=CARTESIAN_POINT('',(7.03795682928689,14.6079012499467,0.));
#397=CARTESIAN_POINT('',(6.79671601394174,14.7330938139913,0.));
#398=CARTESIAN_POINT('',(6.29934027224079,14.9324965766009,0.));
#399=CARTESIAN_POINT('',(6.04362936382613,15.0073371941059,0.));
#400=CARTESIAN_POINT('',(5.51826875716706,15.1076766794179,0.));
#401=CARTESIAN_POINT('',(5.24710863451804,15.1326287345542,0.));
#402=CARTESIAN_POINT('',(4.71333794292961,15.1300934354317,0.));
#403=CARTESIAN_POINT('',(4.44802127444316,15.1034142078168,0.));
#404=CARTESIAN_POINT('',(3.92059996943276,14.9980228707955,0.));
#405=CARTESIAN_POINT('',(3.66214473909812,14.9195623513042,0.));
#406=CARTESIAN_POINT('',(3.16930914035912,14.7165690042337,0.));
#407=CARTESIAN_POINT('',(2.93144438618952,14.5907798161878,0.));
#408=CARTESIAN_POINT('',(2.48206831508399,14.2933834321493,0.));
#409=CARTESIAN_POINT('',(2.2749785341804,14.1250713504037,0.));
#410=CARTESIAN_POINT('',(1.89515929575365,13.7501513668339,0.));
#411=CARTESIAN_POINT('',(1.72096950289853,13.5409618963074,0.));
#412=CARTESIAN_POINT('',(1.42065346469769,13.0978621629472,0.));
#413=CARTESIAN_POINT('',(1.2933402373276,12.8636578765391,0.));
#414=CARTESIAN_POINT('',(1.08497251753061,12.3696251940801,0.));
#415=CARTESIAN_POINT('',(1.00481527788802,12.1100002474551,0.));
#416=CARTESIAN_POINT('',(0.898842020329734,11.5874076445234,0.));
#417=CARTESIAN_POINT('',(0.871689827276745,11.3216858650929,0.));
#418=CARTESIAN_POINT('',(0.871689827276745,10.5105668914303,0.));
#419=CARTESIAN_POINT('',(0.,0.,0.));
#420=CARTESIAN_POINT('',(2.99999999999861,7.52519759391287,0.));
#421=CARTESIAN_POINT('',(68.,0.,0.));
#422=CARTESIAN_POINT('',(68.,0.,5.875));
#423=CARTESIAN_POINT('',(68.,0.,0.));
#424=CARTESIAN_POINT('',(66.,0.,0.));
#425=CARTESIAN_POINT('',(66.,0.,7.875));
#426=CARTESIAN_POINT('',(68.,0.,0.));
#427=CARTESIAN_POINT('',(50.0825317547305,0.,0.));
#428=CARTESIAN_POINT('',(50.0825317547305,0.,7.875));
#429=CARTESIAN_POINT('',(0.,0.,0.));
#430=CARTESIAN_POINT('',(49.,0.,0.));
#431=CARTESIAN_POINT('',(49.,0.,8.5));
#432=CARTESIAN_POINT('',(50.0825317547305,0.,0.));
#433=CARTESIAN_POINT('',(44.2,0.,0.));
#434=CARTESIAN_POINT('',(44.2,0.,8.5));
#435=CARTESIAN_POINT('',(0.,0.,0.));
#436=CARTESIAN_POINT('',(43.4535898384862,0.,0.));
#437=CARTESIAN_POINT('',(43.4535898384862,0.,8.3));
#438=CARTESIAN_POINT('',(44.2,0.,0.));
#439=CARTESIAN_POINT('',(0.,0.,0.));
#440=CARTESIAN_POINT('',(5.,-10.87430992,2.));
#441=CARTESIAN_POINT('',(10.,-10.87430992,2.));
#442=CARTESIAN_POINT('',(10.,-10.87430992,2.));
#443=CARTESIAN_POINT('',(10.,-14.87430992,-19.74861984));
#444=CARTESIAN_POINT('',(10.,6.87430992,-23.74861984));
#445=CARTESIAN_POINT('',(10.,10.87430992,-2.));
#446=CARTESIAN_POINT('',(10.,14.87430992,19.74861984));
#447=CARTESIAN_POINT('',(10.,-6.87430992,23.74861984));
#448=CARTESIAN_POINT('',(10.,-10.87430992,2.));
#449=CARTESIAN_POINT('',(10.,-0.874309919999998,2.));
#450=CARTESIAN_POINT('',(10.,-4.87430992,0.251380160000004));
#451=CARTESIAN_POINT('',(10.,-3.12569008000001,-3.74861984));
#452=CARTESIAN_POINT('',(10.,0.874309919999998,-2.));
#453=CARTESIAN_POINT('',(10.,4.87430992,-0.251380160000004));
#454=CARTESIAN_POINT('',(10.,3.12569008000001,3.74861984));
#455=CARTESIAN_POINT('',(10.,-0.874309919999998,2.));
#456=CARTESIAN_POINT('',(-5.10076676829453E-16,-0.874309919999998,2.));
#457=CARTESIAN_POINT('',(-5.10076676829455E-16,-4.87430992,0.251380160000004));
#458=CARTESIAN_POINT('',(-5.10076676829455E-16,-3.12569008000001,-3.74861984));
#459=CARTESIAN_POINT('',(-5.10076676829453E-16,0.874309919999998,-2.));
#460=CARTESIAN_POINT('',(-5.10076676829455E-16,4.87430992,-0.251380160000004));
#461=CARTESIAN_POINT('',(-5.10076676829455E-16,3.12569008000001,3.74861984));
#462=CARTESIAN_POINT('',(-5.10076676829453E-16,-0.874309919999998,2.));
#463=CARTESIAN_POINT('',(-1.7347234759768E-15,-10.87430992,2.));
#464=CARTESIAN_POINT('',(-1.73472347597681E-15,-14.87430992,-19.74861984));
#465=CARTESIAN_POINT('',(-1.73472347597681E-15,6.87430992,-23.74861984));
#466=CARTESIAN_POINT('',(-1.7347234759768E-15,10.87430992,-2.));
#467=CARTESIAN_POINT('',(-1.73472347597681E-15,14.87430992,19.74861984));
#468=CARTESIAN_POINT('',(-1.73472347597681E-15,-6.87430992,23.74861984));
#469=CARTESIAN_POINT('',(-1.7347234759768E-15,-10.87430992,2.));
#470=CARTESIAN_POINT('',(-2.95937027512416E-15,-20.87430992,2.));
#471=CARTESIAN_POINT('',(-2.95937027512416E-15,-24.87430992,-39.74861984));
#472=CARTESIAN_POINT('',(-2.95937027512416E-15,16.87430992,-43.74861984));
#473=CARTESIAN_POINT('',(-2.95937027512416E-15,20.87430992,-2.));
#474=CARTESIAN_POINT('',(-2.95937027512416E-15,24.87430992,39.74861984));
#475=CARTESIAN_POINT('',(-2.95937027512416E-15,-16.87430992,43.74861984));
#476=CARTESIAN_POINT('',(-2.95937027512416E-15,-20.87430992,2.));
#477=CARTESIAN_POINT('',(10.,-20.87430992,2.));
#478=CARTESIAN_POINT('',(10.,-24.87430992,-39.74861984));
#479=CARTESIAN_POINT('',(10.,16.87430992,-43.74861984));
#480=CARTESIAN_POINT('',(10.,20.87430992,-2.));
#481=CARTESIAN_POINT('',(10.,24.87430992,39.74861984));
#482=CARTESIAN_POINT('',(10.,-16.87430992,43.74861984));
#483=CARTESIAN_POINT('',(10.,-20.87430992,2.));
#484=CARTESIAN_POINT('',(10.,-10.87430992,2.));
#485=CARTESIAN_POINT('',(10.,-14.87430992,-19.74861984));
#486=CARTESIAN_POINT('',(10.,6.87430992,-23.74861984));
#487=CARTESIAN_POINT('',(10.,10.87430992,-2.));
#488=CARTESIAN_POINT('',(10.,14.87430992,19.74861984));
#489=CARTESIAN_POINT('',(10.,-6.87430992,23.74861984));
#490=CARTESIAN_POINT('',(10.,-10.87430992,2.));
#491=MECHANICAL_DESIGN_GEOMETRIC_PRESENTATION_REPRESENTATION('',(#34,#35),
#492);
#492=(
GEOMETRIC_REPRESENTATION_CONTEXT(3)
GLOBAL_UNCERTAINTY_ASSIGNED_CONTEXT((#493))
GLOBAL_UNIT_ASSIGNED_CONTEXT((#499,#495,#494))
REPRESENTATION_CONTEXT('AEMR-RP10T3A-D32-M16-L43-Z04-H',
'TOP_LEVEL_ASSEMBLY_PART')
);
#493=UNCERTAINTY_MEASURE_WITH_UNIT(LENGTH_MEASURE(2.E-5),#499,
'DISTANCE_ACCURACY_VALUE','Maximum Tolerance applied to model');
#494=(
NAMED_UNIT(*)
SI_UNIT($,.STERADIAN.)
SOLID_ANGLE_UNIT()
);
#495=(
CONVERSION_BASED_UNIT('DEGREE',#497)
NAMED_UNIT(#496)
PLANE_ANGLE_UNIT()
);
#496=DIMENSIONAL_EXPONENTS(0.,0.,0.,0.,0.,0.,0.);
#497=PLANE_ANGLE_MEASURE_WITH_UNIT(PLANE_ANGLE_MEASURE(0.0174532925),#498);
#498=(
NAMED_UNIT(*)
PLANE_ANGLE_UNIT()
SI_UNIT($,.RADIAN.)
);
#499=(
LENGTH_UNIT()
NAMED_UNIT(*)
SI_UNIT(.MILLI.,.METRE.)
);
ENDSEC;
END-ISO-10303-21;
