ISO-10303-21;
HEADER;
/* Generated by software containing ST-Developer
 * from STEP Tools, Inc. (www.steptools.com) 
 */
/* OPTION: using custom schema-name function */

FILE_DESCRIPTION(
/* description */ (''),
/* implementation_level */ '2;1');

FILE_NAME(
/* name */ 'AEMR-RP1204M-D36-C25-L160-Z03-WEBSITE.stp',
/* time_stamp */ '2023-11-07T09:56:25+03:00',
/* author */ (''),
/* organization */ (''),
/* preprocessor_version */ 'ST-DEVELOPER v19.4',
/* originating_system */ 'SIEMENS PLM Software NX2306.3001',
/* authorisation */ '');

FILE_SCHEMA (('AUTOMOTIVE_DESIGN { 1 0 10303 214 3 1 1 1 }'));
ENDSEC;

DATA;
#10=CONSTRUCTIVE_GEOMETRY_REPRESENTATION_RELATIONSHIP(
'supplemental geometry','',#32,#11);
#11=CONSTRUCTIVE_GEOMETRY_REPRESENTATION('supplemental geometry',(#333),
#567);
#12=PROPERTY_DEFINITION_REPRESENTATION(#16,#14);
#13=PROPERTY_DEFINITION_REPRESENTATION(#17,#15);
#14=REPRESENTATION('',(#18),#567);
#15=REPRESENTATION('',(#19),#567);
#16=PROPERTY_DEFINITION('pmi validation property','',#23);
#17=PROPERTY_DEFINITION('pmi validation property','',#23);
#18=VALUE_REPRESENTATION_ITEM('number of annotations',COUNT_MEASURE(0.));
#19=VALUE_REPRESENTATION_ITEM('number of views',COUNT_MEASURE(0.));
#20=SHAPE_REPRESENTATION_RELATIONSHIP('None',
'relationship between AEMR-RP1204M-D36-C25-L160-Z03-WEBSITE_objects-No
ne and AEMR-RP1204M-D36-C25-L160-Z03-WEBSITE_objects-None',#32,#21);
#21=ADVANCED_BREP_SHAPE_REPRESENTATION(
'AEMR-RP1204M-D36-C25-L160-Z03-WEBSITE_objects-None',(#47,#48),#567);
#22=SHAPE_DEFINITION_REPRESENTATION(#23,#32);
#23=PRODUCT_DEFINITION_SHAPE('','',#24);
#24=PRODUCT_DEFINITION(' ','',#26,#25);
#25=PRODUCT_DEFINITION_CONTEXT('part definition',#31,'design');
#26=PRODUCT_DEFINITION_FORMATION_WITH_SPECIFIED_SOURCE(' ',' ',#28,
 .NOT_KNOWN.);
#27=PRODUCT_RELATED_PRODUCT_CATEGORY('part','',(#28));
#28=PRODUCT('AEMR-RP1204M-D36-C25-L160-Z03-WEBSITE_objects',
'AEMR-RP1204M-D36-C25-L160-Z03-WEBSITE_objects',' ',(#29));
#29=PRODUCT_CONTEXT(' ',#31,'mechanical');
#30=APPLICATION_PROTOCOL_DEFINITION('international standard',
'automotive_design',2010,#31);
#31=APPLICATION_CONTEXT(
'core data for automotive mechanical design processes');
#32=SHAPE_REPRESENTATION(
'AEMR-RP1204M-D36-C25-L160-Z03-WEBSITE_objects-None',(#332),#567);
#33=DRAUGHTING_PRE_DEFINED_COLOUR('yellow');
#34=SURFACE_OF_REVOLUTION('',#320,#35);
#35=AXIS1_PLACEMENT('',#566,#488);
#36=VERTEX_LOOP('',#271);
#37=SURFACE_STYLE_USAGE(.BOTH.,#39);
#38=SURFACE_STYLE_USAGE(.BOTH.,#40);
#39=SURFACE_SIDE_STYLE('',(#41));
#40=SURFACE_SIDE_STYLE('',(#42));
#41=SURFACE_STYLE_FILL_AREA(#43);
#42=SURFACE_STYLE_FILL_AREA(#44);
#43=FILL_AREA_STYLE('',(#45));
#44=FILL_AREA_STYLE('',(#46));
#45=FILL_AREA_STYLE_COLOUR('',#330);
#46=FILL_AREA_STYLE_COLOUR('',#33);
#47=MANIFOLD_SOLID_BREP('',#49);
#48=MANIFOLD_SOLID_BREP('',#50);
#49=CLOSED_SHELL('',(#119,#120,#121,#122,#123,#124,#125,#126,#127,#128,
#129,#130,#131,#132,#133,#134,#135,#136,#137,#138,#139,#140,#141,#142,#143));
#50=CLOSED_SHELL('',(#144));
#51=CYLINDRICAL_SURFACE('',#351,16.8);
#52=CYLINDRICAL_SURFACE('',#359,16.);
#53=CYLINDRICAL_SURFACE('',#371,12.25);
#54=CYLINDRICAL_SURFACE('',#375,12.5);
#55=CYLINDRICAL_SURFACE('',#379,12.25);
#56=CONICAL_SURFACE('',#339,10.5627669386734,42.9999999999999);
#57=CONICAL_SURFACE('',#347,16.5754718402709,43.9999999999999);
#58=CONICAL_SURFACE('',#355,16.2343145750508,45.);
#59=CONICAL_SURFACE('',#361,14.0437124365505,10.0000000000001);
#60=CONICAL_SURFACE('',#367,12.7194592710668,80.0000000000001);
#61=CONICAL_SURFACE('',#373,12.5,15.);
#62=CONICAL_SURFACE('',#377,12.25,10.0000000000002);
#63=TOROIDAL_SURFACE('',#337,7.1477814375586,1.5);
#64=TOROIDAL_SURFACE('',#341,11.1478498999687,0.8);
#65=TOROIDAL_SURFACE('',#345,13.9604201470323,0.799999999999999);
#66=TOROIDAL_SURFACE('',#349,16.,0.799999999999997);
#67=TOROIDAL_SURFACE('',#353,16.3,0.499999999999999);
#68=TOROIDAL_SURFACE('',#357,16.8,0.799999999999998);
#69=TOROIDAL_SURFACE('',#363,13.7482701106468,0.29999999999999);
#70=TOROIDAL_SURFACE('',#369,12.65,0.4);
#71=TOROIDAL_SURFACE('',#381,10.25,2.00000000000003);
#72=FACE_BOUND('',#152,.T.);
#73=FACE_BOUND('',#153,.T.);
#74=FACE_BOUND('',#154,.T.);
#75=FACE_BOUND('',#155,.T.);
#76=FACE_BOUND('',#156,.T.);
#77=FACE_BOUND('',#157,.T.);
#78=FACE_BOUND('',#158,.T.);
#79=FACE_BOUND('',#159,.T.);
#80=FACE_BOUND('',#160,.T.);
#81=FACE_BOUND('',#161,.T.);
#82=FACE_BOUND('',#162,.T.);
#83=FACE_BOUND('',#163,.T.);
#84=FACE_BOUND('',#164,.T.);
#85=FACE_BOUND('',#165,.T.);
#86=FACE_BOUND('',#166,.T.);
#87=FACE_BOUND('',#167,.T.);
#88=FACE_BOUND('',#168,.T.);
#89=FACE_BOUND('',#169,.T.);
#90=FACE_BOUND('',#170,.T.);
#91=FACE_BOUND('',#171,.T.);
#92=FACE_BOUND('',#172,.T.);
#93=FACE_BOUND('',#173,.T.);
#94=FACE_BOUND('',#174,.T.);
#95=FACE_BOUND('',#175,.T.);
#96=FACE_BOUND('',#176,.T.);
#97=FACE_BOUND('',#177,.T.);
#98=FACE_BOUND('',#178,.T.);
#99=FACE_BOUND('',#179,.T.);
#100=FACE_BOUND('',#180,.T.);
#101=FACE_BOUND('',#181,.T.);
#102=FACE_BOUND('',#182,.T.);
#103=FACE_BOUND('',#183,.T.);
#104=FACE_BOUND('',#184,.T.);
#105=FACE_BOUND('',#185,.T.);
#106=FACE_BOUND('',#186,.T.);
#107=FACE_BOUND('',#187,.T.);
#108=FACE_BOUND('',#188,.T.);
#109=FACE_BOUND('',#189,.T.);
#110=FACE_BOUND('',#190,.T.);
#111=FACE_BOUND('',#191,.T.);
#112=FACE_BOUND('',#192,.T.);
#113=FACE_BOUND('',#193,.T.);
#114=FACE_BOUND('',#194,.T.);
#115=FACE_BOUND('',#195,.T.);
#116=FACE_BOUND('',#196,.T.);
#117=FACE_BOUND('',#197,.T.);
#118=FACE_BOUND('',#36,.T.);
#119=ADVANCED_FACE('',(#149),#145,.F.);
#120=ADVANCED_FACE('',(#72,#73),#63,.F.);
#121=ADVANCED_FACE('',(#74,#75),#56,.F.);
#122=ADVANCED_FACE('',(#76,#77),#64,.T.);
#123=ADVANCED_FACE('',(#78,#79),#146,.F.);
#124=ADVANCED_FACE('',(#80,#81),#65,.T.);
#125=ADVANCED_FACE('',(#82,#83),#57,.T.);
#126=ADVANCED_FACE('',(#84,#85),#66,.T.);
#127=ADVANCED_FACE('',(#86,#87),#51,.T.);
#128=ADVANCED_FACE('',(#88,#89),#67,.T.);
#129=ADVANCED_FACE('',(#90,#91),#58,.T.);
#130=ADVANCED_FACE('',(#92,#93),#68,.F.);
#131=ADVANCED_FACE('',(#94,#95),#52,.T.);
#132=ADVANCED_FACE('',(#96,#97),#59,.T.);
#133=ADVANCED_FACE('',(#98,#99),#69,.T.);
#134=ADVANCED_FACE('',(#100,#101),#147,.F.);
#135=ADVANCED_FACE('',(#102,#103),#60,.F.);
#136=ADVANCED_FACE('',(#104,#105),#70,.F.);
#137=ADVANCED_FACE('',(#106,#107),#53,.T.);
#138=ADVANCED_FACE('',(#108,#109),#61,.T.);
#139=ADVANCED_FACE('',(#110,#111),#54,.T.);
#140=ADVANCED_FACE('',(#112,#113),#62,.T.);
#141=ADVANCED_FACE('',(#114,#115),#55,.T.);
#142=ADVANCED_FACE('',(#116,#117),#71,.T.);
#143=ADVANCED_FACE('',(#150),#148,.F.);
#144=ADVANCED_FACE('',(#118),#34,.F.);
#145=PLANE('',#335);
#146=PLANE('',#343);
#147=PLANE('',#365);
#148=PLANE('',#382);
#149=FACE_OUTER_BOUND('',#151,.T.);
#150=FACE_OUTER_BOUND('',#198,.T.);
#151=EDGE_LOOP('',(#199));
#152=EDGE_LOOP('',(#200));
#153=EDGE_LOOP('',(#201));
#154=EDGE_LOOP('',(#202));
#155=EDGE_LOOP('',(#203));
#156=EDGE_LOOP('',(#204));
#157=EDGE_LOOP('',(#205));
#158=EDGE_LOOP('',(#206));
#159=EDGE_LOOP('',(#207));
#160=EDGE_LOOP('',(#208));
#161=EDGE_LOOP('',(#209));
#162=EDGE_LOOP('',(#210));
#163=EDGE_LOOP('',(#211));
#164=EDGE_LOOP('',(#212));
#165=EDGE_LOOP('',(#213));
#166=EDGE_LOOP('',(#214));
#167=EDGE_LOOP('',(#215));
#168=EDGE_LOOP('',(#216));
#169=EDGE_LOOP('',(#217));
#170=EDGE_LOOP('',(#218));
#171=EDGE_LOOP('',(#219));
#172=EDGE_LOOP('',(#220));
#173=EDGE_LOOP('',(#221));
#174=EDGE_LOOP('',(#222));
#175=EDGE_LOOP('',(#223));
#176=EDGE_LOOP('',(#224));
#177=EDGE_LOOP('',(#225));
#178=EDGE_LOOP('',(#226));
#179=EDGE_LOOP('',(#227));
#180=EDGE_LOOP('',(#228));
#181=EDGE_LOOP('',(#229));
#182=EDGE_LOOP('',(#230));
#183=EDGE_LOOP('',(#231));
#184=EDGE_LOOP('',(#232));
#185=EDGE_LOOP('',(#233));
#186=EDGE_LOOP('',(#234));
#187=EDGE_LOOP('',(#235));
#188=EDGE_LOOP('',(#236));
#189=EDGE_LOOP('',(#237));
#190=EDGE_LOOP('',(#238));
#191=EDGE_LOOP('',(#239));
#192=EDGE_LOOP('',(#240));
#193=EDGE_LOOP('',(#241));
#194=EDGE_LOOP('',(#242));
#195=EDGE_LOOP('',(#243));
#196=EDGE_LOOP('',(#244));
#197=EDGE_LOOP('',(#245));
#198=EDGE_LOOP('',(#246));
#199=ORIENTED_EDGE('',*,*,#272,.T.);
#200=ORIENTED_EDGE('',*,*,#272,.F.);
#201=ORIENTED_EDGE('',*,*,#273,.T.);
#202=ORIENTED_EDGE('',*,*,#273,.F.);
#203=ORIENTED_EDGE('',*,*,#274,.T.);
#204=ORIENTED_EDGE('',*,*,#274,.F.);
#205=ORIENTED_EDGE('',*,*,#275,.T.);
#206=ORIENTED_EDGE('',*,*,#275,.F.);
#207=ORIENTED_EDGE('',*,*,#276,.T.);
#208=ORIENTED_EDGE('',*,*,#276,.F.);
#209=ORIENTED_EDGE('',*,*,#277,.T.);
#210=ORIENTED_EDGE('',*,*,#277,.F.);
#211=ORIENTED_EDGE('',*,*,#278,.T.);
#212=ORIENTED_EDGE('',*,*,#278,.F.);
#213=ORIENTED_EDGE('',*,*,#279,.T.);
#214=ORIENTED_EDGE('',*,*,#279,.F.);
#215=ORIENTED_EDGE('',*,*,#280,.T.);
#216=ORIENTED_EDGE('',*,*,#280,.F.);
#217=ORIENTED_EDGE('',*,*,#281,.T.);
#218=ORIENTED_EDGE('',*,*,#281,.F.);
#219=ORIENTED_EDGE('',*,*,#282,.T.);
#220=ORIENTED_EDGE('',*,*,#282,.F.);
#221=ORIENTED_EDGE('',*,*,#283,.T.);
#222=ORIENTED_EDGE('',*,*,#283,.F.);
#223=ORIENTED_EDGE('',*,*,#284,.T.);
#224=ORIENTED_EDGE('',*,*,#284,.F.);
#225=ORIENTED_EDGE('',*,*,#285,.T.);
#226=ORIENTED_EDGE('',*,*,#285,.F.);
#227=ORIENTED_EDGE('',*,*,#286,.T.);
#228=ORIENTED_EDGE('',*,*,#286,.F.);
#229=ORIENTED_EDGE('',*,*,#287,.T.);
#230=ORIENTED_EDGE('',*,*,#287,.F.);
#231=ORIENTED_EDGE('',*,*,#288,.T.);
#232=ORIENTED_EDGE('',*,*,#288,.F.);
#233=ORIENTED_EDGE('',*,*,#289,.T.);
#234=ORIENTED_EDGE('',*,*,#289,.F.);
#235=ORIENTED_EDGE('',*,*,#290,.T.);
#236=ORIENTED_EDGE('',*,*,#290,.F.);
#237=ORIENTED_EDGE('',*,*,#291,.T.);
#238=ORIENTED_EDGE('',*,*,#291,.F.);
#239=ORIENTED_EDGE('',*,*,#292,.T.);
#240=ORIENTED_EDGE('',*,*,#292,.F.);
#241=ORIENTED_EDGE('',*,*,#293,.T.);
#242=ORIENTED_EDGE('',*,*,#293,.F.);
#243=ORIENTED_EDGE('',*,*,#294,.T.);
#244=ORIENTED_EDGE('',*,*,#294,.F.);
#245=ORIENTED_EDGE('',*,*,#295,.T.);
#246=ORIENTED_EDGE('',*,*,#295,.F.);
#247=VERTEX_POINT('',#492);
#248=VERTEX_POINT('',#495);
#249=VERTEX_POINT('',#498);
#250=VERTEX_POINT('',#501);
#251=VERTEX_POINT('',#504);
#252=VERTEX_POINT('',#507);
#253=VERTEX_POINT('',#510);
#254=VERTEX_POINT('',#513);
#255=VERTEX_POINT('',#516);
#256=VERTEX_POINT('',#519);
#257=VERTEX_POINT('',#522);
#258=VERTEX_POINT('',#525);
#259=VERTEX_POINT('',#528);
#260=VERTEX_POINT('',#531);
#261=VERTEX_POINT('',#534);
#262=VERTEX_POINT('',#537);
#263=VERTEX_POINT('',#540);
#264=VERTEX_POINT('',#543);
#265=VERTEX_POINT('',#546);
#266=VERTEX_POINT('',#549);
#267=VERTEX_POINT('',#552);
#268=VERTEX_POINT('',#555);
#269=VERTEX_POINT('',#558);
#270=VERTEX_POINT('',#561);
#271=VERTEX_POINT('',#564);
#272=EDGE_CURVE('',#247,#247,#296,.T.);
#273=EDGE_CURVE('',#248,#248,#297,.T.);
#274=EDGE_CURVE('',#249,#249,#298,.T.);
#275=EDGE_CURVE('',#250,#250,#299,.T.);
#276=EDGE_CURVE('',#251,#251,#300,.T.);
#277=EDGE_CURVE('',#252,#252,#301,.T.);
#278=EDGE_CURVE('',#253,#253,#302,.T.);
#279=EDGE_CURVE('',#254,#254,#303,.T.);
#280=EDGE_CURVE('',#255,#255,#304,.T.);
#281=EDGE_CURVE('',#256,#256,#305,.T.);
#282=EDGE_CURVE('',#257,#257,#306,.T.);
#283=EDGE_CURVE('',#258,#258,#307,.T.);
#284=EDGE_CURVE('',#259,#259,#308,.T.);
#285=EDGE_CURVE('',#260,#260,#309,.T.);
#286=EDGE_CURVE('',#261,#261,#310,.T.);
#287=EDGE_CURVE('',#262,#262,#311,.T.);
#288=EDGE_CURVE('',#263,#263,#312,.T.);
#289=EDGE_CURVE('',#264,#264,#313,.T.);
#290=EDGE_CURVE('',#265,#265,#314,.T.);
#291=EDGE_CURVE('',#266,#266,#315,.T.);
#292=EDGE_CURVE('',#267,#267,#316,.T.);
#293=EDGE_CURVE('',#268,#268,#317,.T.);
#294=EDGE_CURVE('',#269,#269,#318,.T.);
#295=EDGE_CURVE('',#270,#270,#319,.T.);
#296=CIRCLE('',#334,7.1477814375586);
#297=CIRCLE('',#336,8.24481198998735);
#298=CIRCLE('',#338,10.5627669386734);
#299=CIRCLE('',#340,11.1478498999687);
#300=CIRCLE('',#342,13.9604201470323);
#301=CIRCLE('',#344,14.5358919873032);
#302=CIRCLE('',#346,16.5754718402709);
#303=CIRCLE('',#348,16.8);
#304=CIRCLE('',#350,16.8);
#305=CIRCLE('',#352,16.6535533905933);
#306=CIRCLE('',#354,16.2343145750508);
#307=CIRCLE('',#356,16.);
#308=CIRCLE('',#358,16.);
#309=CIRCLE('',#360,14.0437124365505);
#310=CIRCLE('',#362,13.7482701106468);
#311=CIRCLE('',#364,13.2521236473721);
#312=CIRCLE('',#366,12.7194592710668);
#313=CIRCLE('',#368,12.25);
#314=CIRCLE('',#370,12.25);
#315=CIRCLE('',#372,12.5);
#316=CIRCLE('',#374,12.5);
#317=CIRCLE('',#376,12.25);
#318=CIRCLE('',#378,12.25);
#319=CIRCLE('',#380,10.25);
#320=CIRCLE('',#383,6.);
#321=PRESENTATION_LAYER_ASSIGNMENT('1','Layer 1',(#333,#47,#48));
#322=STYLED_ITEM('',(#325),#333);
#323=STYLED_ITEM('',(#326),#47);
#324=STYLED_ITEM('',(#327),#48);
#325=PRESENTATION_STYLE_ASSIGNMENT((#328));
#326=PRESENTATION_STYLE_ASSIGNMENT((#37));
#327=PRESENTATION_STYLE_ASSIGNMENT((#38));
#328=CURVE_STYLE('',#331,POSITIVE_LENGTH_MEASURE(0.13),#329);
#329=COLOUR_RGB('Medium Maroon',0.6,0.4,0.4);
#330=COLOUR_RGB('smoke gray',0.694117647058824,0.694117647058824,0.694117647058824);
#331=DRAUGHTING_PRE_DEFINED_CURVE_FONT('continuous');
#332=AXIS2_PLACEMENT_3D('',#489,#384,#385);
#333=AXIS2_PLACEMENT_3D('',#490,#386,#387);
#334=AXIS2_PLACEMENT_3D('',#491,#388,#389);
#335=AXIS2_PLACEMENT_3D('',#493,#390,#391);
#336=AXIS2_PLACEMENT_3D('',#494,#392,#393);
#337=AXIS2_PLACEMENT_3D('',#496,#394,#395);
#338=AXIS2_PLACEMENT_3D('',#497,#396,#397);
#339=AXIS2_PLACEMENT_3D('',#499,#398,#399);
#340=AXIS2_PLACEMENT_3D('',#500,#400,#401);
#341=AXIS2_PLACEMENT_3D('',#502,#402,#403);
#342=AXIS2_PLACEMENT_3D('',#503,#404,#405);
#343=AXIS2_PLACEMENT_3D('',#505,#406,#407);
#344=AXIS2_PLACEMENT_3D('',#506,#408,#409);
#345=AXIS2_PLACEMENT_3D('',#508,#410,#411);
#346=AXIS2_PLACEMENT_3D('',#509,#412,#413);
#347=AXIS2_PLACEMENT_3D('',#511,#414,#415);
#348=AXIS2_PLACEMENT_3D('',#512,#416,#417);
#349=AXIS2_PLACEMENT_3D('',#514,#418,#419);
#350=AXIS2_PLACEMENT_3D('',#515,#420,#421);
#351=AXIS2_PLACEMENT_3D('',#517,#422,#423);
#352=AXIS2_PLACEMENT_3D('',#518,#424,#425);
#353=AXIS2_PLACEMENT_3D('',#520,#426,#427);
#354=AXIS2_PLACEMENT_3D('',#521,#428,#429);
#355=AXIS2_PLACEMENT_3D('',#523,#430,#431);
#356=AXIS2_PLACEMENT_3D('',#524,#432,#433);
#357=AXIS2_PLACEMENT_3D('',#526,#434,#435);
#358=AXIS2_PLACEMENT_3D('',#527,#436,#437);
#359=AXIS2_PLACEMENT_3D('',#529,#438,#439);
#360=AXIS2_PLACEMENT_3D('',#530,#440,#441);
#361=AXIS2_PLACEMENT_3D('',#532,#442,#443);
#362=AXIS2_PLACEMENT_3D('',#533,#444,#445);
#363=AXIS2_PLACEMENT_3D('',#535,#446,#447);
#364=AXIS2_PLACEMENT_3D('',#536,#448,#449);
#365=AXIS2_PLACEMENT_3D('',#538,#450,#451);
#366=AXIS2_PLACEMENT_3D('',#539,#452,#453);
#367=AXIS2_PLACEMENT_3D('',#541,#454,#455);
#368=AXIS2_PLACEMENT_3D('',#542,#456,#457);
#369=AXIS2_PLACEMENT_3D('',#544,#458,#459);
#370=AXIS2_PLACEMENT_3D('',#545,#460,#461);
#371=AXIS2_PLACEMENT_3D('',#547,#462,#463);
#372=AXIS2_PLACEMENT_3D('',#548,#464,#465);
#373=AXIS2_PLACEMENT_3D('',#550,#466,#467);
#374=AXIS2_PLACEMENT_3D('',#551,#468,#469);
#375=AXIS2_PLACEMENT_3D('',#553,#470,#471);
#376=AXIS2_PLACEMENT_3D('',#554,#472,#473);
#377=AXIS2_PLACEMENT_3D('',#556,#474,#475);
#378=AXIS2_PLACEMENT_3D('',#557,#476,#477);
#379=AXIS2_PLACEMENT_3D('',#559,#478,#479);
#380=AXIS2_PLACEMENT_3D('',#560,#480,#481);
#381=AXIS2_PLACEMENT_3D('',#562,#482,#483);
#382=AXIS2_PLACEMENT_3D('',#563,#484,#485);
#383=AXIS2_PLACEMENT_3D('',#565,#486,#487);
#384=DIRECTION('',(0.,0.,1.));
#385=DIRECTION('',(1.,0.,0.));
#386=DIRECTION('',(0.,1.,0.));
#387=DIRECTION('',(-1.,0.,0.));
#388=DIRECTION('',(-1.,0.,0.));
#389=DIRECTION('',(0.,0.,1.));
#390=DIRECTION('',(1.,0.,0.));
#391=DIRECTION('',(0.,0.,-1.));
#392=DIRECTION('',(-1.,0.,0.));
#393=DIRECTION('',(0.,0.,1.));
#394=DIRECTION('',(-1.,0.,0.));
#395=DIRECTION('',(0.,0.,1.));
#396=DIRECTION('',(-1.,0.,0.));
#397=DIRECTION('',(0.,0.,1.));
#398=DIRECTION('',(-1.,0.,0.));
#399=DIRECTION('',(3.12702699945799E-17,0.,1.));
#400=DIRECTION('',(-1.,0.,0.));
#401=DIRECTION('',(0.,0.,1.));
#402=DIRECTION('',(-1.,0.,0.));
#403=DIRECTION('',(0.,0.,1.));
#404=DIRECTION('',(-1.,0.,0.));
#405=DIRECTION('',(0.,0.,1.));
#406=DIRECTION('',(1.,0.,0.));
#407=DIRECTION('',(0.,0.,-1.));
#408=DIRECTION('',(-1.,0.,0.));
#409=DIRECTION('',(0.,0.,1.));
#410=DIRECTION('',(-1.,0.,0.));
#411=DIRECTION('',(0.,0.,1.));
#412=DIRECTION('',(-1.,0.,0.));
#413=DIRECTION('',(0.,0.,1.));
#414=DIRECTION('',(1.,0.,0.));
#415=DIRECTION('',(9.44834409697082E-17,0.,-1.));
#416=DIRECTION('',(-1.,0.,0.));
#417=DIRECTION('',(0.,0.,1.));
#418=DIRECTION('',(-1.,0.,0.));
#419=DIRECTION('',(0.,0.,1.));
#420=DIRECTION('',(-1.,0.,0.));
#421=DIRECTION('',(0.,0.,1.));
#422=DIRECTION('',(-1.,0.,0.));
#423=DIRECTION('',(0.,0.,1.));
#424=DIRECTION('',(-1.,0.,0.));
#425=DIRECTION('',(0.,0.,1.));
#426=DIRECTION('',(-1.,0.,0.));
#427=DIRECTION('',(0.,0.,1.));
#428=DIRECTION('',(-1.,0.,0.));
#429=DIRECTION('',(0.,0.,1.));
#430=DIRECTION('',(-1.,0.,0.));
#431=DIRECTION('',(-3.24332150281127E-17,0.,1.));
#432=DIRECTION('',(-1.,0.,0.));
#433=DIRECTION('',(0.,0.,1.));
#434=DIRECTION('',(-1.,0.,0.));
#435=DIRECTION('',(0.,0.,1.));
#436=DIRECTION('',(-1.,0.,0.));
#437=DIRECTION('',(0.,0.,1.));
#438=DIRECTION('',(-1.,0.,0.));
#439=DIRECTION('',(0.,0.,1.));
#440=DIRECTION('',(-1.,0.,0.));
#441=DIRECTION('',(0.,0.,1.));
#442=DIRECTION('',(-1.,0.,0.));
#443=DIRECTION('',(0.,0.,1.));
#444=DIRECTION('',(-1.,0.,0.));
#445=DIRECTION('',(0.,0.,1.));
#446=DIRECTION('',(-1.,0.,0.));
#447=DIRECTION('',(0.,0.,1.));
#448=DIRECTION('',(-1.,0.,0.));
#449=DIRECTION('',(0.,0.,1.));
#450=DIRECTION('',(-1.,0.,0.));
#451=DIRECTION('',(0.,0.,1.));
#452=DIRECTION('',(-1.,0.,0.));
#453=DIRECTION('',(0.,0.,1.));
#454=DIRECTION('',(1.,0.,0.));
#455=DIRECTION('',(-2.44155254844127E-18,0.,-1.));
#456=DIRECTION('',(-1.,0.,0.));
#457=DIRECTION('',(0.,0.,1.));
#458=DIRECTION('',(-1.,0.,0.));
#459=DIRECTION('',(0.,0.,1.));
#460=DIRECTION('',(-1.,0.,0.));
#461=DIRECTION('',(0.,0.,1.));
#462=DIRECTION('',(-1.,0.,0.));
#463=DIRECTION('',(0.,0.,1.));
#464=DIRECTION('',(-1.,0.,0.));
#465=DIRECTION('',(0.,0.,1.));
#466=DIRECTION('',(1.,0.,0.));
#467=DIRECTION('',(1.48452427559293E-16,0.,-1.));
#468=DIRECTION('',(-1.,0.,0.));
#469=DIRECTION('',(0.,0.,1.));
#470=DIRECTION('',(-1.,0.,0.));
#471=DIRECTION('',(0.,0.,1.));
#472=DIRECTION('',(-1.,0.,0.));
#473=DIRECTION('',(0.,0.,1.));
#474=DIRECTION('',(-1.,0.,0.));
#475=DIRECTION('',(1.47184324997428E-16,0.,1.));
#476=DIRECTION('',(-1.,0.,0.));
#477=DIRECTION('',(0.,0.,1.));
#478=DIRECTION('',(-1.,0.,0.));
#479=DIRECTION('',(0.,0.,1.));
#480=DIRECTION('',(-1.,0.,0.));
#481=DIRECTION('',(0.,0.,1.));
#482=DIRECTION('',(-1.,0.,0.));
#483=DIRECTION('',(0.,0.,1.));
#484=DIRECTION('',(-1.,0.,0.));
#485=DIRECTION('',(0.,0.,1.));
#486=DIRECTION('',(0.,0.,1.));
#487=DIRECTION('',(1.,0.,0.));
#488=DIRECTION('',(-1.,0.,0.));
#489=CARTESIAN_POINT('',(0.,0.,0.));
#490=CARTESIAN_POINT('',(0.,0.,0.));
#491=CARTESIAN_POINT('',(4.76710613007406,0.,0.));
#492=CARTESIAN_POINT('',(4.76710613007406,0.,7.1477814375586));
#493=CARTESIAN_POINT('',(4.76710613007406,7.1477814375586,0.));
#494=CARTESIAN_POINT('',(4.2901036701678,0.,0.));
#495=CARTESIAN_POINT('',(4.2901036701678,0.,8.24481198998735));
#496=CARTESIAN_POINT('',(3.26710613007406,0.,0.));
#497=CARTESIAN_POINT('',(1.80440131195,0.,0.));
#498=CARTESIAN_POINT('',(1.80440131195,0.,10.5627669386734));
#499=CARTESIAN_POINT('',(1.80440131195,0.,0.));
#500=CARTESIAN_POINT('',(1.55,0.,0.));
#501=CARTESIAN_POINT('',(1.55,0.,11.1478498999687));
#502=CARTESIAN_POINT('',(2.35,0.,0.));
#503=CARTESIAN_POINT('',(1.55,0.,0.));
#504=CARTESIAN_POINT('',(1.55,0.,13.9604201470323));
#505=CARTESIAN_POINT('',(1.55,13.9604201470323,0.));
#506=CARTESIAN_POINT('',(1.7942733036328,0.,0.));
#507=CARTESIAN_POINT('',(1.7942733036328,0.,14.5358919873032));
#508=CARTESIAN_POINT('',(2.35,0.,0.));
#509=CARTESIAN_POINT('',(3.90632006877735,0.,0.));
#510=CARTESIAN_POINT('',(3.90632006877735,0.,16.5754718402709));
#511=CARTESIAN_POINT('',(3.90632006877735,0.,0.));
#512=CARTESIAN_POINT('',(4.46204676514455,0.,0.));
#513=CARTESIAN_POINT('',(4.46204676514455,0.,16.8));
#514=CARTESIAN_POINT('',(4.46204676514455,0.,0.));
#515=CARTESIAN_POINT('',(8.66152236891498,0.,0.));
#516=CARTESIAN_POINT('',(8.66152236891498,0.,16.8));
#517=CARTESIAN_POINT('',(0.,0.,0.));
#518=CARTESIAN_POINT('',(9.01507575950825,0.,0.));
#519=CARTESIAN_POINT('',(9.01507575950825,0.,16.6535533905933));
#520=CARTESIAN_POINT('',(8.66152236891498,0.,0.));
#521=CARTESIAN_POINT('',(9.43431457505076,0.,0.));
#522=CARTESIAN_POINT('',(9.43431457505076,0.,16.2343145750508));
#523=CARTESIAN_POINT('',(9.43431457505076,0.,0.));
#524=CARTESIAN_POINT('',(10.,0.,0.));
#525=CARTESIAN_POINT('',(10.,0.,16.));
#526=CARTESIAN_POINT('',(10.,0.,0.));
#527=CARTESIAN_POINT('',(30.6574363607646,0.,0.));
#528=CARTESIAN_POINT('',(30.6574363607646,0.,16.));
#529=CARTESIAN_POINT('',(0.,0.,0.));
#530=CARTESIAN_POINT('',(41.7520944533001,0.,0.));
#531=CARTESIAN_POINT('',(41.7520944533001,0.,14.0437124365505));
#532=CARTESIAN_POINT('',(41.7520944533001,0.,0.));
#533=CARTESIAN_POINT('',(42.,0.,0.));
#534=CARTESIAN_POINT('',(42.,0.,13.7482701106468));
#535=CARTESIAN_POINT('',(41.7,0.,0.));
#536=CARTESIAN_POINT('',(42.,0.,0.));
#537=CARTESIAN_POINT('',(42.,0.,13.2521236473721));
#538=CARTESIAN_POINT('',(42.,13.2521236473721,0.));
#539=CARTESIAN_POINT('',(41.9060768987951,0.,0.));
#540=CARTESIAN_POINT('',(41.9060768987951,0.,12.7194592710668));
#541=CARTESIAN_POINT('',(41.9060768987951,0.,0.));
#542=CARTESIAN_POINT('',(42.3,0.,0.));
#543=CARTESIAN_POINT('',(42.3,0.,12.25));
#544=CARTESIAN_POINT('',(42.3,0.,0.));
#545=CARTESIAN_POINT('',(43.0669872981078,0.,0.));
#546=CARTESIAN_POINT('',(43.0669872981078,0.,12.25));
#547=CARTESIAN_POINT('',(0.,0.,0.));
#548=CARTESIAN_POINT('',(44.,0.,0.));
#549=CARTESIAN_POINT('',(44.,0.,12.5));
#550=CARTESIAN_POINT('',(44.,0.,0.));
#551=CARTESIAN_POINT('',(154.582179545096,0.,0.));
#552=CARTESIAN_POINT('',(154.582179545096,0.,12.5));
#553=CARTESIAN_POINT('',(0.,0.,0.));
#554=CARTESIAN_POINT('',(156.,0.,0.));
#555=CARTESIAN_POINT('',(156.,0.,12.25));
#556=CARTESIAN_POINT('',(156.,0.,0.));
#557=CARTESIAN_POINT('',(158.,0.,0.));
#558=CARTESIAN_POINT('',(158.,0.,12.25));
#559=CARTESIAN_POINT('',(0.,0.,0.));
#560=CARTESIAN_POINT('',(160.,0.,0.));
#561=CARTESIAN_POINT('',(160.,0.,10.25));
#562=CARTESIAN_POINT('',(158.,0.,0.));
#563=CARTESIAN_POINT('',(160.,1.06581410364015E-14,0.));
#564=CARTESIAN_POINT('',(12.,-11.972145,1.));
#565=CARTESIAN_POINT('',(6.,-11.972145,1.));
#566=CARTESIAN_POINT('',(0.,0.,0.));
#567=(
GEOMETRIC_REPRESENTATION_CONTEXT(3)
GLOBAL_UNCERTAINTY_ASSIGNED_CONTEXT((#568))
GLOBAL_UNIT_ASSIGNED_CONTEXT((#574,#570,#569))
REPRESENTATION_CONTEXT('AEMR-RP1204M-D36-C25-L160-Z03-WEBSITE',
'TOP_LEVEL_ASSEMBLY_PART')
);
#568=UNCERTAINTY_MEASURE_WITH_UNIT(LENGTH_MEASURE(2.E-5),#574,
'DISTANCE_ACCURACY_VALUE','Maximum Tolerance applied to model');
#569=(
NAMED_UNIT(*)
SI_UNIT($,.STERADIAN.)
SOLID_ANGLE_UNIT()
);
#570=(
CONVERSION_BASED_UNIT('DEGREE',#572)
NAMED_UNIT(#571)
PLANE_ANGLE_UNIT()
);
#571=DIMENSIONAL_EXPONENTS(0.,0.,0.,0.,0.,0.,0.);
#572=PLANE_ANGLE_MEASURE_WITH_UNIT(PLANE_ANGLE_MEASURE(0.0174532925),#573);
#573=(
NAMED_UNIT(*)
PLANE_ANGLE_UNIT()
SI_UNIT($,.RADIAN.)
);
#574=(
LENGTH_UNIT()
NAMED_UNIT(*)
SI_UNIT(.MILLI.,.METRE.)
);
ENDSEC;
END-ISO-10303-21;
