ISO-10303-21;
HEADER;
/* Generated by software containing ST-Developer
 * from STEP Tools, Inc. (www.steptools.com) 
 */
/* OPTION: using custom schema-name function */

FILE_DESCRIPTION(
/* description */ (''),
/* implementation_level */ '2;1');

FILE_NAME(
/* name */ 'model1.stp',
/* time_stamp */ '2023-11-07T08:56:17+03:00',
/* author */ (''),
/* organization */ (''),
/* preprocessor_version */ 'ST-DEVELOPER v19.4',
/* originating_system */ 'SIEMENS PLM Software NX2306.3001',
/* authorisation */ '');

FILE_SCHEMA (('AUTOMOTIVE_DESIGN { 1 0 10303 214 3 1 1 1 }'));
ENDSEC;

DATA;
#10=PROPERTY_DEFINITION_REPRESENTATION(#14,#12);
#11=PROPERTY_DEFINITION_REPRESENTATION(#15,#13);
#12=REPRESENTATION('',(#16),#508);
#13=REPRESENTATION('',(#17),#508);
#14=PROPERTY_DEFINITION('pmi validation property','',#21);
#15=PROPERTY_DEFINITION('pmi validation property','',#21);
#16=VALUE_REPRESENTATION_ITEM('number of annotations',COUNT_MEASURE(0.));
#17=VALUE_REPRESENTATION_ITEM('number of views',COUNT_MEASURE(0.));
#18=SHAPE_REPRESENTATION_RELATIONSHIP('None',
'relationship between model1_objects-None and model1_objects-None',#30,
#19);
#19=ADVANCED_BREP_SHAPE_REPRESENTATION('model1_objects-None',(#149,#150),
#508);
#20=SHAPE_DEFINITION_REPRESENTATION(#21,#30);
#21=PRODUCT_DEFINITION_SHAPE('','',#22);
#22=PRODUCT_DEFINITION(' ','',#24,#23);
#23=PRODUCT_DEFINITION_CONTEXT('part definition',#29,'design');
#24=PRODUCT_DEFINITION_FORMATION_WITH_SPECIFIED_SOURCE(' ',' ',#26,
 .NOT_KNOWN.);
#25=PRODUCT_RELATED_PRODUCT_CATEGORY('part','',(#26));
#26=PRODUCT('model1_objects','model1_objects',' ',(#27));
#27=PRODUCT_CONTEXT(' ',#29,'mechanical');
#28=APPLICATION_PROTOCOL_DEFINITION('international standard',
'automotive_design',2010,#29);
#29=APPLICATION_CONTEXT(
'core data for automotive mechanical design processes');
#30=SHAPE_REPRESENTATION('model1_objects-None',(#284),#508);
#31=OVER_RIDING_STYLED_ITEM('',(#66),#155,#63);
#32=OVER_RIDING_STYLED_ITEM('',(#67),#156,#63);
#33=OVER_RIDING_STYLED_ITEM('',(#68),#157,#63);
#34=OVER_RIDING_STYLED_ITEM('',(#69),#158,#63);
#35=OVER_RIDING_STYLED_ITEM('',(#70),#159,#63);
#36=OVER_RIDING_STYLED_ITEM('',(#71),#160,#63);
#37=OVER_RIDING_STYLED_ITEM('',(#72),#161,#63);
#38=OVER_RIDING_STYLED_ITEM('',(#73),#162,#63);
#39=OVER_RIDING_STYLED_ITEM('',(#74),#163,#63);
#40=OVER_RIDING_STYLED_ITEM('',(#75),#164,#63);
#41=OVER_RIDING_STYLED_ITEM('',(#76),#165,#63);
#42=OVER_RIDING_STYLED_ITEM('',(#77),#166,#63);
#43=COLOUR_RGB('Medium Steel',0.611764705882353,0.658823529411765,0.670588235294118);
#44=COLOUR_RGB('silver gray',0.6,0.6,0.6);
#45=CONICAL_SURFACE('',#301,7.75,0.9628636256362);
#46=CONICAL_SURFACE('',#303,8.,45.0000000000001);
#47=CONICAL_SURFACE('',#307,7.75,9.99999999999998);
#48=CYLINDRICAL_SURFACE('',#297,7.25);
#49=CYLINDRICAL_SURFACE('',#305,8.);
#50=CYLINDRICAL_SURFACE('',#308,7.75);
#51=SURFACE_OF_REVOLUTION('',#53,#52);
#52=AXIS1_PLACEMENT('',#485,#329);
#53=B_SPLINE_CURVE_WITH_KNOTS('',3,(#453,#454,#455,#456,#457,#458,#459,
#460,#461,#462,#463,#464,#465,#466,#467,#468,#469,#470,#471,#472,#473,#474,
#475,#476,#477,#478,#479,#480,#481,#482,#483,#484),.UNSPECIFIED.,.F.,.F.,
(4,2,2,2,2,2,2,2,2,2,2,2,2,2,2,4),(0.,0.00989400666594706,0.0786549654634033,
0.14741592426086,0.216176883058316,0.284937841855772,0.353698800653229,
0.422459759450684,0.559981677045596,0.628742635843053,0.697503594640509,
0.766264553437965,0.835025512235422,0.903786471032878,0.972547429830334,
1.),.UNSPECIFIED.);
#54=PLANE('',#290);
#55=PLANE('',#292);
#56=FACE_OUTER_BOUND('',#199,.T.);
#57=FACE_OUTER_BOUND('',#200,.T.);
#58=TOROIDAL_SURFACE('',#289,6.75,1.);
#59=TOROIDAL_SURFACE('',#295,8.25,1.);
#60=TOROIDAL_SURFACE('',#299,22.25,15.);
#61=PRESENTATION_LAYER_ASSIGNMENT('1','Layer 1',(#149,#150));
#62=STYLED_ITEM('',(#64),#149);
#63=STYLED_ITEM('',(#65),#150);
#64=PRESENTATION_STYLE_ASSIGNMENT((#78));
#65=PRESENTATION_STYLE_ASSIGNMENT((#79));
#66=PRESENTATION_STYLE_ASSIGNMENT((#80));
#67=PRESENTATION_STYLE_ASSIGNMENT((#81));
#68=PRESENTATION_STYLE_ASSIGNMENT((#82));
#69=PRESENTATION_STYLE_ASSIGNMENT((#83));
#70=PRESENTATION_STYLE_ASSIGNMENT((#84));
#71=PRESENTATION_STYLE_ASSIGNMENT((#85));
#72=PRESENTATION_STYLE_ASSIGNMENT((#86));
#73=PRESENTATION_STYLE_ASSIGNMENT((#87));
#74=PRESENTATION_STYLE_ASSIGNMENT((#88));
#75=PRESENTATION_STYLE_ASSIGNMENT((#89));
#76=PRESENTATION_STYLE_ASSIGNMENT((#90));
#77=PRESENTATION_STYLE_ASSIGNMENT((#91));
#78=SURFACE_STYLE_USAGE(.BOTH.,#92);
#79=SURFACE_STYLE_USAGE(.BOTH.,#93);
#80=SURFACE_STYLE_USAGE(.BOTH.,#94);
#81=SURFACE_STYLE_USAGE(.BOTH.,#95);
#82=SURFACE_STYLE_USAGE(.BOTH.,#96);
#83=SURFACE_STYLE_USAGE(.BOTH.,#97);
#84=SURFACE_STYLE_USAGE(.BOTH.,#98);
#85=SURFACE_STYLE_USAGE(.BOTH.,#99);
#86=SURFACE_STYLE_USAGE(.BOTH.,#100);
#87=SURFACE_STYLE_USAGE(.BOTH.,#101);
#88=SURFACE_STYLE_USAGE(.BOTH.,#102);
#89=SURFACE_STYLE_USAGE(.BOTH.,#103);
#90=SURFACE_STYLE_USAGE(.BOTH.,#104);
#91=SURFACE_STYLE_USAGE(.BOTH.,#105);
#92=SURFACE_SIDE_STYLE('',(#106));
#93=SURFACE_SIDE_STYLE('',(#107));
#94=SURFACE_SIDE_STYLE('',(#108));
#95=SURFACE_SIDE_STYLE('',(#109));
#96=SURFACE_SIDE_STYLE('',(#110));
#97=SURFACE_SIDE_STYLE('',(#111));
#98=SURFACE_SIDE_STYLE('',(#112));
#99=SURFACE_SIDE_STYLE('',(#113));
#100=SURFACE_SIDE_STYLE('',(#114));
#101=SURFACE_SIDE_STYLE('',(#115));
#102=SURFACE_SIDE_STYLE('',(#116));
#103=SURFACE_SIDE_STYLE('',(#117));
#104=SURFACE_SIDE_STYLE('',(#118));
#105=SURFACE_SIDE_STYLE('',(#119));
#106=SURFACE_STYLE_FILL_AREA(#120);
#107=SURFACE_STYLE_FILL_AREA(#121);
#108=SURFACE_STYLE_FILL_AREA(#122);
#109=SURFACE_STYLE_FILL_AREA(#123);
#110=SURFACE_STYLE_FILL_AREA(#124);
#111=SURFACE_STYLE_FILL_AREA(#125);
#112=SURFACE_STYLE_FILL_AREA(#126);
#113=SURFACE_STYLE_FILL_AREA(#127);
#114=SURFACE_STYLE_FILL_AREA(#128);
#115=SURFACE_STYLE_FILL_AREA(#129);
#116=SURFACE_STYLE_FILL_AREA(#130);
#117=SURFACE_STYLE_FILL_AREA(#131);
#118=SURFACE_STYLE_FILL_AREA(#132);
#119=SURFACE_STYLE_FILL_AREA(#133);
#120=FILL_AREA_STYLE('',(#134));
#121=FILL_AREA_STYLE('',(#135));
#122=FILL_AREA_STYLE('',(#136));
#123=FILL_AREA_STYLE('',(#137));
#124=FILL_AREA_STYLE('',(#138));
#125=FILL_AREA_STYLE('',(#139));
#126=FILL_AREA_STYLE('',(#140));
#127=FILL_AREA_STYLE('',(#141));
#128=FILL_AREA_STYLE('',(#142));
#129=FILL_AREA_STYLE('',(#143));
#130=FILL_AREA_STYLE('',(#144));
#131=FILL_AREA_STYLE('',(#145));
#132=FILL_AREA_STYLE('',(#146));
#133=FILL_AREA_STYLE('',(#147));
#134=FILL_AREA_STYLE_COLOUR('',#148);
#135=FILL_AREA_STYLE_COLOUR('',#43);
#136=FILL_AREA_STYLE_COLOUR('',#44);
#137=FILL_AREA_STYLE_COLOUR('',#44);
#138=FILL_AREA_STYLE_COLOUR('',#44);
#139=FILL_AREA_STYLE_COLOUR('',#44);
#140=FILL_AREA_STYLE_COLOUR('',#44);
#141=FILL_AREA_STYLE_COLOUR('',#44);
#142=FILL_AREA_STYLE_COLOUR('',#44);
#143=FILL_AREA_STYLE_COLOUR('',#44);
#144=FILL_AREA_STYLE_COLOUR('',#44);
#145=FILL_AREA_STYLE_COLOUR('',#44);
#146=FILL_AREA_STYLE_COLOUR('',#44);
#147=FILL_AREA_STYLE_COLOUR('',#44);
#148=DRAUGHTING_PRE_DEFINED_COLOUR('yellow');
#149=MANIFOLD_SOLID_BREP('',#151);
#150=MANIFOLD_SOLID_BREP('',#152);
#151=CLOSED_SHELL('',(#153,#154));
#152=CLOSED_SHELL('',(#155,#156,#157,#158,#159,#160,#161,#162,#163,#164,
#165,#166));
#153=ADVANCED_FACE('',(#169,#170),#167,.F.);
#154=ADVANCED_FACE('',(#171,#172),#168,.F.);
#155=ADVANCED_FACE('',(#173,#174),#58,.T.);
#156=ADVANCED_FACE('',(#56),#54,.F.);
#157=ADVANCED_FACE('',(#57),#55,.F.);
#158=ADVANCED_FACE('',(#175,#176),#51,.T.);
#159=ADVANCED_FACE('',(#177,#178),#59,.F.);
#160=ADVANCED_FACE('',(#179,#180),#48,.T.);
#161=ADVANCED_FACE('',(#181,#182),#60,.F.);
#162=ADVANCED_FACE('',(#183,#184),#45,.T.);
#163=ADVANCED_FACE('',(#185,#186),#46,.T.);
#164=ADVANCED_FACE('',(#187,#188),#49,.T.);
#165=ADVANCED_FACE('',(#189,#190),#47,.T.);
#166=ADVANCED_FACE('',(#191,#192),#50,.T.);
#167=(
BOUNDED_SURFACE()
B_SPLINE_SURFACE(3,3,((#365,#366,#367,#368,#369,#370,#371),(#372,#373,#374,
#375,#376,#377,#378),(#379,#380,#381,#382,#383,#384,#385),(#386,#387,#388,
#389,#390,#391,#392),(#393,#394,#395,#396,#397,#398,#399),(#400,#401,#402,
#403,#404,#405,#406),(#407,#408,#409,#410,#411,#412,#413)),
 .UNSPECIFIED.,.T.,.F.,.F.)
B_SPLINE_SURFACE_WITH_KNOTS((1,3,3,3,1),(4,3,4),(-0.5,0.,0.5,1.,1.5),(0.,
0.5,1.),.UNSPECIFIED.)
GEOMETRIC_REPRESENTATION_ITEM()
RATIONAL_B_SPLINE_SURFACE(((1.,0.55712674708391,0.55712674708391,1.,0.55712674708391,
0.55712674708391,1.),(0.333333333333334,0.185708915694637,0.185708915694637,
0.333333333333334,0.185708915694637,0.185708915694637,0.333333333333334),
(0.333333333333334,0.185708915694637,0.185708915694637,0.333333333333334,
0.185708915694637,0.185708915694637,0.333333333333334),(1.,0.55712674708391,
0.55712674708391,1.,0.55712674708391,0.55712674708391,1.),(0.333333333333334,
0.185708915694637,0.185708915694637,0.333333333333334,0.185708915694637,
0.185708915694637,0.333333333333334),(0.333333333333334,0.185708915694637,
0.185708915694637,0.333333333333334,0.185708915694637,0.185708915694637,
0.333333333333334),(1.,0.55712674708391,0.55712674708391,1.,0.55712674708391,
0.55712674708391,1.)))
REPRESENTATION_ITEM('')
SURFACE()
);
#168=(
BOUNDED_SURFACE()
B_SPLINE_SURFACE(3,3,((#414,#415,#416,#417),(#418,#419,#420,#421),(#422,
#423,#424,#425),(#426,#427,#428,#429),(#430,#431,#432,#433),(#434,#435,
#436,#437),(#438,#439,#440,#441)),.UNSPECIFIED.,.T.,.F.,.F.)
B_SPLINE_SURFACE_WITH_KNOTS((1,3,3,3,1),(4,4),(-0.5,0.,0.5,1.,1.5),(0.,
1.),.UNSPECIFIED.)
GEOMETRIC_REPRESENTATION_ITEM()
RATIONAL_B_SPLINE_SURFACE(((1.,0.849749523885589,0.849749523885589,1.),
(0.333333333333334,0.283249841295196,0.283249841295196,0.333333333333334),
(0.333333333333334,0.283249841295196,0.283249841295196,0.333333333333334),
(1.,0.849749523885589,0.849749523885589,1.),(0.333333333333334,0.283249841295196,
0.283249841295196,0.333333333333334),(0.333333333333334,0.283249841295196,
0.283249841295196,0.333333333333334),(1.,0.849749523885589,0.849749523885589,
1.)))
REPRESENTATION_ITEM('')
SURFACE()
);
#169=FACE_BOUND('',#193,.T.);
#170=FACE_BOUND('',#194,.T.);
#171=FACE_BOUND('',#195,.T.);
#172=FACE_BOUND('',#196,.T.);
#173=FACE_BOUND('',#197,.T.);
#174=FACE_BOUND('',#198,.T.);
#175=FACE_BOUND('',#201,.T.);
#176=FACE_BOUND('',#202,.T.);
#177=FACE_BOUND('',#203,.T.);
#178=FACE_BOUND('',#204,.T.);
#179=FACE_BOUND('',#205,.T.);
#180=FACE_BOUND('',#206,.T.);
#181=FACE_BOUND('',#207,.T.);
#182=FACE_BOUND('',#208,.T.);
#183=FACE_BOUND('',#209,.T.);
#184=FACE_BOUND('',#210,.T.);
#185=FACE_BOUND('',#211,.T.);
#186=FACE_BOUND('',#212,.T.);
#187=FACE_BOUND('',#213,.T.);
#188=FACE_BOUND('',#214,.T.);
#189=FACE_BOUND('',#215,.T.);
#190=FACE_BOUND('',#216,.T.);
#191=FACE_BOUND('',#217,.T.);
#192=FACE_BOUND('',#218,.T.);
#193=EDGE_LOOP('',(#219));
#194=EDGE_LOOP('',(#220));
#195=EDGE_LOOP('',(#221));
#196=EDGE_LOOP('',(#222));
#197=EDGE_LOOP('',(#223));
#198=EDGE_LOOP('',(#224));
#199=EDGE_LOOP('',(#225));
#200=EDGE_LOOP('',(#226));
#201=EDGE_LOOP('',(#227));
#202=EDGE_LOOP('',(#228));
#203=EDGE_LOOP('',(#229));
#204=EDGE_LOOP('',(#230));
#205=EDGE_LOOP('',(#231));
#206=EDGE_LOOP('',(#232));
#207=EDGE_LOOP('',(#233));
#208=EDGE_LOOP('',(#234));
#209=EDGE_LOOP('',(#235));
#210=EDGE_LOOP('',(#236));
#211=EDGE_LOOP('',(#237));
#212=EDGE_LOOP('',(#238));
#213=EDGE_LOOP('',(#239));
#214=EDGE_LOOP('',(#240));
#215=EDGE_LOOP('',(#241));
#216=EDGE_LOOP('',(#242));
#217=EDGE_LOOP('',(#243));
#218=EDGE_LOOP('',(#244));
#219=ORIENTED_EDGE('',*,*,#258,.T.);
#220=ORIENTED_EDGE('',*,*,#259,.F.);
#221=ORIENTED_EDGE('',*,*,#259,.T.);
#222=ORIENTED_EDGE('',*,*,#258,.F.);
#223=ORIENTED_EDGE('',*,*,#260,.F.);
#224=ORIENTED_EDGE('',*,*,#261,.T.);
#225=ORIENTED_EDGE('',*,*,#261,.F.);
#226=ORIENTED_EDGE('',*,*,#262,.T.);
#227=ORIENTED_EDGE('',*,*,#262,.F.);
#228=ORIENTED_EDGE('',*,*,#263,.T.);
#229=ORIENTED_EDGE('',*,*,#263,.F.);
#230=ORIENTED_EDGE('',*,*,#264,.T.);
#231=ORIENTED_EDGE('',*,*,#264,.F.);
#232=ORIENTED_EDGE('',*,*,#265,.T.);
#233=ORIENTED_EDGE('',*,*,#265,.F.);
#234=ORIENTED_EDGE('',*,*,#266,.T.);
#235=ORIENTED_EDGE('',*,*,#266,.F.);
#236=ORIENTED_EDGE('',*,*,#267,.T.);
#237=ORIENTED_EDGE('',*,*,#267,.F.);
#238=ORIENTED_EDGE('',*,*,#268,.T.);
#239=ORIENTED_EDGE('',*,*,#268,.F.);
#240=ORIENTED_EDGE('',*,*,#269,.T.);
#241=ORIENTED_EDGE('',*,*,#269,.F.);
#242=ORIENTED_EDGE('',*,*,#270,.T.);
#243=ORIENTED_EDGE('',*,*,#270,.F.);
#244=ORIENTED_EDGE('',*,*,#260,.T.);
#245=VERTEX_POINT('',#362);
#246=VERTEX_POINT('',#364);
#247=VERTEX_POINT('',#443);
#248=VERTEX_POINT('',#445);
#249=VERTEX_POINT('',#449);
#250=VERTEX_POINT('',#452);
#251=VERTEX_POINT('',#487);
#252=VERTEX_POINT('',#490);
#253=VERTEX_POINT('',#493);
#254=VERTEX_POINT('',#496);
#255=VERTEX_POINT('',#499);
#256=VERTEX_POINT('',#502);
#257=VERTEX_POINT('',#505);
#258=EDGE_CURVE('',#245,#245,#271,.T.);
#259=EDGE_CURVE('',#246,#246,#272,.T.);
#260=EDGE_CURVE('',#247,#247,#273,.T.);
#261=EDGE_CURVE('',#248,#248,#274,.T.);
#262=EDGE_CURVE('',#249,#249,#275,.T.);
#263=EDGE_CURVE('',#250,#250,#276,.T.);
#264=EDGE_CURVE('',#251,#251,#277,.T.);
#265=EDGE_CURVE('',#252,#252,#278,.T.);
#266=EDGE_CURVE('',#253,#253,#279,.T.);
#267=EDGE_CURVE('',#254,#254,#280,.T.);
#268=EDGE_CURVE('',#255,#255,#281,.T.);
#269=EDGE_CURVE('',#256,#256,#282,.T.);
#270=EDGE_CURVE('',#257,#257,#283,.T.);
#271=CIRCLE('',#285,4.);
#272=CIRCLE('',#286,4.);
#273=CIRCLE('',#287,7.75);
#274=CIRCLE('',#288,6.75);
#275=CIRCLE('',#291,2.35681541714708);
#276=CIRCLE('',#293,7.25277235928044);
#277=CIRCLE('',#294,7.25);
#278=CIRCLE('',#296,7.25);
#279=CIRCLE('',#298,7.25211804576035);
#280=CIRCLE('',#300,7.75);
#281=CIRCLE('',#302,8.);
#282=CIRCLE('',#304,8.);
#283=CIRCLE('',#306,7.75);
#284=AXIS2_PLACEMENT_3D('',#360,#309,#310);
#285=AXIS2_PLACEMENT_3D('',#361,#311,#312);
#286=AXIS2_PLACEMENT_3D('',#363,#313,#314);
#287=AXIS2_PLACEMENT_3D('',#442,#315,#316);
#288=AXIS2_PLACEMENT_3D('',#444,#317,#318);
#289=AXIS2_PLACEMENT_3D('',#446,#319,#320);
#290=AXIS2_PLACEMENT_3D('',#447,#321,#322);
#291=AXIS2_PLACEMENT_3D('',#448,#323,#324);
#292=AXIS2_PLACEMENT_3D('',#450,#325,#326);
#293=AXIS2_PLACEMENT_3D('',#451,#327,#328);
#294=AXIS2_PLACEMENT_3D('',#486,#330,#331);
#295=AXIS2_PLACEMENT_3D('',#488,#332,#333);
#296=AXIS2_PLACEMENT_3D('',#489,#334,#335);
#297=AXIS2_PLACEMENT_3D('',#491,#336,#337);
#298=AXIS2_PLACEMENT_3D('',#492,#338,#339);
#299=AXIS2_PLACEMENT_3D('',#494,#340,#341);
#300=AXIS2_PLACEMENT_3D('',#495,#342,#343);
#301=AXIS2_PLACEMENT_3D('',#497,#344,#345);
#302=AXIS2_PLACEMENT_3D('',#498,#346,#347);
#303=AXIS2_PLACEMENT_3D('',#500,#348,#349);
#304=AXIS2_PLACEMENT_3D('',#501,#350,#351);
#305=AXIS2_PLACEMENT_3D('',#503,#352,#353);
#306=AXIS2_PLACEMENT_3D('',#504,#354,#355);
#307=AXIS2_PLACEMENT_3D('',#506,#356,#357);
#308=AXIS2_PLACEMENT_3D('',#507,#358,#359);
#309=DIRECTION('',(0.,0.,1.));
#310=DIRECTION('',(1.,0.,0.));
#311=DIRECTION('',(-0.0523359562429439,0.941105239330862,0.334038734562534));
#312=DIRECTION('',(0.,-0.334497151283061,0.942396761339679));
#313=DIRECTION('',(-0.0523359562429439,-0.138982369062101,0.988910940769705));
#314=DIRECTION('',(0.,-0.99026806874157,-0.139173100960065));
#315=DIRECTION('',(-1.,0.,0.));
#316=DIRECTION('',(0.,0.,1.));
#317=DIRECTION('',(-1.,0.,0.));
#318=DIRECTION('',(0.,0.,1.));
#319=DIRECTION('',(-1.,0.,0.));
#320=DIRECTION('',(0.,0.,1.));
#321=DIRECTION('',(-1.,0.,0.));
#322=DIRECTION('',(0.,0.,1.));
#323=DIRECTION('',(-1.,0.,0.));
#324=DIRECTION('',(0.,0.,1.));
#325=DIRECTION('',(1.,0.,0.));
#326=DIRECTION('',(0.,0.,-1.));
#327=DIRECTION('',(-1.,0.,0.));
#328=DIRECTION('',(0.,0.,1.));
#329=DIRECTION('',(-1.,0.,0.));
#330=DIRECTION('',(-1.,0.,0.));
#331=DIRECTION('',(0.,0.,1.));
#332=DIRECTION('',(-1.,0.,0.));
#333=DIRECTION('',(0.,0.,1.));
#334=DIRECTION('',(-1.,0.,0.));
#335=DIRECTION('',(0.,0.,1.));
#336=DIRECTION('',(-1.,0.,0.));
#337=DIRECTION('',(0.,0.,1.));
#338=DIRECTION('',(-1.,0.,0.));
#339=DIRECTION('',(0.,0.,1.));
#340=DIRECTION('',(-1.,0.,0.));
#341=DIRECTION('',(0.,0.,1.));
#342=DIRECTION('',(-1.,0.,0.));
#343=DIRECTION('',(0.,0.,1.));
#344=DIRECTION('',(1.,0.,0.));
#345=DIRECTION('',(3.10822555230204E-15,0.,-1.));
#346=DIRECTION('',(-1.,0.,0.));
#347=DIRECTION('',(0.,0.,1.));
#348=DIRECTION('',(1.,0.,0.));
#349=DIRECTION('',(-6.19544098563143E-17,0.,-1.));
#350=DIRECTION('',(-1.,0.,0.));
#351=DIRECTION('',(0.,0.,1.));
#352=DIRECTION('',(-1.,0.,0.));
#353=DIRECTION('',(0.,0.,1.));
#354=DIRECTION('',(-1.,0.,0.));
#355=DIRECTION('',(0.,0.,1.));
#356=DIRECTION('',(-1.,0.,0.));
#357=DIRECTION('',(1.5078243628728E-16,0.,1.));
#358=DIRECTION('',(-1.,0.,0.));
#359=DIRECTION('',(0.,0.,1.));
#360=CARTESIAN_POINT('',(0.,0.,0.));
#361=CARTESIAN_POINT('',(3.99451813901829,-0.0591268018365408,4.10789284098143));
#362=CARTESIAN_POINT('',(3.99451813901829,-1.39711540696878,7.87747988634015));
#363=CARTESIAN_POINT('',(3.99451813901829,-4.03665520432188,0.763998909098036));
#364=CARTESIAN_POINT('',(3.99451813901829,-7.99772747928816,0.207306505257774));
#365=CARTESIAN_POINT('',(3.99451813901829,-7.99772747928817,0.207306505257773));
#366=CARTESIAN_POINT('',(3.9945181390183,-8.23139904837794,-8.80756510677285));
#367=CARTESIAN_POINT('',(3.9945181390183,0.181920635041809,-12.0538806318225));
#368=CARTESIAN_POINT('',(3.99451813901829,6.06412880291385,-5.21852112017896));
#369=CARTESIAN_POINT('',(3.9945181390183,11.9463369707859,1.61683839146459));
#370=CARTESIAN_POINT('',(3.9945181390183,7.48221562620499,9.4522792344838));
#371=CARTESIAN_POINT('',(3.99451813901829,-1.39711540696878,7.87747988634015));
#372=CARTESIAN_POINT('',(11.9835544170549,-8.05599753786449,0.62191951577332));
#373=CARTESIAN_POINT('',(11.9835544170549,-8.75701224513376,-8.45863289098949));
#374=CARTESIAN_POINT('',(11.9835544170549,-0.438705535395272,-12.1672211823064));
#375=CARTESIAN_POINT('',(11.9835544170549,5.84705593746414,-5.5765416772713));
#376=CARTESIAN_POINT('',(11.9835544170549,12.1328174103236,1.01413782776381));
#377=CARTESIAN_POINT('',(11.9835544170549,8.03464675468424,9.14757811518402));
#378=CARTESIAN_POINT('',(11.9835544170549,-1.00254552164906,8.01752971252368));
#379=CARTESIAN_POINT('',(11.9835544170549,-0.133852987931923,1.73530432345384));
#380=CARTESIAN_POINT('',(11.9835544170549,-2.08985182938412,1.58442802712868));
#381=CARTESIAN_POINT('',(11.9835544170549,-2.60433999820655,-0.308716723992286));
#382=CARTESIAN_POINT('',(11.9835544170549,-0.993758347659523,-1.42886040739917));
#383=CARTESIAN_POINT('',(11.9835544170549,0.616823302887507,-2.54900409080605));
#384=CARTESIAN_POINT('',(11.9835544170549,2.21262416880982,-1.4079016760874));
#385=CARTESIAN_POINT('',(11.9835544170549,1.67343168861543,0.478355621806227));
#386=CARTESIAN_POINT('',(3.9945181390183,-0.0755829293555953,1.3206913129383));
#387=CARTESIAN_POINT('',(3.9945181390183,-1.56423863262827,1.23549581134532));
#388=CARTESIAN_POINT('',(3.9945181390183,-1.98371382776948,-0.195376173508383));
#389=CARTESIAN_POINT('',(3.9945181390183,-0.776685482209819,-1.07083985030683));
#390=CARTESIAN_POINT('',(3.9945181390183,0.430342863349836,-1.94630352710528));
#391=CARTESIAN_POINT('',(3.9945181390183,1.66019304033056,-1.10320055678765));
#392=CARTESIAN_POINT('',(3.9945181390183,1.2788618032957,0.338305795622708));
#393=CARTESIAN_POINT('',(-3.99451813901829,-0.017312870779268,0.90607830242275));
#394=CARTESIAN_POINT('',(-3.9945181390183,-1.03862543587242,0.886563595561961));
#395=CARTESIAN_POINT('',(-3.9945181390183,-1.36308765733239,-0.0820356230244788));
#396=CARTESIAN_POINT('',(-3.99451813901829,-0.559612616760114,-0.712819293214494));
#397=CARTESIAN_POINT('',(-3.9945181390183,0.243862423812162,-1.34360296340451));
#398=CARTESIAN_POINT('',(-3.9945181390183,1.10776191185129,-0.798499437487891));
#399=CARTESIAN_POINT('',(-3.99451813901829,0.884291917975981,0.198255969439191));
#400=CARTESIAN_POINT('',(-3.9945181390183,-7.93945742071183,-0.207306505257774));
#401=CARTESIAN_POINT('',(-3.9945181390183,-7.70578585162207,-9.15649732255621));
#402=CARTESIAN_POINT('',(-3.9945181390183,0.80254680547889,-11.9405400813386));
#403=CARTESIAN_POINT('',(-3.9945181390183,6.28120166836356,-4.86050056308661));
#404=CARTESIAN_POINT('',(-3.9945181390183,11.7598565312482,2.21953895516535));
#405=CARTESIAN_POINT('',(-3.9945181390183,6.92978449772572,9.75698035378353));
#406=CARTESIAN_POINT('',(-3.9945181390183,-1.79168529228851,7.73743006015663));
#407=CARTESIAN_POINT('',(3.99451813901829,-7.99772747928817,0.207306505257773));
#408=CARTESIAN_POINT('',(3.9945181390183,-8.23139904837794,-8.80756510677285));
#409=CARTESIAN_POINT('',(3.9945181390183,0.181920635041809,-12.0538806318225));
#410=CARTESIAN_POINT('',(3.99451813901829,6.06412880291385,-5.21852112017896));
#411=CARTESIAN_POINT('',(3.9945181390183,11.9463369707859,1.61683839146459));
#412=CARTESIAN_POINT('',(3.9945181390183,7.48221562620499,9.4522792344838));
#413=CARTESIAN_POINT('',(3.99451813901829,-1.39711540696878,7.87747988634015));
#414=CARTESIAN_POINT('',(3.99451813901829,-1.39711540696879,7.87747988634015));
#415=CARTESIAN_POINT('',(3.9945181390183,-5.30563129981722,7.18428258833754));
#416=CARTESIAN_POINT('',(3.9945181390183,-7.89486961329781,4.17548483265321));
#417=CARTESIAN_POINT('',(3.99451813901829,-7.99772747928816,0.207306505257772));
#418=CARTESIAN_POINT('',(11.9835544170549,-1.00254552164906,8.01752971252368));
#419=CARTESIAN_POINT('',(11.9835544170549,-4.98054898911868,7.52010348469361));
#420=CARTESIAN_POINT('',(11.9835544170549,-7.74742393989343,4.61900930385273));
#421=CARTESIAN_POINT('',(11.9835544170549,-8.05599753786448,0.621919515773319));
#422=CARTESIAN_POINT('',(11.9835544170549,1.67343168861543,0.478355621806227));
#423=CARTESIAN_POINT('',(11.9835544170549,1.43608921650007,1.30865089960076));
#424=CARTESIAN_POINT('',(11.9835544170549,0.727141216433994,1.80171725477016));
#425=CARTESIAN_POINT('',(11.9835544170549,-0.133852987931923,1.73530432345384));
#426=CARTESIAN_POINT('',(3.9945181390183,1.27886180329571,0.338305795622709));
#427=CARTESIAN_POINT('',(3.9945181390183,1.11100690580153,0.972830003244689));
#428=CARTESIAN_POINT('',(3.9945181390183,0.579695543029616,1.35819278357063));
#429=CARTESIAN_POINT('',(3.9945181390183,-0.0755829293555955,1.3206913129383));
#430=CARTESIAN_POINT('',(-3.99451813901829,0.884291917975981,0.198255969439191));
#431=CARTESIAN_POINT('',(-3.9945181390183,0.785924595102987,0.637009106888624));
#432=CARTESIAN_POINT('',(-3.9945181390183,0.432249869625238,0.914668312371102));
#433=CARTESIAN_POINT('',(-3.99451813901829,-0.0173128707792681,0.90607830242275));
#434=CARTESIAN_POINT('',(-3.9945181390183,-1.79168529228851,7.73743006015663));
#435=CARTESIAN_POINT('',(-3.9945181390183,-5.63071361051576,6.84846169198147));
#436=CARTESIAN_POINT('',(-3.9945181390183,-8.0423152867022,3.73196036145368));
#437=CARTESIAN_POINT('',(-3.9945181390183,-7.93945742071183,-0.207306505257775));
#438=CARTESIAN_POINT('',(3.99451813901829,-1.39711540696879,7.87747988634015));
#439=CARTESIAN_POINT('',(3.9945181390183,-5.30563129981722,7.18428258833754));
#440=CARTESIAN_POINT('',(3.9945181390183,-7.89486961329781,4.17548483265321));
#441=CARTESIAN_POINT('',(3.99451813901829,-7.99772747928816,0.207306505257772));
#442=CARTESIAN_POINT('',(149.,0.,0.));
#443=CARTESIAN_POINT('',(149.,0.,7.75));
#444=CARTESIAN_POINT('',(150.,0.,0.));
#445=CARTESIAN_POINT('',(150.,0.,6.75));
#446=CARTESIAN_POINT('',(149.,0.,0.));
#447=CARTESIAN_POINT('',(150.,0.,0.));
#448=CARTESIAN_POINT('',(2.,0.,0.));
#449=CARTESIAN_POINT('',(2.,0.,2.35681541714708));
#450=CARTESIAN_POINT('',(2.,2.35681541714708,0.));
#451=CARTESIAN_POINT('',(5.51385818397378,0.,0.));
#452=CARTESIAN_POINT('',(5.51385818397378,0.,7.25277235928044));
#453=CARTESIAN_POINT('',(5.51385818397378,7.25277235928044,0.));
#454=CARTESIAN_POINT('',(5.48642447726606,7.26461202544356,0.));
#455=CARTESIAN_POINT('',(5.45884574200681,7.27609693022602,0.));
#456=CARTESIAN_POINT('',(5.23858344168723,7.36450142610419,0.));
#457=CARTESIAN_POINT('',(5.04139688545187,7.42397223981989,0.));
#458=CARTESIAN_POINT('',(4.63796716335291,7.50807769392412,0.));
#459=CARTESIAN_POINT('',(4.42961958956442,7.53266662097805,0.));
#460=CARTESIAN_POINT('',(4.01562269592721,7.54442596545269,0.));
#461=CARTESIAN_POINT('',(3.81006946330755,7.53206902041549,0.));
#462=CARTESIAN_POINT('',(3.4018385587991,7.4710695053188,0.));
#463=CARTESIAN_POINT('',(3.19749434238371,7.42163784513762,0.));
#464=CARTESIAN_POINT('',(2.8060983798222,7.28872230582679,0.));
#465=CARTESIAN_POINT('',(2.61770501895556,7.20535713566299,0.));
#466=CARTESIAN_POINT('',(2.25579303680526,7.00419746631765,0.));
#467=CARTESIAN_POINT('',(2.08230882009307,6.8858465543477,0.));
#468=CARTESIAN_POINT('',(1.60533440823669,6.4912682961153,0.));
#469=CARTESIAN_POINT('',(1.33389530124927,6.16581347541711,0.));
#470=CARTESIAN_POINT('',(1.03761376298534,5.62169213894038,0.));
#471=CARTESIAN_POINT('',(0.955707596892365,5.42803789399979,0.));
#472=CARTESIAN_POINT('',(0.834954547325484,5.03146361435822,0.));
#473=CARTESIAN_POINT('',(0.795390934611823,4.82844802022545,0.));
#474=CARTESIAN_POINT('',(0.76221958962334,4.41197618433246,0.));
#475=CARTESIAN_POINT('',(0.769159475677267,4.2044693123601,0.));
#476=CARTESIAN_POINT('',(0.834225218566476,3.79410122087869,0.));
#477=CARTESIAN_POINT('',(0.89284648128115,3.59213401800352,0.));
#478=CARTESIAN_POINT('',(1.06281678850798,3.2142427093256,0.));
#479=CARTESIAN_POINT('',(1.17620122048985,3.03546350814853,0.));
#480=CARTESIAN_POINT('',(1.44669849593155,2.72484342285988,0.));
#481=CARTESIAN_POINT('',(1.60831003935048,2.58823096499252,0.));
#482=CARTESIAN_POINT('',(1.85348928478893,2.43374162088,0.));
#483=CARTESIAN_POINT('',(1.92581913140408,2.3935178967324,0.));
#484=CARTESIAN_POINT('',(2.,2.35681541714708,0.));
#485=CARTESIAN_POINT('',(0.,0.,0.));
#486=CARTESIAN_POINT('',(5.58826942361472,0.,0.));
#487=CARTESIAN_POINT('',(5.58826942361472,0.,7.25));
#488=CARTESIAN_POINT('',(5.58826942361472,0.,0.));
#489=CARTESIAN_POINT('',(24.8739584798121,0.,0.));
#490=CARTESIAN_POINT('',(24.8739584798121,0.,7.25));
#491=CARTESIAN_POINT('',(0.,0.,0.));
#492=CARTESIAN_POINT('',(25.1260237227406,0.,0.));
#493=CARTESIAN_POINT('',(25.1260237227406,0.,7.25211804576035));
#494=CARTESIAN_POINT('',(24.8739584798122,0.,0.));
#495=CARTESIAN_POINT('',(54.75,0.,0.));
#496=CARTESIAN_POINT('',(54.75,0.,7.75));
#497=CARTESIAN_POINT('',(54.75,0.,0.));
#498=CARTESIAN_POINT('',(55.,0.,0.));
#499=CARTESIAN_POINT('',(55.,0.,8.));
#500=CARTESIAN_POINT('',(55.,0.,0.));
#501=CARTESIAN_POINT('',(144.582179545096,0.,0.));
#502=CARTESIAN_POINT('',(144.582179545096,0.,8.));
#503=CARTESIAN_POINT('',(0.,0.,0.));
#504=CARTESIAN_POINT('',(146.,0.,0.));
#505=CARTESIAN_POINT('',(146.,0.,7.75));
#506=CARTESIAN_POINT('',(146.,0.,0.));
#507=CARTESIAN_POINT('',(0.,0.,0.));
#508=(
GEOMETRIC_REPRESENTATION_CONTEXT(3)
GLOBAL_UNCERTAINTY_ASSIGNED_CONTEXT((#509))
GLOBAL_UNIT_ASSIGNED_CONTEXT((#515,#511,#510))
REPRESENTATION_CONTEXT('model1','TOP_LEVEL_ASSEMBLY_PART')
);
#509=UNCERTAINTY_MEASURE_WITH_UNIT(LENGTH_MEASURE(2.E-5),#515,
'DISTANCE_ACCURACY_VALUE','Maximum Tolerance applied to model');
#510=(
NAMED_UNIT(*)
SI_UNIT($,.STERADIAN.)
SOLID_ANGLE_UNIT()
);
#511=(
CONVERSION_BASED_UNIT('DEGREE',#513)
NAMED_UNIT(#512)
PLANE_ANGLE_UNIT()
);
#512=DIMENSIONAL_EXPONENTS(0.,0.,0.,0.,0.,0.,0.);
#513=PLANE_ANGLE_MEASURE_WITH_UNIT(PLANE_ANGLE_MEASURE(0.0174532925),#514);
#514=(
NAMED_UNIT(*)
PLANE_ANGLE_UNIT()
SI_UNIT($,.RADIAN.)
);
#515=(
LENGTH_UNIT()
NAMED_UNIT(*)
SI_UNIT(.MILLI.,.METRE.)
);
ENDSEC;
END-ISO-10303-21;
