ISO-10303-21;
HEADER;
/* Generated by software containing ST-Developer
 * from STEP Tools, Inc. (www.steptools.com) 
 */
/* OPTION: using custom schema-name function */

FILE_DESCRIPTION(
/* description */ (''),
/* implementation_level */ '2;1');

FILE_NAME(
/* name */ 'model1.stp',
/* time_stamp */ '2023-11-07T09:06:26+03:00',
/* author */ (''),
/* organization */ (''),
/* preprocessor_version */ 'ST-DEVELOPER v19.4',
/* originating_system */ 'SIEMENS PLM Software NX2306.3001',
/* authorisation */ '');

FILE_SCHEMA (('AUTOMOTIVE_DESIGN { 1 0 10303 214 3 1 1 1 }'));
ENDSEC;

DATA;
#10=PROPERTY_DEFINITION_REPRESENTATION(#14,#12);
#11=PROPERTY_DEFINITION_REPRESENTATION(#15,#13);
#12=REPRESENTATION('',(#16),#517);
#13=REPRESENTATION('',(#17),#517);
#14=PROPERTY_DEFINITION('pmi validation property','',#21);
#15=PROPERTY_DEFINITION('pmi validation property','',#21);
#16=VALUE_REPRESENTATION_ITEM('number of annotations',COUNT_MEASURE(0.));
#17=VALUE_REPRESENTATION_ITEM('number of views',COUNT_MEASURE(0.));
#18=SHAPE_REPRESENTATION_RELATIONSHIP('None',
'relationship between model1_objects-None and model1_objects-None',#30,
#19);
#19=ADVANCED_BREP_SHAPE_REPRESENTATION('model1_objects-None',(#141,#142),
#517);
#20=SHAPE_DEFINITION_REPRESENTATION(#21,#30);
#21=PRODUCT_DEFINITION_SHAPE('','',#22);
#22=PRODUCT_DEFINITION(' ','',#24,#23);
#23=PRODUCT_DEFINITION_CONTEXT('part definition',#29,'design');
#24=PRODUCT_DEFINITION_FORMATION_WITH_SPECIFIED_SOURCE(' ',' ',#26,
 .NOT_KNOWN.);
#25=PRODUCT_RELATED_PRODUCT_CATEGORY('part','',(#26));
#26=PRODUCT('model1_objects','model1_objects',' ',(#27));
#27=PRODUCT_CONTEXT(' ',#29,'mechanical');
#28=APPLICATION_PROTOCOL_DEFINITION('international standard',
'automotive_design',2010,#29);
#29=APPLICATION_CONTEXT(
'core data for automotive mechanical design processes');
#30=SHAPE_REPRESENTATION('model1_objects-None',(#266),#517);
#31=OVER_RIDING_STYLED_ITEM('',(#64),#147,#61);
#32=OVER_RIDING_STYLED_ITEM('',(#65),#148,#61);
#33=OVER_RIDING_STYLED_ITEM('',(#66),#149,#61);
#34=OVER_RIDING_STYLED_ITEM('',(#67),#150,#61);
#35=OVER_RIDING_STYLED_ITEM('',(#68),#151,#61);
#36=OVER_RIDING_STYLED_ITEM('',(#69),#152,#61);
#37=OVER_RIDING_STYLED_ITEM('',(#70),#153,#61);
#38=OVER_RIDING_STYLED_ITEM('',(#71),#154,#61);
#39=OVER_RIDING_STYLED_ITEM('',(#72),#155,#61);
#40=OVER_RIDING_STYLED_ITEM('',(#73),#156,#61);
#41=OVER_RIDING_STYLED_ITEM('',(#74),#157,#61);
#42=COLOUR_RGB('Medium Steel',0.611764705882353,0.658823529411765,0.670588235294118);
#43=COLOUR_RGB('silver gray',0.6,0.6,0.6);
#44=CONICAL_SURFACE('',#283,10.,45.0000000000009);
#45=CONICAL_SURFACE('',#287,9.75,9.99999999999998);
#46=CYLINDRICAL_SURFACE('',#279,8.5);
#47=CYLINDRICAL_SURFACE('',#285,10.);
#48=CYLINDRICAL_SURFACE('',#288,9.75);
#49=SURFACE_OF_REVOLUTION('',#51,#50);
#50=AXIS1_PLACEMENT('',#497,#309);
#51=B_SPLINE_CURVE_WITH_KNOTS('',3,(#429,#430,#431,#432,#433,#434,#435,
#436,#437,#438,#439,#440,#441,#442,#443,#444,#445,#446,#447,#448,#449,#450,
#451,#452,#453,#454,#455,#456,#457,#458,#459,#460,#461,#462,#463,#464,#465,
#466,#467,#468,#469,#470,#471,#472,#473,#474,#475,#476,#477,#478,#479,#480,
#481,#482,#483,#484,#485,#486,#487,#488,#489,#490,#491,#492,#493,#494,#495,
#496),.UNSPECIFIED.,.T.,.F.,(2,2,2,2,2,2,2,2,2,2,2,2,2,2,2,2,2,2,2,2,2,
2,2,2,2,2,2,2,2,2,2,2,2,2,2,2),(-0.03125,0.,0.03125,0.0625,0.09375,0.125,
0.15625,0.171875,0.1875,0.21875,0.25,0.28125,0.3125,0.34375,0.375,0.40625,
0.4375,0.46875,0.5,0.53125,0.5625,0.59375,0.625,0.65625,0.6875,0.71875,
0.75,0.78125,0.8125,0.84375,0.875,0.90625,0.9375,0.96875,1.,1.03125),
 .UNSPECIFIED.);
#52=PLANE('',#272);
#53=PLANE('',#274);
#54=FACE_OUTER_BOUND('',#188,.T.);
#55=FACE_OUTER_BOUND('',#189,.T.);
#56=TOROIDAL_SURFACE('',#271,8.75,1.);
#57=TOROIDAL_SURFACE('',#277,9.5,0.999999999999871);
#58=TOROIDAL_SURFACE('',#281,12.5,4.);
#59=PRESENTATION_LAYER_ASSIGNMENT('1','Layer 1',(#141,#142));
#60=STYLED_ITEM('',(#62),#141);
#61=STYLED_ITEM('',(#63),#142);
#62=PRESENTATION_STYLE_ASSIGNMENT((#75));
#63=PRESENTATION_STYLE_ASSIGNMENT((#76));
#64=PRESENTATION_STYLE_ASSIGNMENT((#77));
#65=PRESENTATION_STYLE_ASSIGNMENT((#78));
#66=PRESENTATION_STYLE_ASSIGNMENT((#79));
#67=PRESENTATION_STYLE_ASSIGNMENT((#80));
#68=PRESENTATION_STYLE_ASSIGNMENT((#81));
#69=PRESENTATION_STYLE_ASSIGNMENT((#82));
#70=PRESENTATION_STYLE_ASSIGNMENT((#83));
#71=PRESENTATION_STYLE_ASSIGNMENT((#84));
#72=PRESENTATION_STYLE_ASSIGNMENT((#85));
#73=PRESENTATION_STYLE_ASSIGNMENT((#86));
#74=PRESENTATION_STYLE_ASSIGNMENT((#87));
#75=SURFACE_STYLE_USAGE(.BOTH.,#88);
#76=SURFACE_STYLE_USAGE(.BOTH.,#89);
#77=SURFACE_STYLE_USAGE(.BOTH.,#90);
#78=SURFACE_STYLE_USAGE(.BOTH.,#91);
#79=SURFACE_STYLE_USAGE(.BOTH.,#92);
#80=SURFACE_STYLE_USAGE(.BOTH.,#93);
#81=SURFACE_STYLE_USAGE(.BOTH.,#94);
#82=SURFACE_STYLE_USAGE(.BOTH.,#95);
#83=SURFACE_STYLE_USAGE(.BOTH.,#96);
#84=SURFACE_STYLE_USAGE(.BOTH.,#97);
#85=SURFACE_STYLE_USAGE(.BOTH.,#98);
#86=SURFACE_STYLE_USAGE(.BOTH.,#99);
#87=SURFACE_STYLE_USAGE(.BOTH.,#100);
#88=SURFACE_SIDE_STYLE('',(#101));
#89=SURFACE_SIDE_STYLE('',(#102));
#90=SURFACE_SIDE_STYLE('',(#103));
#91=SURFACE_SIDE_STYLE('',(#104));
#92=SURFACE_SIDE_STYLE('',(#105));
#93=SURFACE_SIDE_STYLE('',(#106));
#94=SURFACE_SIDE_STYLE('',(#107));
#95=SURFACE_SIDE_STYLE('',(#108));
#96=SURFACE_SIDE_STYLE('',(#109));
#97=SURFACE_SIDE_STYLE('',(#110));
#98=SURFACE_SIDE_STYLE('',(#111));
#99=SURFACE_SIDE_STYLE('',(#112));
#100=SURFACE_SIDE_STYLE('',(#113));
#101=SURFACE_STYLE_FILL_AREA(#114);
#102=SURFACE_STYLE_FILL_AREA(#115);
#103=SURFACE_STYLE_FILL_AREA(#116);
#104=SURFACE_STYLE_FILL_AREA(#117);
#105=SURFACE_STYLE_FILL_AREA(#118);
#106=SURFACE_STYLE_FILL_AREA(#119);
#107=SURFACE_STYLE_FILL_AREA(#120);
#108=SURFACE_STYLE_FILL_AREA(#121);
#109=SURFACE_STYLE_FILL_AREA(#122);
#110=SURFACE_STYLE_FILL_AREA(#123);
#111=SURFACE_STYLE_FILL_AREA(#124);
#112=SURFACE_STYLE_FILL_AREA(#125);
#113=SURFACE_STYLE_FILL_AREA(#126);
#114=FILL_AREA_STYLE('',(#127));
#115=FILL_AREA_STYLE('',(#128));
#116=FILL_AREA_STYLE('',(#129));
#117=FILL_AREA_STYLE('',(#130));
#118=FILL_AREA_STYLE('',(#131));
#119=FILL_AREA_STYLE('',(#132));
#120=FILL_AREA_STYLE('',(#133));
#121=FILL_AREA_STYLE('',(#134));
#122=FILL_AREA_STYLE('',(#135));
#123=FILL_AREA_STYLE('',(#136));
#124=FILL_AREA_STYLE('',(#137));
#125=FILL_AREA_STYLE('',(#138));
#126=FILL_AREA_STYLE('',(#139));
#127=FILL_AREA_STYLE_COLOUR('',#140);
#128=FILL_AREA_STYLE_COLOUR('',#42);
#129=FILL_AREA_STYLE_COLOUR('',#43);
#130=FILL_AREA_STYLE_COLOUR('',#43);
#131=FILL_AREA_STYLE_COLOUR('',#43);
#132=FILL_AREA_STYLE_COLOUR('',#43);
#133=FILL_AREA_STYLE_COLOUR('',#43);
#134=FILL_AREA_STYLE_COLOUR('',#43);
#135=FILL_AREA_STYLE_COLOUR('',#43);
#136=FILL_AREA_STYLE_COLOUR('',#43);
#137=FILL_AREA_STYLE_COLOUR('',#43);
#138=FILL_AREA_STYLE_COLOUR('',#43);
#139=FILL_AREA_STYLE_COLOUR('',#43);
#140=DRAUGHTING_PRE_DEFINED_COLOUR('yellow');
#141=MANIFOLD_SOLID_BREP('',#143);
#142=MANIFOLD_SOLID_BREP('',#144);
#143=CLOSED_SHELL('',(#145,#146));
#144=CLOSED_SHELL('',(#147,#148,#149,#150,#151,#152,#153,#154,#155,#156,
#157));
#145=ADVANCED_FACE('',(#160,#161),#158,.F.);
#146=ADVANCED_FACE('',(#162,#163),#159,.F.);
#147=ADVANCED_FACE('',(#164,#165),#56,.T.);
#148=ADVANCED_FACE('',(#54),#52,.F.);
#149=ADVANCED_FACE('',(#55),#53,.F.);
#150=ADVANCED_FACE('',(#166,#167),#49,.T.);
#151=ADVANCED_FACE('',(#168,#169),#57,.F.);
#152=ADVANCED_FACE('',(#170,#171),#46,.T.);
#153=ADVANCED_FACE('',(#172,#173),#58,.F.);
#154=ADVANCED_FACE('',(#174,#175),#44,.T.);
#155=ADVANCED_FACE('',(#176,#177),#47,.T.);
#156=ADVANCED_FACE('',(#178,#179),#45,.T.);
#157=ADVANCED_FACE('',(#180,#181),#48,.T.);
#158=(
BOUNDED_SURFACE()
B_SPLINE_SURFACE(3,3,((#341,#342,#343,#344,#345,#346,#347),(#348,#349,#350,
#351,#352,#353,#354),(#355,#356,#357,#358,#359,#360,#361),(#362,#363,#364,
#365,#366,#367,#368),(#369,#370,#371,#372,#373,#374,#375),(#376,#377,#378,
#379,#380,#381,#382),(#383,#384,#385,#386,#387,#388,#389)),
 .UNSPECIFIED.,.T.,.F.,.F.)
B_SPLINE_SURFACE_WITH_KNOTS((1,3,3,3,1),(4,3,4),(-0.5,0.,0.5,1.,1.5),(0.,
0.5,1.),.UNSPECIFIED.)
GEOMETRIC_REPRESENTATION_ITEM()
RATIONAL_B_SPLINE_SURFACE(((1.,0.577537856068645,0.577537856068645,1.,0.577537856068645,
0.577537856068645,1.),(0.333333333333334,0.192512618689548,0.192512618689548,
0.333333333333334,0.192512618689548,0.192512618689548,0.333333333333334),
(0.333333333333334,0.192512618689548,0.192512618689548,0.333333333333334,
0.192512618689548,0.192512618689548,0.333333333333334),(1.,0.577537856068645,
0.577537856068645,1.,0.577537856068645,0.577537856068645,1.),(0.333333333333334,
0.192512618689548,0.192512618689548,0.333333333333334,0.192512618689548,
0.192512618689548,0.333333333333334),(0.333333333333334,0.192512618689548,
0.192512618689548,0.333333333333334,0.192512618689548,0.192512618689548,
0.333333333333334),(1.,0.577537856068645,0.577537856068645,1.,0.577537856068645,
0.577537856068645,1.)))
REPRESENTATION_ITEM('')
SURFACE()
);
#159=(
BOUNDED_SURFACE()
B_SPLINE_SURFACE(3,3,((#390,#391,#392,#393),(#394,#395,#396,#397),(#398,
#399,#400,#401),(#402,#403,#404,#405),(#406,#407,#408,#409),(#410,#411,
#412,#413),(#414,#415,#416,#417)),.UNSPECIFIED.,.T.,.F.,.F.)
B_SPLINE_SURFACE_WITH_KNOTS((1,3,3,3,1),(4,4),(-0.5,0.,0.5,1.,1.5),(0.,
1.),.UNSPECIFIED.)
GEOMETRIC_REPRESENTATION_ITEM()
RATIONAL_B_SPLINE_SURFACE(((1.,0.821092453226856,0.821092453226856,1.),
(0.333333333333334,0.273697484408952,0.273697484408952,0.333333333333334),
(0.333333333333334,0.273697484408952,0.273697484408952,0.333333333333334),
(1.,0.821092453226856,0.821092453226856,1.),(0.333333333333334,0.273697484408952,
0.273697484408952,0.333333333333334),(0.333333333333334,0.273697484408952,
0.273697484408952,0.333333333333334),(1.,0.821092453226856,0.821092453226856,
1.)))
REPRESENTATION_ITEM('')
SURFACE()
);
#160=FACE_BOUND('',#182,.T.);
#161=FACE_BOUND('',#183,.T.);
#162=FACE_BOUND('',#184,.T.);
#163=FACE_BOUND('',#185,.T.);
#164=FACE_BOUND('',#186,.T.);
#165=FACE_BOUND('',#187,.T.);
#166=FACE_BOUND('',#190,.T.);
#167=FACE_BOUND('',#191,.T.);
#168=FACE_BOUND('',#192,.T.);
#169=FACE_BOUND('',#193,.T.);
#170=FACE_BOUND('',#194,.T.);
#171=FACE_BOUND('',#195,.T.);
#172=FACE_BOUND('',#196,.T.);
#173=FACE_BOUND('',#197,.T.);
#174=FACE_BOUND('',#198,.T.);
#175=FACE_BOUND('',#199,.T.);
#176=FACE_BOUND('',#200,.T.);
#177=FACE_BOUND('',#201,.T.);
#178=FACE_BOUND('',#202,.T.);
#179=FACE_BOUND('',#203,.T.);
#180=FACE_BOUND('',#204,.T.);
#181=FACE_BOUND('',#205,.T.);
#182=EDGE_LOOP('',(#206));
#183=EDGE_LOOP('',(#207));
#184=EDGE_LOOP('',(#208));
#185=EDGE_LOOP('',(#209));
#186=EDGE_LOOP('',(#210));
#187=EDGE_LOOP('',(#211));
#188=EDGE_LOOP('',(#212));
#189=EDGE_LOOP('',(#213));
#190=EDGE_LOOP('',(#214));
#191=EDGE_LOOP('',(#215));
#192=EDGE_LOOP('',(#216));
#193=EDGE_LOOP('',(#217));
#194=EDGE_LOOP('',(#218));
#195=EDGE_LOOP('',(#219));
#196=EDGE_LOOP('',(#220));
#197=EDGE_LOOP('',(#221));
#198=EDGE_LOOP('',(#222));
#199=EDGE_LOOP('',(#223));
#200=EDGE_LOOP('',(#224));
#201=EDGE_LOOP('',(#225));
#202=EDGE_LOOP('',(#226));
#203=EDGE_LOOP('',(#227));
#204=EDGE_LOOP('',(#228));
#205=EDGE_LOOP('',(#229));
#206=ORIENTED_EDGE('',*,*,#242,.T.);
#207=ORIENTED_EDGE('',*,*,#243,.F.);
#208=ORIENTED_EDGE('',*,*,#243,.T.);
#209=ORIENTED_EDGE('',*,*,#242,.F.);
#210=ORIENTED_EDGE('',*,*,#244,.F.);
#211=ORIENTED_EDGE('',*,*,#245,.T.);
#212=ORIENTED_EDGE('',*,*,#245,.F.);
#213=ORIENTED_EDGE('',*,*,#246,.T.);
#214=ORIENTED_EDGE('',*,*,#246,.F.);
#215=ORIENTED_EDGE('',*,*,#247,.T.);
#216=ORIENTED_EDGE('',*,*,#247,.F.);
#217=ORIENTED_EDGE('',*,*,#248,.T.);
#218=ORIENTED_EDGE('',*,*,#248,.F.);
#219=ORIENTED_EDGE('',*,*,#249,.T.);
#220=ORIENTED_EDGE('',*,*,#249,.F.);
#221=ORIENTED_EDGE('',*,*,#250,.T.);
#222=ORIENTED_EDGE('',*,*,#250,.F.);
#223=ORIENTED_EDGE('',*,*,#251,.T.);
#224=ORIENTED_EDGE('',*,*,#251,.F.);
#225=ORIENTED_EDGE('',*,*,#252,.T.);
#226=ORIENTED_EDGE('',*,*,#252,.F.);
#227=ORIENTED_EDGE('',*,*,#253,.T.);
#228=ORIENTED_EDGE('',*,*,#253,.F.);
#229=ORIENTED_EDGE('',*,*,#244,.T.);
#230=VERTEX_POINT('',#338);
#231=VERTEX_POINT('',#340);
#232=VERTEX_POINT('',#419);
#233=VERTEX_POINT('',#421);
#234=VERTEX_POINT('',#425);
#235=VERTEX_POINT('',#428);
#236=VERTEX_POINT('',#499);
#237=VERTEX_POINT('',#502);
#238=VERTEX_POINT('',#505);
#239=VERTEX_POINT('',#508);
#240=VERTEX_POINT('',#511);
#241=VERTEX_POINT('',#514);
#242=EDGE_CURVE('',#230,#230,#254,.T.);
#243=EDGE_CURVE('',#231,#231,#255,.T.);
#244=EDGE_CURVE('',#232,#232,#256,.T.);
#245=EDGE_CURVE('',#233,#233,#257,.T.);
#246=EDGE_CURVE('',#234,#234,#258,.T.);
#247=EDGE_CURVE('',#235,#235,#259,.T.);
#248=EDGE_CURVE('',#236,#236,#260,.T.);
#249=EDGE_CURVE('',#237,#237,#261,.T.);
#250=EDGE_CURVE('',#238,#238,#262,.T.);
#251=EDGE_CURVE('',#239,#239,#263,.T.);
#252=EDGE_CURVE('',#240,#240,#264,.T.);
#253=EDGE_CURVE('',#241,#241,#265,.T.);
#254=CIRCLE('',#267,5.);
#255=CIRCLE('',#268,5.);
#256=CIRCLE('',#269,9.75);
#257=CIRCLE('',#270,8.75);
#258=CIRCLE('',#273,2.74397363634505);
#259=CIRCLE('',#275,8.58397553547594);
#260=CIRCLE('',#276,8.5);
#261=CIRCLE('',#278,8.5);
#262=CIRCLE('',#280,9.67157287525381);
#263=CIRCLE('',#282,10.);
#264=CIRCLE('',#284,10.);
#265=CIRCLE('',#286,9.75);
#266=AXIS2_PLACEMENT_3D('',#336,#289,#290);
#267=AXIS2_PLACEMENT_3D('',#337,#291,#292);
#268=AXIS2_PLACEMENT_3D('',#339,#293,#294);
#269=AXIS2_PLACEMENT_3D('',#418,#295,#296);
#270=AXIS2_PLACEMENT_3D('',#420,#297,#298);
#271=AXIS2_PLACEMENT_3D('',#422,#299,#300);
#272=AXIS2_PLACEMENT_3D('',#423,#301,#302);
#273=AXIS2_PLACEMENT_3D('',#424,#303,#304);
#274=AXIS2_PLACEMENT_3D('',#426,#305,#306);
#275=AXIS2_PLACEMENT_3D('',#427,#307,#308);
#276=AXIS2_PLACEMENT_3D('',#498,#310,#311);
#277=AXIS2_PLACEMENT_3D('',#500,#312,#313);
#278=AXIS2_PLACEMENT_3D('',#501,#314,#315);
#279=AXIS2_PLACEMENT_3D('',#503,#316,#317);
#280=AXIS2_PLACEMENT_3D('',#504,#318,#319);
#281=AXIS2_PLACEMENT_3D('',#506,#320,#321);
#282=AXIS2_PLACEMENT_3D('',#507,#322,#323);
#283=AXIS2_PLACEMENT_3D('',#509,#324,#325);
#284=AXIS2_PLACEMENT_3D('',#510,#326,#327);
#285=AXIS2_PLACEMENT_3D('',#512,#328,#329);
#286=AXIS2_PLACEMENT_3D('',#513,#330,#331);
#287=AXIS2_PLACEMENT_3D('',#515,#332,#333);
#288=AXIS2_PLACEMENT_3D('',#516,#334,#335);
#289=DIRECTION('',(0.,0.,1.));
#290=DIRECTION('',(1.,0.,0.));
#291=DIRECTION('',(-0.0523359562429439,0.976633186450608,0.208443198035984));
#292=DIRECTION('',(0.,-0.208729254224602,0.97797346509547));
#293=DIRECTION('',(-0.0523359562429439,-0.138982369062101,0.988910940769705));
#294=DIRECTION('',(0.,-0.99026806874157,-0.139173100960065));
#295=DIRECTION('',(-1.,0.,0.));
#296=DIRECTION('',(0.,0.,1.));
#297=DIRECTION('',(-1.,0.,0.));
#298=DIRECTION('',(0.,0.,1.));
#299=DIRECTION('',(-1.,0.,0.));
#300=DIRECTION('',(0.,0.,1.));
#301=DIRECTION('',(-1.,0.,0.));
#302=DIRECTION('',(0.,0.,1.));
#303=DIRECTION('',(-1.,0.,0.));
#304=DIRECTION('',(0.,0.,1.));
#305=DIRECTION('',(1.,0.,0.));
#306=DIRECTION('',(0.,0.,-1.));
#307=DIRECTION('',(-1.,0.,0.));
#308=DIRECTION('',(0.,0.,1.));
#309=DIRECTION('',(-1.,0.,0.));
#310=DIRECTION('',(-1.,0.,0.));
#311=DIRECTION('',(0.,0.,1.));
#312=DIRECTION('',(-1.,0.,0.));
#313=DIRECTION('',(0.,0.,1.));
#314=DIRECTION('',(-1.,0.,0.));
#315=DIRECTION('',(0.,0.,1.));
#316=DIRECTION('',(-1.,0.,0.));
#317=DIRECTION('',(0.,0.,1.));
#318=DIRECTION('',(-1.,0.,0.));
#319=DIRECTION('',(0.,0.,1.));
#320=DIRECTION('',(-1.,0.,0.));
#321=DIRECTION('',(0.,0.,1.));
#322=DIRECTION('',(-1.,0.,0.));
#323=DIRECTION('',(0.,0.,1.));
#324=DIRECTION('',(1.,0.,0.));
#325=DIRECTION('',(5.49615358725307E-17,0.,-1.));
#326=DIRECTION('',(-1.,0.,0.));
#327=DIRECTION('',(0.,0.,1.));
#328=DIRECTION('',(-1.,0.,0.));
#329=DIRECTION('',(0.,0.,1.));
#330=DIRECTION('',(-1.,0.,0.));
#331=DIRECTION('',(0.,0.,1.));
#332=DIRECTION('',(-1.,0.,0.));
#333=DIRECTION('',(1.4916179051247E-16,0.,1.));
#334=DIRECTION('',(-1.,0.,0.));
#335=DIRECTION('',(0.,0.,1.));
#336=CARTESIAN_POINT('',(0.,0.,0.));
#337=CARTESIAN_POINT('',(4.99314767377287,0.596430186169352,5.10064739314151));
#338=CARTESIAN_POINT('',(4.99314767377287,-0.44721608495366,9.99051471861886));
#339=CARTESIAN_POINT('',(4.99314767377287,-5.04582108290236,0.954998636372544));
#340=CARTESIAN_POINT('',(4.99314767377287,-9.99716142661021,0.259133131572217));
#341=CARTESIAN_POINT('',(4.99314767377287,-9.99716142661021,0.259133131572217));
#342=CARTESIAN_POINT('',(4.99314767377287,-10.2754945346782,-10.4787489556896));
#343=CARTESIAN_POINT('',(4.99314767377287,-0.385913509050463,-14.6710953364805));
#344=CARTESIAN_POINT('',(4.99314767377287,7.13766084226429,-7.00458309040507));
#345=CARTESIAN_POINT('',(4.99314767377287,14.661235193579,0.661929155670349));
#346=CARTESIAN_POINT('',(4.99314767377287,10.2835268191307,10.470866428753));
#347=CARTESIAN_POINT('',(4.99314767377287,-0.44721608495366,9.99051471861887));
#348=CARTESIAN_POINT('',(14.9794430213186,-10.0699989998306,0.777399394716649));
#349=CARTESIAN_POINT('',(14.9794430213186,-10.9049983240344,-10.0387170272116));
#350=CARTESIAN_POINT('',(14.9794430213186,-1.14653132010007,-14.7776958261987));
#351=CARTESIAN_POINT('',(14.9794430213186,6.837653336076,-7.43341957184876));
#352=CARTESIAN_POINT('',(14.9794430213186,14.821837992252,-0.0891433174988229));
#353=CARTESIAN_POINT('',(14.9794430213186,10.9126929984939,10.0303519140778));
#354=CARTESIAN_POINT('',(14.9794430213186,0.0646156798063054,10.0997551697761));
#355=CARTESIAN_POINT('',(14.9794430213186,-0.167318312414913,2.1691304043173));
#356=CARTESIAN_POINT('',(14.9794430213186,-2.49716630821261,1.98941495979435));
#357=CARTESIAN_POINT('',(14.9794430213186,-3.18338126745535,-0.244325928096204));
#358=CARTESIAN_POINT('',(14.9794430213186,-1.35626366150478,-1.70107936589824));
#359=CARTESIAN_POINT('',(14.9794430213186,0.470853944445791,-3.15783280370028));
#360=CARTESIAN_POINT('',(14.9794430213186,2.49564005251587,-1.99132924987414));
#361=CARTESIAN_POINT('',(14.9794430213186,2.15190822205233,0.320020518821373));
#362=CARTESIAN_POINT('',(4.99314767377287,-0.0944807391945034,1.65086414117287));
#363=CARTESIAN_POINT('',(4.99314767377287,-1.86766251885631,1.54938303131628));
#364=CARTESIAN_POINT('',(4.99314767377287,-2.42276345640574,-0.137725438377973));
#365=CARTESIAN_POINT('',(4.99314767377287,-1.05625615531649,-1.27224288445454));
#366=CARTESIAN_POINT('',(4.99314767377287,0.310251145772768,-2.40676033053111));
#367=CARTESIAN_POINT('',(4.99314767377287,1.86647387315267,-1.55081473519889));
#368=CARTESIAN_POINT('',(4.99314767377287,1.64007645729237,0.21078006766416));
#369=CARTESIAN_POINT('',(-4.99314767377287,-0.0216431659740943,1.13259787802844));
#370=CARTESIAN_POINT('',(-4.99314767377287,-1.23815872950002,1.10935110283821));
#371=CARTESIAN_POINT('',(-4.99314767377286,-1.66214564535613,-0.0311249486597427));
#372=CARTESIAN_POINT('',(-4.99314767377287,-0.756248649128195,-0.843406403010838));
#373=CARTESIAN_POINT('',(-4.99314767377286,0.149648347099745,-1.65568785736193));
#374=CARTESIAN_POINT('',(-4.99314767377286,1.23730769378945,-1.11030022052365));
#375=CARTESIAN_POINT('',(-4.99314767377287,1.1282446925324,0.101539616506948));
#376=CARTESIAN_POINT('',(-4.99314767377287,-9.9243238533898,-0.259133131572217));
#377=CARTESIAN_POINT('',(-4.99314767377287,-9.64599074532186,-10.9187808841677));
#378=CARTESIAN_POINT('',(-4.99314767377287,0.374704301999146,-14.5644948467622));
#379=CARTESIAN_POINT('',(-4.99314767377287,7.43766834845257,-6.57574660896136));
#380=CARTESIAN_POINT('',(-4.99314767377287,14.500632394906,1.41300162883952));
#381=CARTESIAN_POINT('',(-4.99314767377286,9.65436063976747,10.9113809434282));
#382=CARTESIAN_POINT('',(-4.99314767377287,-0.959047849713628,9.88127426746165));
#383=CARTESIAN_POINT('',(4.99314767377287,-9.99716142661021,0.259133131572217));
#384=CARTESIAN_POINT('',(4.99314767377287,-10.2754945346782,-10.4787489556896));
#385=CARTESIAN_POINT('',(4.99314767377287,-0.385913509050463,-14.6710953364805));
#386=CARTESIAN_POINT('',(4.99314767377287,7.13766084226429,-7.00458309040507));
#387=CARTESIAN_POINT('',(4.99314767377287,14.661235193579,0.661929155670349));
#388=CARTESIAN_POINT('',(4.99314767377287,10.2835268191307,10.470866428753));
#389=CARTESIAN_POINT('',(4.99314767377287,-0.44721608495366,9.99051471861887));
#390=CARTESIAN_POINT('',(4.99314767377287,-0.447216084953661,9.99051471861887));
#391=CARTESIAN_POINT('',(4.99314767377287,-5.976808787538,9.74298765224766));
#392=CARTESIAN_POINT('',(4.99314767377287,-9.8537353155742,5.7924046824482));
#393=CARTESIAN_POINT('',(4.99314767377287,-9.99716142661021,0.259133131572217));
#394=CARTESIAN_POINT('',(14.9794430213186,0.0646156798063056,10.0997551697761));
#395=CARTESIAN_POINT('',(14.9794430213186,-5.52543989366698,10.1355189318637));
#396=CARTESIAN_POINT('',(14.9794430213186,-9.63972066672258,6.35098539631887));
#397=CARTESIAN_POINT('',(14.9794430213186,-10.0699989998306,0.777399394716649));
#398=CARTESIAN_POINT('',(14.9794430213186,2.15190822205233,0.320020518821373));
#399=CARTESIAN_POINT('',(14.9794430213186,1.97478190019686,1.51106786086831));
#400=CARTESIAN_POINT('',(14.9794430213186,1.03326123653599,2.26173845759548));
#401=CARTESIAN_POINT('',(14.9794430213186,-0.167318312414913,2.1691304043173));
#402=CARTESIAN_POINT('',(4.99314767377287,1.64007645729237,0.21078006766416));
#403=CARTESIAN_POINT('',(4.99314767377287,1.52341300632584,1.11853658125228));
#404=CARTESIAN_POINT('',(4.99314767377287,0.819246587684373,1.70315774372481));
#405=CARTESIAN_POINT('',(4.99314767377287,-0.0944807391945035,1.65086414117287));
#406=CARTESIAN_POINT('',(-4.99314767377287,1.1282446925324,0.101539616506948));
#407=CARTESIAN_POINT('',(-4.99314767377287,1.07204411245481,0.726005301636246));
#408=CARTESIAN_POINT('',(-4.99314767377287,0.605231938832754,1.14457702985413));
#409=CARTESIAN_POINT('',(-4.99314767377287,-0.0216431659740943,1.13259787802844));
#410=CARTESIAN_POINT('',(-4.99314767377287,-0.959047849713628,9.88127426746165));
#411=CARTESIAN_POINT('',(-4.99314767377287,-6.42817768140903,9.35045637263162));
#412=CARTESIAN_POINT('',(-4.99314767377287,-10.0677499644258,5.23382396857752));
#413=CARTESIAN_POINT('',(-4.99314767377287,-9.9243238533898,-0.259133131572217));
#414=CARTESIAN_POINT('',(4.99314767377287,-0.447216084953661,9.99051471861887));
#415=CARTESIAN_POINT('',(4.99314767377287,-5.976808787538,9.74298765224766));
#416=CARTESIAN_POINT('',(4.99314767377287,-9.8537353155742,5.7924046824482));
#417=CARTESIAN_POINT('',(4.99314767377287,-9.99716142661021,0.259133131572217));
#418=CARTESIAN_POINT('',(149.,0.,0.));
#419=CARTESIAN_POINT('',(149.,0.,9.75));
#420=CARTESIAN_POINT('',(150.,0.,0.));
#421=CARTESIAN_POINT('',(150.,0.,8.75));
#422=CARTESIAN_POINT('',(149.,0.,0.));
#423=CARTESIAN_POINT('',(150.,0.,0.));
#424=CARTESIAN_POINT('',(3.,0.,0.));
#425=CARTESIAN_POINT('',(3.,0.,2.74397363634505));
#426=CARTESIAN_POINT('',(3.,2.74397363634505,0.));
#427=CARTESIAN_POINT('',(7.73662567418458,0.,0.));
#428=CARTESIAN_POINT('',(7.73662567418458,0.,8.58397553547594));
#429=CARTESIAN_POINT('',(4.9444389338745,2.43451340735876,0.));
#430=CARTESIAN_POINT('',(5.46054406361479,2.40830143218442,0.));
#431=CARTESIAN_POINT('',(5.72144977292772,2.40052508919731,0.));
#432=CARTESIAN_POINT('',(6.23922048378264,2.40129314957719,0.));
#433=CARTESIAN_POINT('',(6.49741103240115,2.40968510292802,0.));
#434=CARTESIAN_POINT('',(7.01103806552767,2.45821068730652,0.));
#435=CARTESIAN_POINT('',(7.2664874300863,2.49819587065868,0.));
#436=CARTESIAN_POINT('',(7.77209666374709,2.63912976367027,0.));
#437=CARTESIAN_POINT('',(8.01265710453578,2.73824960152794,0.));
#438=CARTESIAN_POINT('',(8.45907351677545,3.01474957858719,0.));
#439=CARTESIAN_POINT('',(8.6544854065117,3.18593879343374,0.));
#440=CARTESIAN_POINT('',(8.90328066206541,3.48640117861888,0.));
#441=CARTESIAN_POINT('',(8.97932626024829,3.59475486448705,0.));
#442=CARTESIAN_POINT('',(9.11260898162419,3.81823602729415,0.));
#443=CARTESIAN_POINT('',(9.17063180310766,3.9341378658388,0.));
#444=CARTESIAN_POINT('',(9.32108113840808,4.29324731751227,0.));
#445=CARTESIAN_POINT('',(9.38949020753452,4.54929695463158,0.));
#446=CARTESIAN_POINT('',(9.46424159318815,5.05896933216853,0.));
#447=CARTESIAN_POINT('',(9.47233806461869,5.31638234820877,0.));
#448=CARTESIAN_POINT('',(9.4338795647546,5.83601818469459,0.));
#449=CARTESIAN_POINT('',(9.38720182284167,6.09288635815848,0.));
#450=CARTESIAN_POINT('',(9.24668570708483,6.58818857587726,0.));
#451=CARTESIAN_POINT('',(9.15247831317902,6.82911438237348,0.));
#452=CARTESIAN_POINT('',(8.91671953238765,7.29572159120372,0.));
#453=CARTESIAN_POINT('',(8.77887853275728,7.51417776895121,0.));
#454=CARTESIAN_POINT('',(8.46603908664613,7.92345244950816,0.));
#455=CARTESIAN_POINT('',(8.28981563825915,8.11532200794342,0.));
#456=CARTESIAN_POINT('',(7.90402507551286,8.46555559548374,0.));
#457=CARTESIAN_POINT('',(7.69805581172513,8.62105980932953,0.));
#458=CARTESIAN_POINT('',(7.26106544787718,8.89448740468056,0.));
#459=CARTESIAN_POINT('',(7.02792665773874,9.01319898149428,0.));
#460=CARTESIAN_POINT('',(6.54544860572943,9.20693029788918,0.));
#461=CARTESIAN_POINT('',(6.29850198256081,9.28146873142128,0.));
#462=CARTESIAN_POINT('',(5.79347274616641,9.3869833524589,0.));
#463=CARTESIAN_POINT('',(5.53278986720971,9.41792565191036,0.));
#464=CARTESIAN_POINT('',(5.01411260280946,9.43306233654444,0.));
#465=CARTESIAN_POINT('',(4.75667409228849,9.41780670174958,0.));
#466=CARTESIAN_POINT('',(4.2455680963549,9.34199844317986,0.));
#467=CARTESIAN_POINT('',(3.98967121011726,9.2804508252616,0.));
#468=CARTESIAN_POINT('',(3.49910524595534,9.11462411212423,0.));
#469=CARTESIAN_POINT('',(3.26304622254376,9.01058142712962,0.));
#470=CARTESIAN_POINT('',(2.80965919934668,8.7595888885227,0.));
#471=CARTESIAN_POINT('',(2.59201849032265,8.61172390379934,0.));
#472=CARTESIAN_POINT('',(2.19308367479481,8.2830221804533,0.));
#473=CARTESIAN_POINT('',(2.00943252013115,8.10112928401871,0.));
#474=CARTESIAN_POINT('',(1.67551922672512,7.70031125132434,0.));
#475=CARTESIAN_POINT('',(1.52868938193985,7.48512176048452,0.));
#476=CARTESIAN_POINT('',(1.28030031848413,7.03150298406561,0.));
#477=CARTESIAN_POINT('',(1.17719338981356,6.78939464091139,0.));
#478=CARTESIAN_POINT('',(1.02472557817838,6.29294880122781,0.));
#479=CARTESIAN_POINT('',(0.974606540349262,6.03885639963967,0.));
#480=CARTESIAN_POINT('',(0.931941739493106,5.517731638824,0.));
#481=CARTESIAN_POINT('',(0.940111254637287,5.25753133131796,0.));
#482=CARTESIAN_POINT('',(1.02081029529747,4.74362644243007,0.));
#483=CARTESIAN_POINT('',(1.09399839485829,4.49053246942835,0.));
#484=CARTESIAN_POINT('',(1.3068631549778,4.01732224381941,0.));
#485=CARTESIAN_POINT('',(1.4491151900459,3.79357920905829,0.));
#486=CARTESIAN_POINT('',(1.78875335328101,3.40549519856773,0.));
#487=CARTESIAN_POINT('',(1.99184300063715,3.235160455936,0.));
#488=CARTESIAN_POINT('',(2.43189788350504,2.96069618977669,0.));
#489=CARTESIAN_POINT('',(2.67063342474205,2.85393048241738,0.));
#490=CARTESIAN_POINT('',(3.16414709022107,2.68777944407342,0.));
#491=CARTESIAN_POINT('',(3.41479853472236,2.62882844888313,0.));
#492=CARTESIAN_POINT('',(3.92031710145462,2.53703977215473,0.));
#493=CARTESIAN_POINT('',(4.17519834257798,2.50428954774435,0.));
#494=CARTESIAN_POINT('',(4.68725774366659,2.45301698017956,0.));
#495=CARTESIAN_POINT('',(4.9444389338745,2.43451340735876,0.));
#496=CARTESIAN_POINT('',(5.46054406361479,2.40830143218442,0.));
#497=CARTESIAN_POINT('',(0.,0.,0.));
#498=CARTESIAN_POINT('',(8.13774807494666,0.,0.));
#499=CARTESIAN_POINT('',(8.13774807494666,0.,8.5));
#500=CARTESIAN_POINT('',(8.13774807494666,0.,0.));
#501=CARTESIAN_POINT('',(56.8431457505076,0.,0.));
#502=CARTESIAN_POINT('',(56.8431457505076,0.,8.5));
#503=CARTESIAN_POINT('',(0.,0.,0.));
#504=CARTESIAN_POINT('',(59.6715728752538,0.,0.));
#505=CARTESIAN_POINT('',(59.6715728752538,0.,9.67157287525381));
#506=CARTESIAN_POINT('',(56.8431457505076,0.,0.));
#507=CARTESIAN_POINT('',(60.,0.,0.));
#508=CARTESIAN_POINT('',(60.,0.,10.));
#509=CARTESIAN_POINT('',(60.,0.,0.));
#510=CARTESIAN_POINT('',(144.582179545096,0.,0.));
#511=CARTESIAN_POINT('',(144.582179545096,0.,10.));
#512=CARTESIAN_POINT('',(0.,0.,0.));
#513=CARTESIAN_POINT('',(146.,0.,0.));
#514=CARTESIAN_POINT('',(146.,0.,9.75));
#515=CARTESIAN_POINT('',(146.,0.,0.));
#516=CARTESIAN_POINT('',(0.,0.,0.));
#517=(
GEOMETRIC_REPRESENTATION_CONTEXT(3)
GLOBAL_UNCERTAINTY_ASSIGNED_CONTEXT((#518))
GLOBAL_UNIT_ASSIGNED_CONTEXT((#524,#520,#519))
REPRESENTATION_CONTEXT('model1','TOP_LEVEL_ASSEMBLY_PART')
);
#518=UNCERTAINTY_MEASURE_WITH_UNIT(LENGTH_MEASURE(2.E-5),#524,
'DISTANCE_ACCURACY_VALUE','Maximum Tolerance applied to model');
#519=(
NAMED_UNIT(*)
SI_UNIT($,.STERADIAN.)
SOLID_ANGLE_UNIT()
);
#520=(
CONVERSION_BASED_UNIT('DEGREE',#522)
NAMED_UNIT(#521)
PLANE_ANGLE_UNIT()
);
#521=DIMENSIONAL_EXPONENTS(0.,0.,0.,0.,0.,0.,0.);
#522=PLANE_ANGLE_MEASURE_WITH_UNIT(PLANE_ANGLE_MEASURE(0.0174532925),#523);
#523=(
NAMED_UNIT(*)
PLANE_ANGLE_UNIT()
SI_UNIT($,.RADIAN.)
);
#524=(
LENGTH_UNIT()
NAMED_UNIT(*)
SI_UNIT(.MILLI.,.METRE.)
);
ENDSEC;
END-ISO-10303-21;
