ISO-10303-21;
HEADER;
/* Generated by software containing ST-Developer
 * from STEP Tools, Inc. (www.steptools.com) 
 */
/* OPTION: using custom schema-name function */

FILE_DESCRIPTION(
/* description */ (''),
/* implementation_level */ '2;1');

FILE_NAME(
/* name */ 'model1.stp',
/* time_stamp */ '2023-11-07T12:16:45+03:00',
/* author */ (''),
/* organization */ (''),
/* preprocessor_version */ 'ST-DEVELOPER v19.4',
/* originating_system */ 'SIEMENS PLM Software NX2306.3001',
/* authorisation */ '');

FILE_SCHEMA (('AUTOMOTIVE_DESIGN { 1 0 10303 214 3 1 1 1 }'));
ENDSEC;

DATA;
#10=PROPERTY_DEFINITION_REPRESENTATION(#14,#12);
#11=PROPERTY_DEFINITION_REPRESENTATION(#15,#13);
#12=REPRESENTATION('',(#16),#513);
#13=REPRESENTATION('',(#17),#513);
#14=PROPERTY_DEFINITION('pmi validation property','',#21);
#15=PROPERTY_DEFINITION('pmi validation property','',#21);
#16=VALUE_REPRESENTATION_ITEM('number of annotations',COUNT_MEASURE(0.));
#17=VALUE_REPRESENTATION_ITEM('number of views',COUNT_MEASURE(0.));
#18=SHAPE_REPRESENTATION_RELATIONSHIP('None',
'relationship between model1_objects-None and model1_objects-None',#30,
#19);
#19=ADVANCED_BREP_SHAPE_REPRESENTATION('model1_objects-None',(#141,#142),
#513);
#20=SHAPE_DEFINITION_REPRESENTATION(#21,#30);
#21=PRODUCT_DEFINITION_SHAPE('','',#22);
#22=PRODUCT_DEFINITION(' ','',#24,#23);
#23=PRODUCT_DEFINITION_CONTEXT('part definition',#29,'design');
#24=PRODUCT_DEFINITION_FORMATION_WITH_SPECIFIED_SOURCE(' ',' ',#26,
 .NOT_KNOWN.);
#25=PRODUCT_RELATED_PRODUCT_CATEGORY('part','',(#26));
#26=PRODUCT('model1_objects','model1_objects',' ',(#27));
#27=PRODUCT_CONTEXT(' ',#29,'mechanical');
#28=APPLICATION_PROTOCOL_DEFINITION('international standard',
'automotive_design',2010,#29);
#29=APPLICATION_CONTEXT(
'core data for automotive mechanical design processes');
#30=SHAPE_REPRESENTATION('model1_objects-None',(#266),#513);
#31=OVER_RIDING_STYLED_ITEM('',(#64),#147,#61);
#32=OVER_RIDING_STYLED_ITEM('',(#65),#148,#61);
#33=OVER_RIDING_STYLED_ITEM('',(#66),#149,#61);
#34=OVER_RIDING_STYLED_ITEM('',(#67),#150,#61);
#35=OVER_RIDING_STYLED_ITEM('',(#68),#151,#61);
#36=OVER_RIDING_STYLED_ITEM('',(#69),#152,#61);
#37=OVER_RIDING_STYLED_ITEM('',(#70),#153,#61);
#38=OVER_RIDING_STYLED_ITEM('',(#71),#154,#61);
#39=OVER_RIDING_STYLED_ITEM('',(#72),#155,#61);
#40=OVER_RIDING_STYLED_ITEM('',(#73),#156,#61);
#41=OVER_RIDING_STYLED_ITEM('',(#74),#157,#61);
#42=COLOUR_RGB('Medium Steel',0.611764705882353,0.658823529411765,0.670588235294118);
#43=COLOUR_RGB('silver gray',0.6,0.6,0.6);
#44=CONICAL_SURFACE('',#283,12.5,44.9999999999997);
#45=CONICAL_SURFACE('',#287,12.25,9.99999999999998);
#46=CYLINDRICAL_SURFACE('',#279,11.);
#47=CYLINDRICAL_SURFACE('',#285,12.5);
#48=CYLINDRICAL_SURFACE('',#288,12.25);
#49=SURFACE_OF_REVOLUTION('',#51,#50);
#50=AXIS1_PLACEMENT('',#493,#309);
#51=B_SPLINE_CURVE_WITH_KNOTS('',3,(#429,#430,#431,#432,#433,#434,#435,
#436,#437,#438,#439,#440,#441,#442,#443,#444,#445,#446,#447,#448,#449,#450,
#451,#452,#453,#454,#455,#456,#457,#458,#459,#460,#461,#462,#463,#464,#465,
#466,#467,#468,#469,#470,#471,#472,#473,#474,#475,#476,#477,#478,#479,#480,
#481,#482,#483,#484,#485,#486,#487,#488,#489,#490,#491,#492),
 .UNSPECIFIED.,.T.,.F.,(2,2,2,2,2,2,2,2,2,2,2,2,2,2,2,2,2,2,2,2,2,2,2,2,
2,2,2,2,2,2,2,2,2,2),(-0.0625,0.,0.03125,0.0625,0.09375,0.125,0.15625,0.1875,
0.21875,0.25,0.28125,0.3125,0.34375,0.375,0.40625,0.4375,0.46875,0.5,0.53125,
0.5625,0.59375,0.625,0.65625,0.6875,0.71875,0.75,0.78125,0.8125,0.84375,
0.875,0.90625,0.9375,1.,1.03125),.UNSPECIFIED.);
#52=PLANE('',#272);
#53=PLANE('',#274);
#54=FACE_OUTER_BOUND('',#188,.T.);
#55=FACE_OUTER_BOUND('',#189,.T.);
#56=TOROIDAL_SURFACE('',#271,11.25,1.);
#57=TOROIDAL_SURFACE('',#277,12.0000000000059,1.00000000000294);
#58=TOROIDAL_SURFACE('',#281,15.,4.);
#59=PRESENTATION_LAYER_ASSIGNMENT('1','Layer 1',(#141,#142));
#60=STYLED_ITEM('',(#62),#141);
#61=STYLED_ITEM('',(#63),#142);
#62=PRESENTATION_STYLE_ASSIGNMENT((#75));
#63=PRESENTATION_STYLE_ASSIGNMENT((#76));
#64=PRESENTATION_STYLE_ASSIGNMENT((#77));
#65=PRESENTATION_STYLE_ASSIGNMENT((#78));
#66=PRESENTATION_STYLE_ASSIGNMENT((#79));
#67=PRESENTATION_STYLE_ASSIGNMENT((#80));
#68=PRESENTATION_STYLE_ASSIGNMENT((#81));
#69=PRESENTATION_STYLE_ASSIGNMENT((#82));
#70=PRESENTATION_STYLE_ASSIGNMENT((#83));
#71=PRESENTATION_STYLE_ASSIGNMENT((#84));
#72=PRESENTATION_STYLE_ASSIGNMENT((#85));
#73=PRESENTATION_STYLE_ASSIGNMENT((#86));
#74=PRESENTATION_STYLE_ASSIGNMENT((#87));
#75=SURFACE_STYLE_USAGE(.BOTH.,#88);
#76=SURFACE_STYLE_USAGE(.BOTH.,#89);
#77=SURFACE_STYLE_USAGE(.BOTH.,#90);
#78=SURFACE_STYLE_USAGE(.BOTH.,#91);
#79=SURFACE_STYLE_USAGE(.BOTH.,#92);
#80=SURFACE_STYLE_USAGE(.BOTH.,#93);
#81=SURFACE_STYLE_USAGE(.BOTH.,#94);
#82=SURFACE_STYLE_USAGE(.BOTH.,#95);
#83=SURFACE_STYLE_USAGE(.BOTH.,#96);
#84=SURFACE_STYLE_USAGE(.BOTH.,#97);
#85=SURFACE_STYLE_USAGE(.BOTH.,#98);
#86=SURFACE_STYLE_USAGE(.BOTH.,#99);
#87=SURFACE_STYLE_USAGE(.BOTH.,#100);
#88=SURFACE_SIDE_STYLE('',(#101));
#89=SURFACE_SIDE_STYLE('',(#102));
#90=SURFACE_SIDE_STYLE('',(#103));
#91=SURFACE_SIDE_STYLE('',(#104));
#92=SURFACE_SIDE_STYLE('',(#105));
#93=SURFACE_SIDE_STYLE('',(#106));
#94=SURFACE_SIDE_STYLE('',(#107));
#95=SURFACE_SIDE_STYLE('',(#108));
#96=SURFACE_SIDE_STYLE('',(#109));
#97=SURFACE_SIDE_STYLE('',(#110));
#98=SURFACE_SIDE_STYLE('',(#111));
#99=SURFACE_SIDE_STYLE('',(#112));
#100=SURFACE_SIDE_STYLE('',(#113));
#101=SURFACE_STYLE_FILL_AREA(#114);
#102=SURFACE_STYLE_FILL_AREA(#115);
#103=SURFACE_STYLE_FILL_AREA(#116);
#104=SURFACE_STYLE_FILL_AREA(#117);
#105=SURFACE_STYLE_FILL_AREA(#118);
#106=SURFACE_STYLE_FILL_AREA(#119);
#107=SURFACE_STYLE_FILL_AREA(#120);
#108=SURFACE_STYLE_FILL_AREA(#121);
#109=SURFACE_STYLE_FILL_AREA(#122);
#110=SURFACE_STYLE_FILL_AREA(#123);
#111=SURFACE_STYLE_FILL_AREA(#124);
#112=SURFACE_STYLE_FILL_AREA(#125);
#113=SURFACE_STYLE_FILL_AREA(#126);
#114=FILL_AREA_STYLE('',(#127));
#115=FILL_AREA_STYLE('',(#128));
#116=FILL_AREA_STYLE('',(#129));
#117=FILL_AREA_STYLE('',(#130));
#118=FILL_AREA_STYLE('',(#131));
#119=FILL_AREA_STYLE('',(#132));
#120=FILL_AREA_STYLE('',(#133));
#121=FILL_AREA_STYLE('',(#134));
#122=FILL_AREA_STYLE('',(#135));
#123=FILL_AREA_STYLE('',(#136));
#124=FILL_AREA_STYLE('',(#137));
#125=FILL_AREA_STYLE('',(#138));
#126=FILL_AREA_STYLE('',(#139));
#127=FILL_AREA_STYLE_COLOUR('',#140);
#128=FILL_AREA_STYLE_COLOUR('',#42);
#129=FILL_AREA_STYLE_COLOUR('',#43);
#130=FILL_AREA_STYLE_COLOUR('',#43);
#131=FILL_AREA_STYLE_COLOUR('',#43);
#132=FILL_AREA_STYLE_COLOUR('',#43);
#133=FILL_AREA_STYLE_COLOUR('',#43);
#134=FILL_AREA_STYLE_COLOUR('',#43);
#135=FILL_AREA_STYLE_COLOUR('',#43);
#136=FILL_AREA_STYLE_COLOUR('',#43);
#137=FILL_AREA_STYLE_COLOUR('',#43);
#138=FILL_AREA_STYLE_COLOUR('',#43);
#139=FILL_AREA_STYLE_COLOUR('',#43);
#140=DRAUGHTING_PRE_DEFINED_COLOUR('yellow');
#141=MANIFOLD_SOLID_BREP('',#143);
#142=MANIFOLD_SOLID_BREP('',#144);
#143=CLOSED_SHELL('',(#145,#146));
#144=CLOSED_SHELL('',(#147,#148,#149,#150,#151,#152,#153,#154,#155,#156,
#157));
#145=ADVANCED_FACE('',(#160,#161),#158,.F.);
#146=ADVANCED_FACE('',(#162,#163),#159,.F.);
#147=ADVANCED_FACE('',(#164,#165),#56,.T.);
#148=ADVANCED_FACE('',(#54),#52,.F.);
#149=ADVANCED_FACE('',(#55),#53,.F.);
#150=ADVANCED_FACE('',(#166,#167),#49,.T.);
#151=ADVANCED_FACE('',(#168,#169),#57,.F.);
#152=ADVANCED_FACE('',(#170,#171),#46,.T.);
#153=ADVANCED_FACE('',(#172,#173),#58,.F.);
#154=ADVANCED_FACE('',(#174,#175),#44,.T.);
#155=ADVANCED_FACE('',(#176,#177),#47,.T.);
#156=ADVANCED_FACE('',(#178,#179),#45,.T.);
#157=ADVANCED_FACE('',(#180,#181),#48,.T.);
#158=(
BOUNDED_SURFACE()
B_SPLINE_SURFACE(3,3,((#341,#342,#343,#344,#345,#346,#347),(#348,#349,#350,
#351,#352,#353,#354),(#355,#356,#357,#358,#359,#360,#361),(#362,#363,#364,
#365,#366,#367,#368),(#369,#370,#371,#372,#373,#374,#375),(#376,#377,#378,
#379,#380,#381,#382),(#383,#384,#385,#386,#387,#388,#389)),
 .UNSPECIFIED.,.T.,.F.,.F.)
B_SPLINE_SURFACE_WITH_KNOTS((1,3,3,3,1),(4,3,4),(-0.5,0.,0.5,1.,1.5),(0.,
0.5,1.),.UNSPECIFIED.)
GEOMETRIC_REPRESENTATION_ITEM()
RATIONAL_B_SPLINE_SURFACE(((1.,0.579666236212137,0.579666236212137,1.,0.579666236212137,
0.579666236212137,1.),(0.333333333333334,0.193222078737379,0.193222078737379,
0.333333333333334,0.193222078737379,0.193222078737379,0.333333333333334),
(0.333333333333334,0.193222078737379,0.193222078737379,0.333333333333334,
0.193222078737379,0.193222078737379,0.333333333333334),(1.,0.579666236212137,
0.579666236212137,1.,0.579666236212137,0.579666236212137,1.),(0.333333333333334,
0.193222078737379,0.193222078737379,0.333333333333334,0.193222078737379,
0.193222078737379,0.333333333333334),(0.333333333333334,0.193222078737379,
0.193222078737379,0.333333333333334,0.193222078737379,0.193222078737379,
0.333333333333334),(1.,0.579666236212137,0.579666236212137,1.,0.579666236212137,
0.579666236212137,1.)))
REPRESENTATION_ITEM('')
SURFACE()
);
#159=(
BOUNDED_SURFACE()
B_SPLINE_SURFACE(3,3,((#390,#391,#392,#393),(#394,#395,#396,#397),(#398,
#399,#400,#401),(#402,#403,#404,#405),(#406,#407,#408,#409),(#410,#411,
#412,#413),(#414,#415,#416,#417)),.UNSPECIFIED.,.T.,.F.,.F.)
B_SPLINE_SURFACE_WITH_KNOTS((1,3,3,3,1),(4,4),(-0.5,0.,0.5,1.,1.5),(0.,
1.),.UNSPECIFIED.)
GEOMETRIC_REPRESENTATION_ITEM()
RATIONAL_B_SPLINE_SURFACE(((1.,0.817960302877906,0.817960302877906,1.),
(0.333333333333334,0.272653434292635,0.272653434292635,0.333333333333334),
(0.333333333333334,0.272653434292635,0.272653434292635,0.333333333333334),
(1.,0.817960302877906,0.817960302877906,1.),(0.333333333333334,0.272653434292635,
0.272653434292635,0.333333333333334),(0.333333333333334,0.272653434292635,
0.272653434292635,0.333333333333334),(1.,0.817960302877906,0.817960302877906,
1.)))
REPRESENTATION_ITEM('')
SURFACE()
);
#160=FACE_BOUND('',#182,.T.);
#161=FACE_BOUND('',#183,.T.);
#162=FACE_BOUND('',#184,.T.);
#163=FACE_BOUND('',#185,.T.);
#164=FACE_BOUND('',#186,.T.);
#165=FACE_BOUND('',#187,.T.);
#166=FACE_BOUND('',#190,.T.);
#167=FACE_BOUND('',#191,.T.);
#168=FACE_BOUND('',#192,.T.);
#169=FACE_BOUND('',#193,.T.);
#170=FACE_BOUND('',#194,.T.);
#171=FACE_BOUND('',#195,.T.);
#172=FACE_BOUND('',#196,.T.);
#173=FACE_BOUND('',#197,.T.);
#174=FACE_BOUND('',#198,.T.);
#175=FACE_BOUND('',#199,.T.);
#176=FACE_BOUND('',#200,.T.);
#177=FACE_BOUND('',#201,.T.);
#178=FACE_BOUND('',#202,.T.);
#179=FACE_BOUND('',#203,.T.);
#180=FACE_BOUND('',#204,.T.);
#181=FACE_BOUND('',#205,.T.);
#182=EDGE_LOOP('',(#206));
#183=EDGE_LOOP('',(#207));
#184=EDGE_LOOP('',(#208));
#185=EDGE_LOOP('',(#209));
#186=EDGE_LOOP('',(#210));
#187=EDGE_LOOP('',(#211));
#188=EDGE_LOOP('',(#212));
#189=EDGE_LOOP('',(#213));
#190=EDGE_LOOP('',(#214));
#191=EDGE_LOOP('',(#215));
#192=EDGE_LOOP('',(#216));
#193=EDGE_LOOP('',(#217));
#194=EDGE_LOOP('',(#218));
#195=EDGE_LOOP('',(#219));
#196=EDGE_LOOP('',(#220));
#197=EDGE_LOOP('',(#221));
#198=EDGE_LOOP('',(#222));
#199=EDGE_LOOP('',(#223));
#200=EDGE_LOOP('',(#224));
#201=EDGE_LOOP('',(#225));
#202=EDGE_LOOP('',(#226));
#203=EDGE_LOOP('',(#227));
#204=EDGE_LOOP('',(#228));
#205=EDGE_LOOP('',(#229));
#206=ORIENTED_EDGE('',*,*,#242,.T.);
#207=ORIENTED_EDGE('',*,*,#243,.F.);
#208=ORIENTED_EDGE('',*,*,#243,.T.);
#209=ORIENTED_EDGE('',*,*,#242,.F.);
#210=ORIENTED_EDGE('',*,*,#244,.F.);
#211=ORIENTED_EDGE('',*,*,#245,.T.);
#212=ORIENTED_EDGE('',*,*,#245,.F.);
#213=ORIENTED_EDGE('',*,*,#246,.T.);
#214=ORIENTED_EDGE('',*,*,#246,.F.);
#215=ORIENTED_EDGE('',*,*,#247,.T.);
#216=ORIENTED_EDGE('',*,*,#247,.F.);
#217=ORIENTED_EDGE('',*,*,#248,.T.);
#218=ORIENTED_EDGE('',*,*,#248,.F.);
#219=ORIENTED_EDGE('',*,*,#249,.T.);
#220=ORIENTED_EDGE('',*,*,#249,.F.);
#221=ORIENTED_EDGE('',*,*,#250,.T.);
#222=ORIENTED_EDGE('',*,*,#250,.F.);
#223=ORIENTED_EDGE('',*,*,#251,.T.);
#224=ORIENTED_EDGE('',*,*,#251,.F.);
#225=ORIENTED_EDGE('',*,*,#252,.T.);
#226=ORIENTED_EDGE('',*,*,#252,.F.);
#227=ORIENTED_EDGE('',*,*,#253,.T.);
#228=ORIENTED_EDGE('',*,*,#253,.F.);
#229=ORIENTED_EDGE('',*,*,#244,.T.);
#230=VERTEX_POINT('',#338);
#231=VERTEX_POINT('',#340);
#232=VERTEX_POINT('',#419);
#233=VERTEX_POINT('',#421);
#234=VERTEX_POINT('',#425);
#235=VERTEX_POINT('',#428);
#236=VERTEX_POINT('',#495);
#237=VERTEX_POINT('',#498);
#238=VERTEX_POINT('',#501);
#239=VERTEX_POINT('',#504);
#240=VERTEX_POINT('',#507);
#241=VERTEX_POINT('',#510);
#242=EDGE_CURVE('',#230,#230,#254,.T.);
#243=EDGE_CURVE('',#231,#231,#255,.T.);
#244=EDGE_CURVE('',#232,#232,#256,.T.);
#245=EDGE_CURVE('',#233,#233,#257,.T.);
#246=EDGE_CURVE('',#234,#234,#258,.T.);
#247=EDGE_CURVE('',#235,#235,#259,.T.);
#248=EDGE_CURVE('',#236,#236,#260,.T.);
#249=EDGE_CURVE('',#237,#237,#261,.T.);
#250=EDGE_CURVE('',#238,#238,#262,.T.);
#251=EDGE_CURVE('',#239,#239,#263,.T.);
#252=EDGE_CURVE('',#240,#240,#264,.T.);
#253=EDGE_CURVE('',#241,#241,#265,.T.);
#254=CIRCLE('',#267,5.);
#255=CIRCLE('',#268,5.);
#256=CIRCLE('',#269,12.25);
#257=CIRCLE('',#270,11.25);
#258=CIRCLE('',#273,4.2509099450446);
#259=CIRCLE('',#275,11.0624902458992);
#260=CIRCLE('',#276,11.);
#261=CIRCLE('',#278,11.);
#262=CIRCLE('',#280,12.1715728752538);
#263=CIRCLE('',#282,12.5);
#264=CIRCLE('',#284,12.5);
#265=CIRCLE('',#286,12.25);
#266=AXIS2_PLACEMENT_3D('',#336,#289,#290);
#267=AXIS2_PLACEMENT_3D('',#337,#291,#292);
#268=AXIS2_PLACEMENT_3D('',#339,#293,#294);
#269=AXIS2_PLACEMENT_3D('',#418,#295,#296);
#270=AXIS2_PLACEMENT_3D('',#420,#297,#298);
#271=AXIS2_PLACEMENT_3D('',#422,#299,#300);
#272=AXIS2_PLACEMENT_3D('',#423,#301,#302);
#273=AXIS2_PLACEMENT_3D('',#424,#303,#304);
#274=AXIS2_PLACEMENT_3D('',#426,#305,#306);
#275=AXIS2_PLACEMENT_3D('',#427,#307,#308);
#276=AXIS2_PLACEMENT_3D('',#494,#310,#311);
#277=AXIS2_PLACEMENT_3D('',#496,#312,#313);
#278=AXIS2_PLACEMENT_3D('',#497,#314,#315);
#279=AXIS2_PLACEMENT_3D('',#499,#316,#317);
#280=AXIS2_PLACEMENT_3D('',#500,#318,#319);
#281=AXIS2_PLACEMENT_3D('',#502,#320,#321);
#282=AXIS2_PLACEMENT_3D('',#503,#322,#323);
#283=AXIS2_PLACEMENT_3D('',#505,#324,#325);
#284=AXIS2_PLACEMENT_3D('',#506,#326,#327);
#285=AXIS2_PLACEMENT_3D('',#508,#328,#329);
#286=AXIS2_PLACEMENT_3D('',#509,#330,#331);
#287=AXIS2_PLACEMENT_3D('',#511,#332,#333);
#288=AXIS2_PLACEMENT_3D('',#512,#334,#335);
#289=DIRECTION('',(0.,0.,1.));
#290=DIRECTION('',(1.,0.,0.));
#291=DIRECTION('',(-0.0523359562429439,0.979403651828475,0.195011370102322));
#292=DIRECTION('',(0.,-0.19527899317563,0.98074773251041));
#293=DIRECTION('',(-0.0523359562429439,-0.138982369062101,0.988910940769705));
#294=DIRECTION('',(0.,-0.99026806874157,-0.139173100960065));
#295=DIRECTION('',(-1.,0.,0.));
#296=DIRECTION('',(0.,0.,1.));
#297=DIRECTION('',(-1.,0.,0.));
#298=DIRECTION('',(0.,0.,1.));
#299=DIRECTION('',(-1.,0.,0.));
#300=DIRECTION('',(0.,0.,1.));
#301=DIRECTION('',(-1.,0.,0.));
#302=DIRECTION('',(0.,0.,1.));
#303=DIRECTION('',(-1.,0.,0.));
#304=DIRECTION('',(0.,0.,1.));
#305=DIRECTION('',(1.,0.,0.));
#306=DIRECTION('',(0.,0.,-1.));
#307=DIRECTION('',(-1.,0.,0.));
#308=DIRECTION('',(0.,0.,1.));
#309=DIRECTION('',(-1.,0.,0.));
#310=DIRECTION('',(-1.,0.,0.));
#311=DIRECTION('',(0.,0.,1.));
#312=DIRECTION('',(-1.,0.,0.));
#313=DIRECTION('',(0.,0.,1.));
#314=DIRECTION('',(-1.,0.,0.));
#315=DIRECTION('',(0.,0.,1.));
#316=DIRECTION('',(-1.,0.,0.));
#317=DIRECTION('',(0.,0.,1.));
#318=DIRECTION('',(-1.,0.,0.));
#319=DIRECTION('',(0.,0.,1.));
#320=DIRECTION('',(-1.,0.,0.));
#321=DIRECTION('',(0.,0.,1.));
#322=DIRECTION('',(-1.,0.,0.));
#323=DIRECTION('',(0.,0.,1.));
#324=DIRECTION('',(1.,0.,0.));
#325=DIRECTION('',(5.48258283765515E-17,0.,-1.));
#326=DIRECTION('',(-1.,0.,0.));
#327=DIRECTION('',(0.,0.,1.));
#328=DIRECTION('',(-1.,0.,0.));
#329=DIRECTION('',(0.,0.,1.));
#330=DIRECTION('',(-1.,0.,0.));
#331=DIRECTION('',(0.,0.,1.));
#332=DIRECTION('',(-1.,0.,0.));
#333=DIRECTION('',(1.47184324997431E-16,0.,1.));
#334=DIRECTION('',(-1.,0.,0.));
#335=DIRECTION('',(0.,0.,1.));
#336=CARTESIAN_POINT('',(0.,0.,0.));
#337=CARTESIAN_POINT('',(4.99314767377287,0.524171550789187,7.58859108828202));
#338=CARTESIAN_POINT('',(4.99314767377287,-0.452223415088966,12.4923297508341));
#339=CARTESIAN_POINT('',(4.99314767377287,-7.54648581290236,0.954998636372544));
#340=CARTESIAN_POINT('',(4.99314767377287,-12.4978261566102,0.259133131572217));
#341=CARTESIAN_POINT('',(4.99314767377287,-12.4978261566102,0.259133131572216));
#342=CARTESIAN_POINT('',(4.99314767377287,-12.7747608482962,-13.0972509495654));
#343=CARTESIAN_POINT('',(4.99314767377287,-0.465922075901879,-18.2897625404553));
#344=CARTESIAN_POINT('',(4.99314767377287,8.90722857339736,-8.77063781956491));
#345=CARTESIAN_POINT('',(4.99314767377287,18.2803792226966,0.748486901325446));
#346=CARTESIAN_POINT('',(4.99314767377287,12.8982866759889,12.9756193683022));
#347=CARTESIAN_POINT('',(4.99314767377287,-0.452223415088966,12.4923297508341));
#348=CARTESIAN_POINT('',(14.9794430213186,-12.5706637298306,0.777399394716649));
#349=CARTESIAN_POINT('',(14.9794430213186,-13.4014678048887,-12.6568259518761));
#350=CARTESIAN_POINT('',(14.9794430213186,-1.22495089610046,-18.3927724338583));
#351=CARTESIAN_POINT('',(14.9794430213186,8.60428345024156,-9.19740413025784));
#352=CARTESIAN_POINT('',(14.9794430213186,18.4335177965836,-0.00203582665739971));
#353=CARTESIAN_POINT('',(14.9794430213186,13.5207923766267,12.5292759571216));
#354=CARTESIAN_POINT('',(14.9794430213186,0.061060289051347,12.5945308792541));
#355=CARTESIAN_POINT('',(14.9794430213186,-2.66798304241491,2.1691304043173));
#356=CARTESIAN_POINT('',(14.9794430213186,-4.98612528884165,-0.682133950772808));
#357=CARTESIAN_POINT('',(14.9794430213186,-3.19319416130107,-3.88976389656954));
#358=CARTESIAN_POINT('',(14.9794430213186,0.449921873052162,-3.40893392920668));
#359=CARTESIAN_POINT('',(14.9794430213186,4.0930379074054,-2.92810396184383));
#360=CARTESIAN_POINT('',(14.9794430213186,4.99236482466447,0.634858708907733));
#361=CARTESIAN_POINT('',(14.9794430213186,2.01385022080765,2.78705355415002));
#362=CARTESIAN_POINT('',(4.99314767377287,-2.59514546919451,1.65086414117287));
#363=CARTESIAN_POINT('',(4.99314767377287,-4.35941833224916,-1.12255894846203));
#364=CARTESIAN_POINT('',(4.99314767377287,-2.43416534110249,-3.78675400316653));
#365=CARTESIAN_POINT('',(4.99314767377287,0.752866996207959,-2.98216761851375));
#366=CARTESIAN_POINT('',(4.99314767377287,3.9398993335184,-2.17758123386098));
#367=CARTESIAN_POINT('',(4.99314767377287,4.36985912402663,1.08120212008835));
#368=CARTESIAN_POINT('',(4.99314767377287,1.50056651666734,2.68485242572996));
#369=CARTESIAN_POINT('',(-4.99314767377287,-2.52230789597409,1.13259787802844));
#370=CARTESIAN_POINT('',(-4.99314767377287,-3.73271137565669,-1.56298394615125));
#371=CARTESIAN_POINT('',(-4.99314767377287,-1.67513652090391,-3.68374410976351));
#372=CARTESIAN_POINT('',(-4.99314767377287,1.05581211936376,-2.55540130782083));
#373=CARTESIAN_POINT('',(-4.99314767377287,3.78676075963142,-1.42705850587814));
#374=CARTESIAN_POINT('',(-4.99314767377287,3.74735342338879,1.52754553126896));
#375=CARTESIAN_POINT('',(-4.99314767377287,0.987282812527025,2.5826512973099));
#376=CARTESIAN_POINT('',(-4.99314767377287,-12.4249885833898,-0.259133131572217));
#377=CARTESIAN_POINT('',(-4.99314767377287,-12.1480538917038,-13.5376759472546));
#378=CARTESIAN_POINT('',(-4.99314767377287,0.293106744296705,-18.1867526470522));
#379=CARTESIAN_POINT('',(-4.99314767377287,9.21017369655316,-8.34387150887198));
#380=CARTESIAN_POINT('',(-4.99314767377287,18.1272406488096,1.49900962930829));
#381=CARTESIAN_POINT('',(-4.99314767377287,12.2757809753511,13.4219627794829));
#382=CARTESIAN_POINT('',(-4.99314767377287,-0.96550711922928,12.390128622414));
#383=CARTESIAN_POINT('',(4.99314767377287,-12.4978261566102,0.259133131572216));
#384=CARTESIAN_POINT('',(4.99314767377287,-12.7747608482962,-13.0972509495654));
#385=CARTESIAN_POINT('',(4.99314767377287,-0.465922075901879,-18.2897625404553));
#386=CARTESIAN_POINT('',(4.99314767377287,8.90722857339736,-8.77063781956491));
#387=CARTESIAN_POINT('',(4.99314767377287,18.2803792226966,0.748486901325446));
#388=CARTESIAN_POINT('',(4.99314767377287,12.8982866759889,12.9756193683022));
#389=CARTESIAN_POINT('',(4.99314767377287,-0.452223415088966,12.4923297508341));
#390=CARTESIAN_POINT('',(4.99314767377287,-0.452223415088965,12.4923297508341));
#391=CARTESIAN_POINT('',(4.99314767377287,-7.44399636413256,12.2392269666771));
#392=CARTESIAN_POINT('',(4.99314767377287,-12.3527931599103,7.25398233796645));
#393=CARTESIAN_POINT('',(4.99314767377287,-12.4978261566102,0.259133131572218));
#394=CARTESIAN_POINT('',(14.9794430213186,0.0610602890513478,12.5945308792541));
#395=CARTESIAN_POINT('',(14.9794430213186,-6.98791312614239,12.6287054236158));
#396=CARTESIAN_POINT('',(14.9794430213186,-12.1355647397307,7.81301471794208));
#397=CARTESIAN_POINT('',(14.9794430213186,-12.5706637298306,0.777399394716651));
#398=CARTESIAN_POINT('',(14.9794430213186,2.01385022080765,2.78705355415002));
#399=CARTESIAN_POINT('',(14.9794430213186,0.453977399956051,3.91417585864476));
#400=CARTESIAN_POINT('',(14.9794430213186,-1.45395270649289,3.66236121366399));
#401=CARTESIAN_POINT('',(14.9794430213186,-2.66798304241491,2.1691304043173));
#402=CARTESIAN_POINT('',(4.99314767377287,1.50056651666734,2.68485242572996));
#403=CARTESIAN_POINT('',(4.99314767377287,-0.00210583803411028,3.5246974017061));
#404=CARTESIAN_POINT('',(4.99314767377287,-1.67118112667241,3.10332883368835));
#405=CARTESIAN_POINT('',(4.99314767377287,-2.59514546919451,1.65086414117287));
#406=CARTESIAN_POINT('',(-4.99314767377287,0.987282812527025,2.5826512973099));
#407=CARTESIAN_POINT('',(-4.99314767377287,-0.458189076024271,3.13521894476743));
#408=CARTESIAN_POINT('',(-4.99314767377287,-1.88840954685193,2.54429645371271));
#409=CARTESIAN_POINT('',(-4.99314767377287,-2.52230789597409,1.13259787802844));
#410=CARTESIAN_POINT('',(-4.99314767377287,-0.965507119229276,12.390128622414));
#411=CARTESIAN_POINT('',(-4.99314767377287,-7.90007960212271,11.8497485097384));
#412=CARTESIAN_POINT('',(-4.99314767377287,-12.5700215800898,6.69494995799081));
#413=CARTESIAN_POINT('',(-4.99314767377287,-12.4249885833898,-0.259133131572216));
#414=CARTESIAN_POINT('',(4.99314767377287,-0.452223415088965,12.4923297508341));
#415=CARTESIAN_POINT('',(4.99314767377287,-7.44399636413256,12.2392269666771));
#416=CARTESIAN_POINT('',(4.99314767377287,-12.3527931599103,7.25398233796645));
#417=CARTESIAN_POINT('',(4.99314767377287,-12.4978261566102,0.259133131572218));
#418=CARTESIAN_POINT('',(149.,0.,0.));
#419=CARTESIAN_POINT('',(149.,0.,12.25));
#420=CARTESIAN_POINT('',(150.,0.,0.));
#421=CARTESIAN_POINT('',(150.,0.,11.25));
#422=CARTESIAN_POINT('',(149.,0.,0.));
#423=CARTESIAN_POINT('',(150.,0.,0.));
#424=CARTESIAN_POINT('',(3.00000000000099,0.,0.));
#425=CARTESIAN_POINT('',(3.00000000000099,0.,4.2509099450446));
#426=CARTESIAN_POINT('',(3.00000000000049,4.25090994504515,0.));
#427=CARTESIAN_POINT('',(7.5473615981728,0.,0.));
#428=CARTESIAN_POINT('',(7.5473615981728,0.,11.0624902458992));
#429=CARTESIAN_POINT('',(4.65330708579275,3.68197368656316,0.));
#430=CARTESIAN_POINT('',(5.4770837052206,3.65843982819258,0.));
#431=CARTESIAN_POINT('',(5.75363302550474,3.67300030512012,0.));
#432=CARTESIAN_POINT('',(6.29583425789217,3.74878609416985,0.));
#433=CARTESIAN_POINT('',(6.56147163941015,3.8096326372261,0.));
#434=CARTESIAN_POINT('',(7.08062970155371,3.98223374947166,0.));
#435=CARTESIAN_POINT('',(7.33377662158749,4.09467945948755,0.));
#436=CARTESIAN_POINT('',(7.80537502759651,4.36661173369794,0.));
#437=CARTESIAN_POINT('',(8.02834177131355,4.52844127519832,0.));
#438=CARTESIAN_POINT('',(8.43396823451733,4.89809494970078,0.));
#439=CARTESIAN_POINT('',(8.61341844458097,5.10220373505643,0.));
#440=CARTESIAN_POINT('',(8.92654339969525,5.5482006717368,0.));
#441=CARTESIAN_POINT('',(9.06037712378638,5.79221800612386,0.));
#442=CARTESIAN_POINT('',(9.26920722515236,6.29424757548932,0.));
#443=CARTESIAN_POINT('',(9.34645832827486,6.55477199211981,0.));
#444=CARTESIAN_POINT('',(9.44663193428765,7.09484033612366,0.));
#445=CARTESIAN_POINT('',(9.46805725255658,7.36843607218935,0.));
#446=CARTESIAN_POINT('',(9.45623881392711,7.91109990752356,0.));
#447=CARTESIAN_POINT('',(9.42276098340451,8.18429385288668,0.));
#448=CARTESIAN_POINT('',(9.30213566776205,8.71916844884856,0.));
#449=CARTESIAN_POINT('',(9.21638458500314,8.97694133629584,0.));
#450=CARTESIAN_POINT('',(8.99613922270481,9.47396889453337,0.));
#451=CARTESIAN_POINT('',(8.85969121148701,9.71554719156765,0.));
#452=CARTESIAN_POINT('',(8.54698952306763,10.1623752366843,0.));
#453=CARTESIAN_POINT('',(8.37083189442773,10.368919374714,0.));
#454=CARTESIAN_POINT('',(7.97921800923851,10.7485361240199,0.));
#455=CARTESIAN_POINT('',(7.762546800702,10.921676501511,0.));
#456=CARTESIAN_POINT('',(7.30756071888956,11.2194768126251,0.));
#457=CARTESIAN_POINT('',(7.06728045398224,11.3463670231604,0.));
#458=CARTESIAN_POINT('',(6.5605994865505,11.5551877723079,0.));
#459=CARTESIAN_POINT('',(6.2971904142304,11.6353712621119,0.));
#460=CARTESIAN_POINT('',(5.76505690570302,11.7441995819223,0.));
#461=CARTESIAN_POINT('',(5.49339782963264,11.7737743593541,0.));
#462=CARTESIAN_POINT('',(4.94344673346537,11.7806925448686,0.));
#463=CARTESIAN_POINT('',(4.67225822457565,11.7581009915201,0.));
#464=CARTESIAN_POINT('',(4.13722138809064,11.6624255462278,0.));
#465=CARTESIAN_POINT('',(3.87066826822478,11.5881618311303,0.));
#466=CARTESIAN_POINT('',(3.3606922391053,11.3914573668832,0.));
#467=CARTESIAN_POINT('',(3.11767270597419,11.2699123639654,0.));
#468=CARTESIAN_POINT('',(2.65559801058932,10.9803837047129,0.));
#469=CARTESIAN_POINT('',(2.43578245828861,10.8109557747673,0.));
#470=CARTESIAN_POINT('',(2.03910170868014,10.4382178488971,0.));
#471=CARTESIAN_POINT('',(1.8597005180587,10.2336784772463,0.));
#472=CARTESIAN_POINT('',(1.54035063559814,9.78674868287465,0.));
#473=CARTESIAN_POINT('',(1.40388458447674,9.54866881291513,0.));
#474=CARTESIAN_POINT('',(1.18167535324377,9.05226202838297,0.));
#475=CARTESIAN_POINT('',(1.09443967688133,8.78967086356598,0.));
#476=CARTESIAN_POINT('',(0.976375949243612,8.25548760736826,0.));
#477=CARTESIAN_POINT('',(0.945114817577916,7.98532972542964,0.));
#478=CARTESIAN_POINT('',(0.939110411113441,7.43877364730084,0.));
#479=CARTESIAN_POINT('',(0.965232627899642,7.1627751377919,0.));
#480=CARTESIAN_POINT('',(1.07354288348469,6.62993196233563,0.));
#481=CARTESIAN_POINT('',(1.15629380481533,6.36807336852061,0.));
#482=CARTESIAN_POINT('',(1.37765890333437,5.86538464547753,0.));
#483=CARTESIAN_POINT('',(1.5132934583608,5.63032599273162,0.));
#484=CARTESIAN_POINT('',(1.83223321013933,5.19132242597258,0.));
#485=CARTESIAN_POINT('',(2.01857194012894,4.98509580773322,0.));
#486=CARTESIAN_POINT('',(2.42312685487978,4.62088554143689,0.));
#487=CARTESIAN_POINT('',(2.64115863437772,4.46164397891822,0.));
#488=CARTESIAN_POINT('',(3.10599258247885,4.18491408313639,0.));
#489=CARTESIAN_POINT('',(3.35584576838778,4.06647743356417,0.));
#490=CARTESIAN_POINT('',(4.12260627620343,3.78219345092683,0.));
#491=CARTESIAN_POINT('',(4.65330708579275,3.68197368656316,0.));
#492=CARTESIAN_POINT('',(5.4770837052206,3.65843982819258,0.));
#493=CARTESIAN_POINT('',(0.,0.,0.));
#494=CARTESIAN_POINT('',(7.89532059139004,0.,0.));
#495=CARTESIAN_POINT('',(7.89532059139004,0.,11.));
#496=CARTESIAN_POINT('',(7.89532059139004,0.,0.));
#497=CARTESIAN_POINT('',(56.8431457505076,0.,0.));
#498=CARTESIAN_POINT('',(56.8431457505076,0.,11.));
#499=CARTESIAN_POINT('',(0.,0.,0.));
#500=CARTESIAN_POINT('',(59.6715728752538,0.,0.));
#501=CARTESIAN_POINT('',(59.6715728752538,0.,12.1715728752538));
#502=CARTESIAN_POINT('',(56.8431457505076,0.,0.));
#503=CARTESIAN_POINT('',(60.,0.,0.));
#504=CARTESIAN_POINT('',(60.,0.,12.5));
#505=CARTESIAN_POINT('',(60.,0.,0.));
#506=CARTESIAN_POINT('',(144.582179545096,0.,0.));
#507=CARTESIAN_POINT('',(144.582179545096,0.,12.5));
#508=CARTESIAN_POINT('',(0.,0.,0.));
#509=CARTESIAN_POINT('',(146.,0.,0.));
#510=CARTESIAN_POINT('',(146.,0.,12.25));
#511=CARTESIAN_POINT('',(146.,0.,0.));
#512=CARTESIAN_POINT('',(0.,0.,0.));
#513=(
GEOMETRIC_REPRESENTATION_CONTEXT(3)
GLOBAL_UNCERTAINTY_ASSIGNED_CONTEXT((#514))
GLOBAL_UNIT_ASSIGNED_CONTEXT((#520,#516,#515))
REPRESENTATION_CONTEXT('model1','TOP_LEVEL_ASSEMBLY_PART')
);
#514=UNCERTAINTY_MEASURE_WITH_UNIT(LENGTH_MEASURE(2.E-5),#520,
'DISTANCE_ACCURACY_VALUE','Maximum Tolerance applied to model');
#515=(
NAMED_UNIT(*)
SI_UNIT($,.STERADIAN.)
SOLID_ANGLE_UNIT()
);
#516=(
CONVERSION_BASED_UNIT('DEGREE',#518)
NAMED_UNIT(#517)
PLANE_ANGLE_UNIT()
);
#517=DIMENSIONAL_EXPONENTS(0.,0.,0.,0.,0.,0.,0.);
#518=PLANE_ANGLE_MEASURE_WITH_UNIT(PLANE_ANGLE_MEASURE(0.0174532925),#519);
#519=(
NAMED_UNIT(*)
PLANE_ANGLE_UNIT()
SI_UNIT($,.RADIAN.)
);
#520=(
LENGTH_UNIT()
NAMED_UNIT(*)
SI_UNIT(.MILLI.,.METRE.)
);
ENDSEC;
END-ISO-10303-21;
