ISO-10303-21;
HEADER;
/* Generated by software containing ST-Developer
 * from STEP Tools, Inc. (www.steptools.com) 
 */
/* OPTION: using custom schema-name function */

FILE_DESCRIPTION(
/* description */ (''),
/* implementation_level */ '2;1');

FILE_NAME(
/* name */ 'model1.stp',
/* time_stamp */ '2023-11-06T17:35:31+03:00',
/* author */ (''),
/* organization */ (''),
/* preprocessor_version */ 'ST-DEVELOPER v19.4',
/* originating_system */ 'SIEMENS PLM Software NX2306.3001',
/* authorisation */ '');

FILE_SCHEMA (('AUTOMOTIVE_DESIGN { 1 0 10303 214 3 1 1 1 }'));
ENDSEC;

DATA;
#10=PROPERTY_DEFINITION_REPRESENTATION(#14,#12);
#11=PROPERTY_DEFINITION_REPRESENTATION(#15,#13);
#12=REPRESENTATION('',(#16),#511);
#13=REPRESENTATION('',(#17),#511);
#14=PROPERTY_DEFINITION('pmi validation property','',#21);
#15=PROPERTY_DEFINITION('pmi validation property','',#21);
#16=VALUE_REPRESENTATION_ITEM('number of annotations',COUNT_MEASURE(0.));
#17=VALUE_REPRESENTATION_ITEM('number of views',COUNT_MEASURE(0.));
#18=SHAPE_REPRESENTATION_RELATIONSHIP('None',
'relationship between model1_objects-None and model1_objects-None',#30,
#19);
#19=ADVANCED_BREP_SHAPE_REPRESENTATION('model1_objects-None',(#141,#142),
#511);
#20=SHAPE_DEFINITION_REPRESENTATION(#21,#30);
#21=PRODUCT_DEFINITION_SHAPE('','',#22);
#22=PRODUCT_DEFINITION(' ','',#24,#23);
#23=PRODUCT_DEFINITION_CONTEXT('part definition',#29,'design');
#24=PRODUCT_DEFINITION_FORMATION_WITH_SPECIFIED_SOURCE(' ',' ',#26,
 .NOT_KNOWN.);
#25=PRODUCT_RELATED_PRODUCT_CATEGORY('part','',(#26));
#26=PRODUCT('model1_objects','model1_objects',' ',(#27));
#27=PRODUCT_CONTEXT(' ',#29,'mechanical');
#28=APPLICATION_PROTOCOL_DEFINITION('international standard',
'automotive_design',2010,#29);
#29=APPLICATION_CONTEXT(
'core data for automotive mechanical design processes');
#30=SHAPE_REPRESENTATION('model1_objects-None',(#266),#511);
#31=OVER_RIDING_STYLED_ITEM('',(#64),#147,#61);
#32=OVER_RIDING_STYLED_ITEM('',(#65),#148,#61);
#33=OVER_RIDING_STYLED_ITEM('',(#66),#149,#61);
#34=OVER_RIDING_STYLED_ITEM('',(#67),#150,#61);
#35=OVER_RIDING_STYLED_ITEM('',(#68),#151,#61);
#36=OVER_RIDING_STYLED_ITEM('',(#69),#152,#61);
#37=OVER_RIDING_STYLED_ITEM('',(#70),#153,#61);
#38=OVER_RIDING_STYLED_ITEM('',(#71),#154,#61);
#39=OVER_RIDING_STYLED_ITEM('',(#72),#155,#61);
#40=OVER_RIDING_STYLED_ITEM('',(#73),#156,#61);
#41=OVER_RIDING_STYLED_ITEM('',(#74),#157,#61);
#42=COLOUR_RGB('Medium Steel',0.611764705882353,0.658823529411765,0.670588235294118);
#43=COLOUR_RGB('silver gray',0.6,0.6,0.6);
#44=CONICAL_SURFACE('',#283,12.5,44.9999999999988);
#45=CONICAL_SURFACE('',#287,12.25,9.99999999999998);
#46=CYLINDRICAL_SURFACE('',#279,11.5);
#47=CYLINDRICAL_SURFACE('',#285,12.5);
#48=CYLINDRICAL_SURFACE('',#288,12.25);
#49=SURFACE_OF_REVOLUTION('',#51,#50);
#50=AXIS1_PLACEMENT('',#491,#309);
#51=B_SPLINE_CURVE_WITH_KNOTS('',3,(#429,#430,#431,#432,#433,#434,#435,
#436,#437,#438,#439,#440,#441,#442,#443,#444,#445,#446,#447,#448,#449,#450,
#451,#452,#453,#454,#455,#456,#457,#458,#459,#460,#461,#462,#463,#464,#465,
#466,#467,#468,#469,#470,#471,#472,#473,#474,#475,#476,#477,#478,#479,#480,
#481,#482,#483,#484,#485,#486,#487,#488,#489,#490),.UNSPECIFIED.,.T.,.F.,
(2,2,2,2,2,2,2,2,2,2,2,2,2,2,2,2,2,2,2,2,2,2,2,2,2,2,2,2,2,2,2,2,2),(-0.0625,
0.,0.0625,0.09375,0.125,0.15625,0.1875,0.21875,0.25,0.28125,0.3125,0.34375,
0.375,0.40625,0.4375,0.46875,0.5,0.53125,0.5625,0.59375,0.625,0.65625,0.6875,
0.71875,0.75,0.78125,0.8125,0.84375,0.875,0.90625,0.9375,1.,1.0625),
 .UNSPECIFIED.);
#52=PLANE('',#272);
#53=PLANE('',#274);
#54=FACE_OUTER_BOUND('',#188,.T.);
#55=FACE_OUTER_BOUND('',#189,.T.);
#56=TOROIDAL_SURFACE('',#271,11.25,1.);
#57=TOROIDAL_SURFACE('',#277,12.5000000000233,1.00000000001163);
#58=TOROIDAL_SURFACE('',#281,15.5,4.);
#59=PRESENTATION_LAYER_ASSIGNMENT('1','Layer 1',(#141,#142));
#60=STYLED_ITEM('',(#62),#141);
#61=STYLED_ITEM('',(#63),#142);
#62=PRESENTATION_STYLE_ASSIGNMENT((#75));
#63=PRESENTATION_STYLE_ASSIGNMENT((#76));
#64=PRESENTATION_STYLE_ASSIGNMENT((#77));
#65=PRESENTATION_STYLE_ASSIGNMENT((#78));
#66=PRESENTATION_STYLE_ASSIGNMENT((#79));
#67=PRESENTATION_STYLE_ASSIGNMENT((#80));
#68=PRESENTATION_STYLE_ASSIGNMENT((#81));
#69=PRESENTATION_STYLE_ASSIGNMENT((#82));
#70=PRESENTATION_STYLE_ASSIGNMENT((#83));
#71=PRESENTATION_STYLE_ASSIGNMENT((#84));
#72=PRESENTATION_STYLE_ASSIGNMENT((#85));
#73=PRESENTATION_STYLE_ASSIGNMENT((#86));
#74=PRESENTATION_STYLE_ASSIGNMENT((#87));
#75=SURFACE_STYLE_USAGE(.BOTH.,#88);
#76=SURFACE_STYLE_USAGE(.BOTH.,#89);
#77=SURFACE_STYLE_USAGE(.BOTH.,#90);
#78=SURFACE_STYLE_USAGE(.BOTH.,#91);
#79=SURFACE_STYLE_USAGE(.BOTH.,#92);
#80=SURFACE_STYLE_USAGE(.BOTH.,#93);
#81=SURFACE_STYLE_USAGE(.BOTH.,#94);
#82=SURFACE_STYLE_USAGE(.BOTH.,#95);
#83=SURFACE_STYLE_USAGE(.BOTH.,#96);
#84=SURFACE_STYLE_USAGE(.BOTH.,#97);
#85=SURFACE_STYLE_USAGE(.BOTH.,#98);
#86=SURFACE_STYLE_USAGE(.BOTH.,#99);
#87=SURFACE_STYLE_USAGE(.BOTH.,#100);
#88=SURFACE_SIDE_STYLE('',(#101));
#89=SURFACE_SIDE_STYLE('',(#102));
#90=SURFACE_SIDE_STYLE('',(#103));
#91=SURFACE_SIDE_STYLE('',(#104));
#92=SURFACE_SIDE_STYLE('',(#105));
#93=SURFACE_SIDE_STYLE('',(#106));
#94=SURFACE_SIDE_STYLE('',(#107));
#95=SURFACE_SIDE_STYLE('',(#108));
#96=SURFACE_SIDE_STYLE('',(#109));
#97=SURFACE_SIDE_STYLE('',(#110));
#98=SURFACE_SIDE_STYLE('',(#111));
#99=SURFACE_SIDE_STYLE('',(#112));
#100=SURFACE_SIDE_STYLE('',(#113));
#101=SURFACE_STYLE_FILL_AREA(#114);
#102=SURFACE_STYLE_FILL_AREA(#115);
#103=SURFACE_STYLE_FILL_AREA(#116);
#104=SURFACE_STYLE_FILL_AREA(#117);
#105=SURFACE_STYLE_FILL_AREA(#118);
#106=SURFACE_STYLE_FILL_AREA(#119);
#107=SURFACE_STYLE_FILL_AREA(#120);
#108=SURFACE_STYLE_FILL_AREA(#121);
#109=SURFACE_STYLE_FILL_AREA(#122);
#110=SURFACE_STYLE_FILL_AREA(#123);
#111=SURFACE_STYLE_FILL_AREA(#124);
#112=SURFACE_STYLE_FILL_AREA(#125);
#113=SURFACE_STYLE_FILL_AREA(#126);
#114=FILL_AREA_STYLE('',(#127));
#115=FILL_AREA_STYLE('',(#128));
#116=FILL_AREA_STYLE('',(#129));
#117=FILL_AREA_STYLE('',(#130));
#118=FILL_AREA_STYLE('',(#131));
#119=FILL_AREA_STYLE('',(#132));
#120=FILL_AREA_STYLE('',(#133));
#121=FILL_AREA_STYLE('',(#134));
#122=FILL_AREA_STYLE('',(#135));
#123=FILL_AREA_STYLE('',(#136));
#124=FILL_AREA_STYLE('',(#137));
#125=FILL_AREA_STYLE('',(#138));
#126=FILL_AREA_STYLE('',(#139));
#127=FILL_AREA_STYLE_COLOUR('',#140);
#128=FILL_AREA_STYLE_COLOUR('',#42);
#129=FILL_AREA_STYLE_COLOUR('',#43);
#130=FILL_AREA_STYLE_COLOUR('',#43);
#131=FILL_AREA_STYLE_COLOUR('',#43);
#132=FILL_AREA_STYLE_COLOUR('',#43);
#133=FILL_AREA_STYLE_COLOUR('',#43);
#134=FILL_AREA_STYLE_COLOUR('',#43);
#135=FILL_AREA_STYLE_COLOUR('',#43);
#136=FILL_AREA_STYLE_COLOUR('',#43);
#137=FILL_AREA_STYLE_COLOUR('',#43);
#138=FILL_AREA_STYLE_COLOUR('',#43);
#139=FILL_AREA_STYLE_COLOUR('',#43);
#140=DRAUGHTING_PRE_DEFINED_COLOUR('yellow');
#141=MANIFOLD_SOLID_BREP('',#143);
#142=MANIFOLD_SOLID_BREP('',#144);
#143=CLOSED_SHELL('',(#145,#146));
#144=CLOSED_SHELL('',(#147,#148,#149,#150,#151,#152,#153,#154,#155,#156,
#157));
#145=ADVANCED_FACE('',(#160,#161),#158,.F.);
#146=ADVANCED_FACE('',(#162,#163),#159,.F.);
#147=ADVANCED_FACE('',(#164,#165),#56,.T.);
#148=ADVANCED_FACE('',(#54),#52,.F.);
#149=ADVANCED_FACE('',(#55),#53,.F.);
#150=ADVANCED_FACE('',(#166,#167),#49,.T.);
#151=ADVANCED_FACE('',(#168,#169),#57,.F.);
#152=ADVANCED_FACE('',(#170,#171),#46,.T.);
#153=ADVANCED_FACE('',(#172,#173),#58,.F.);
#154=ADVANCED_FACE('',(#174,#175),#44,.F.);
#155=ADVANCED_FACE('',(#176,#177),#47,.T.);
#156=ADVANCED_FACE('',(#178,#179),#45,.T.);
#157=ADVANCED_FACE('',(#180,#181),#48,.T.);
#158=(
BOUNDED_SURFACE()
B_SPLINE_SURFACE(3,3,((#341,#342,#343,#344,#345,#346,#347),(#348,#349,#350,
#351,#352,#353,#354),(#355,#356,#357,#358,#359,#360,#361),(#362,#363,#364,
#365,#366,#367,#368),(#369,#370,#371,#372,#373,#374,#375),(#376,#377,#378,
#379,#380,#381,#382),(#383,#384,#385,#386,#387,#388,#389)),
 .UNSPECIFIED.,.T.,.F.,.F.)
B_SPLINE_SURFACE_WITH_KNOTS((1,3,3,3,1),(4,3,4),(-0.5,0.,0.5,1.,1.5),(0.,
0.5,1.),.UNSPECIFIED.)
GEOMETRIC_REPRESENTATION_ITEM()
RATIONAL_B_SPLINE_SURFACE(((1.,0.580483331335456,0.580483331335456,1.,0.580483331335456,
0.580483331335456,1.),(0.333333333333334,0.193494443778485,0.193494443778485,
0.333333333333334,0.193494443778485,0.193494443778485,0.333333333333334),
(0.333333333333334,0.193494443778485,0.193494443778485,0.333333333333334,
0.193494443778485,0.193494443778485,0.333333333333334),(1.,0.580483331335456,
0.580483331335456,1.,0.580483331335456,0.580483331335456,1.),(0.333333333333334,
0.193494443778485,0.193494443778485,0.333333333333334,0.193494443778485,
0.193494443778485,0.333333333333334),(0.333333333333334,0.193494443778485,
0.193494443778485,0.333333333333334,0.193494443778485,0.193494443778485,
0.333333333333334),(1.,0.580483331335456,0.580483331335456,1.,0.580483331335456,
0.580483331335456,1.)))
REPRESENTATION_ITEM('')
SURFACE()
);
#159=(
BOUNDED_SURFACE()
B_SPLINE_SURFACE(3,3,((#390,#391,#392,#393),(#394,#395,#396,#397),(#398,
#399,#400,#401),(#402,#403,#404,#405),(#406,#407,#408,#409),(#410,#411,
#412,#413),(#414,#415,#416,#417)),.UNSPECIFIED.,.T.,.F.,.F.)
B_SPLINE_SURFACE_WITH_KNOTS((1,3,3,3,1),(4,4),(-0.5,0.,0.5,1.,1.5),(0.,
1.),.UNSPECIFIED.)
GEOMETRIC_REPRESENTATION_ITEM()
RATIONAL_B_SPLINE_SURFACE(((1.,0.816750635462652,0.816750635462652,1.),
(0.333333333333334,0.272250211820884,0.272250211820884,0.333333333333334),
(0.333333333333334,0.272250211820884,0.272250211820884,0.333333333333334),
(1.,0.816750635462652,0.816750635462652,1.),(0.333333333333334,0.272250211820884,
0.272250211820884,0.333333333333334),(0.333333333333334,0.272250211820884,
0.272250211820884,0.333333333333334),(1.,0.816750635462652,0.816750635462652,
1.)))
REPRESENTATION_ITEM('')
SURFACE()
);
#160=FACE_BOUND('',#182,.T.);
#161=FACE_BOUND('',#183,.T.);
#162=FACE_BOUND('',#184,.T.);
#163=FACE_BOUND('',#185,.T.);
#164=FACE_BOUND('',#186,.T.);
#165=FACE_BOUND('',#187,.T.);
#166=FACE_BOUND('',#190,.T.);
#167=FACE_BOUND('',#191,.T.);
#168=FACE_BOUND('',#192,.T.);
#169=FACE_BOUND('',#193,.T.);
#170=FACE_BOUND('',#194,.T.);
#171=FACE_BOUND('',#195,.T.);
#172=FACE_BOUND('',#196,.T.);
#173=FACE_BOUND('',#197,.T.);
#174=FACE_BOUND('',#198,.T.);
#175=FACE_BOUND('',#199,.T.);
#176=FACE_BOUND('',#200,.T.);
#177=FACE_BOUND('',#201,.T.);
#178=FACE_BOUND('',#202,.T.);
#179=FACE_BOUND('',#203,.T.);
#180=FACE_BOUND('',#204,.T.);
#181=FACE_BOUND('',#205,.T.);
#182=EDGE_LOOP('',(#206));
#183=EDGE_LOOP('',(#207));
#184=EDGE_LOOP('',(#208));
#185=EDGE_LOOP('',(#209));
#186=EDGE_LOOP('',(#210));
#187=EDGE_LOOP('',(#211));
#188=EDGE_LOOP('',(#212));
#189=EDGE_LOOP('',(#213));
#190=EDGE_LOOP('',(#214));
#191=EDGE_LOOP('',(#215));
#192=EDGE_LOOP('',(#216));
#193=EDGE_LOOP('',(#217));
#194=EDGE_LOOP('',(#218));
#195=EDGE_LOOP('',(#219));
#196=EDGE_LOOP('',(#220));
#197=EDGE_LOOP('',(#221));
#198=EDGE_LOOP('',(#222));
#199=EDGE_LOOP('',(#223));
#200=EDGE_LOOP('',(#224));
#201=EDGE_LOOP('',(#225));
#202=EDGE_LOOP('',(#226));
#203=EDGE_LOOP('',(#227));
#204=EDGE_LOOP('',(#228));
#205=EDGE_LOOP('',(#229));
#206=ORIENTED_EDGE('',*,*,#242,.T.);
#207=ORIENTED_EDGE('',*,*,#243,.F.);
#208=ORIENTED_EDGE('',*,*,#243,.T.);
#209=ORIENTED_EDGE('',*,*,#242,.F.);
#210=ORIENTED_EDGE('',*,*,#244,.F.);
#211=ORIENTED_EDGE('',*,*,#245,.T.);
#212=ORIENTED_EDGE('',*,*,#245,.F.);
#213=ORIENTED_EDGE('',*,*,#246,.T.);
#214=ORIENTED_EDGE('',*,*,#246,.F.);
#215=ORIENTED_EDGE('',*,*,#247,.T.);
#216=ORIENTED_EDGE('',*,*,#247,.F.);
#217=ORIENTED_EDGE('',*,*,#248,.T.);
#218=ORIENTED_EDGE('',*,*,#248,.F.);
#219=ORIENTED_EDGE('',*,*,#249,.T.);
#220=ORIENTED_EDGE('',*,*,#249,.F.);
#221=ORIENTED_EDGE('',*,*,#250,.T.);
#222=ORIENTED_EDGE('',*,*,#250,.F.);
#223=ORIENTED_EDGE('',*,*,#251,.T.);
#224=ORIENTED_EDGE('',*,*,#251,.F.);
#225=ORIENTED_EDGE('',*,*,#252,.T.);
#226=ORIENTED_EDGE('',*,*,#252,.F.);
#227=ORIENTED_EDGE('',*,*,#253,.T.);
#228=ORIENTED_EDGE('',*,*,#253,.F.);
#229=ORIENTED_EDGE('',*,*,#244,.T.);
#230=VERTEX_POINT('',#338);
#231=VERTEX_POINT('',#340);
#232=VERTEX_POINT('',#419);
#233=VERTEX_POINT('',#421);
#234=VERTEX_POINT('',#425);
#235=VERTEX_POINT('',#428);
#236=VERTEX_POINT('',#493);
#237=VERTEX_POINT('',#496);
#238=VERTEX_POINT('',#499);
#239=VERTEX_POINT('',#502);
#240=VERTEX_POINT('',#505);
#241=VERTEX_POINT('',#508);
#242=EDGE_CURVE('',#230,#230,#254,.T.);
#243=EDGE_CURVE('',#231,#231,#255,.T.);
#244=EDGE_CURVE('',#232,#232,#256,.T.);
#245=EDGE_CURVE('',#233,#233,#257,.T.);
#246=EDGE_CURVE('',#234,#234,#258,.T.);
#247=EDGE_CURVE('',#235,#235,#259,.T.);
#248=EDGE_CURVE('',#236,#236,#260,.T.);
#249=EDGE_CURVE('',#237,#237,#261,.T.);
#250=EDGE_CURVE('',#238,#238,#262,.T.);
#251=EDGE_CURVE('',#239,#239,#263,.T.);
#252=EDGE_CURVE('',#240,#240,#264,.T.);
#253=EDGE_CURVE('',#241,#241,#265,.T.);
#254=CIRCLE('',#267,5.);
#255=CIRCLE('',#268,5.);
#256=CIRCLE('',#269,12.25);
#257=CIRCLE('',#270,11.25);
#258=CIRCLE('',#273,4.65534412998191);
#259=CIRCLE('',#275,11.560284912934);
#260=CIRCLE('',#276,11.5);
#261=CIRCLE('',#278,11.5);
#262=CIRCLE('',#280,12.6715728752538);
#263=CIRCLE('',#282,12.5);
#264=CIRCLE('',#284,12.5);
#265=CIRCLE('',#286,12.25);
#266=AXIS2_PLACEMENT_3D('',#336,#289,#290);
#267=AXIS2_PLACEMENT_3D('',#337,#291,#292);
#268=AXIS2_PLACEMENT_3D('',#339,#293,#294);
#269=AXIS2_PLACEMENT_3D('',#418,#295,#296);
#270=AXIS2_PLACEMENT_3D('',#420,#297,#298);
#271=AXIS2_PLACEMENT_3D('',#422,#299,#300);
#272=AXIS2_PLACEMENT_3D('',#423,#301,#302);
#273=AXIS2_PLACEMENT_3D('',#424,#303,#304);
#274=AXIS2_PLACEMENT_3D('',#426,#305,#306);
#275=AXIS2_PLACEMENT_3D('',#427,#307,#308);
#276=AXIS2_PLACEMENT_3D('',#492,#310,#311);
#277=AXIS2_PLACEMENT_3D('',#494,#312,#313);
#278=AXIS2_PLACEMENT_3D('',#495,#314,#315);
#279=AXIS2_PLACEMENT_3D('',#497,#316,#317);
#280=AXIS2_PLACEMENT_3D('',#498,#318,#319);
#281=AXIS2_PLACEMENT_3D('',#500,#320,#321);
#282=AXIS2_PLACEMENT_3D('',#501,#322,#323);
#283=AXIS2_PLACEMENT_3D('',#503,#324,#325);
#284=AXIS2_PLACEMENT_3D('',#504,#326,#327);
#285=AXIS2_PLACEMENT_3D('',#506,#328,#329);
#286=AXIS2_PLACEMENT_3D('',#507,#330,#331);
#287=AXIS2_PLACEMENT_3D('',#509,#332,#333);
#288=AXIS2_PLACEMENT_3D('',#510,#334,#335);
#289=DIRECTION('',(0.,0.,1.));
#290=DIRECTION('',(1.,0.,0.));
#291=DIRECTION('',(-0.0523359562429439,0.98041914812246,0.189840042348725));
#292=DIRECTION('',(0.,-0.190100568571087,0.981764622416671));
#293=DIRECTION('',(-0.0523359562429439,-0.138982369062101,0.988910940769705));
#294=DIRECTION('',(0.,-0.99026806874157,-0.139173100960065));
#295=DIRECTION('',(-1.,0.,0.));
#296=DIRECTION('',(0.,0.,1.));
#297=DIRECTION('',(-1.,0.,0.));
#298=DIRECTION('',(0.,0.,1.));
#299=DIRECTION('',(-1.,0.,0.));
#300=DIRECTION('',(0.,0.,1.));
#301=DIRECTION('',(-1.,0.,0.));
#302=DIRECTION('',(0.,0.,1.));
#303=DIRECTION('',(-1.,0.,0.));
#304=DIRECTION('',(0.,0.,1.));
#305=DIRECTION('',(1.,0.,0.));
#306=DIRECTION('',(0.,0.,-1.));
#307=DIRECTION('',(-1.,0.,0.));
#308=DIRECTION('',(0.,0.,1.));
#309=DIRECTION('',(-1.,0.,0.));
#310=DIRECTION('',(-1.,0.,0.));
#311=DIRECTION('',(0.,0.,1.));
#312=DIRECTION('',(-1.,0.,0.));
#313=DIRECTION('',(0.,0.,1.));
#314=DIRECTION('',(-1.,0.,0.));
#315=DIRECTION('',(0.,0.,1.));
#316=DIRECTION('',(-1.,0.,0.));
#317=DIRECTION('',(0.,0.,1.));
#318=DIRECTION('',(-1.,0.,0.));
#319=DIRECTION('',(0.,0.,1.));
#320=DIRECTION('',(-1.,0.,0.));
#321=DIRECTION('',(0.,0.,1.));
#322=DIRECTION('',(-1.,0.,0.));
#323=DIRECTION('',(0.,0.,1.));
#324=DIRECTION('',(1.,0.,0.));
#325=DIRECTION('',(5.48258283765532E-17,0.,-1.));
#326=DIRECTION('',(-1.,0.,0.));
#327=DIRECTION('',(0.,0.,1.));
#328=DIRECTION('',(-1.,0.,0.));
#329=DIRECTION('',(0.,0.,1.));
#330=DIRECTION('',(-1.,0.,0.));
#331=DIRECTION('',(0.,0.,1.));
#332=DIRECTION('',(-1.,0.,0.));
#333=DIRECTION('',(-2.94368649994862E-16,0.,1.));
#334=DIRECTION('',(-1.,0.,0.));
#335=DIRECTION('',(0.,0.,1.));
#336=CARTESIAN_POINT('',(0.,0.,0.));
#337=CARTESIAN_POINT('',(4.99314767377287,0.538439789222678,8.08435865074276));
#338=CARTESIAN_POINT('',(4.99314767377287,-0.412063053632757,12.9931817628261));
#339=CARTESIAN_POINT('',(4.99314767377287,-8.04579081290236,0.954998636372544));
#340=CARTESIAN_POINT('',(4.99314767377287,-12.9971311566102,0.259133131572217));
#341=CARTESIAN_POINT('',(4.99314767377287,-12.9971311566102,0.259133131572216));
#342=CARTESIAN_POINT('',(4.99314767377287,-13.2735307103708,-13.6040160151961));
#343=CARTESIAN_POINT('',(4.99314767377287,-0.500700560626126,-19.0001360050252));
#344=CARTESIAN_POINT('',(4.99314767377287,9.246113831107,-9.13793999237345));
#345=CARTESIAN_POINT('',(4.99314767377287,18.9929282228401,0.724256020278307));
#346=CARTESIAN_POINT('',(4.99314767377287,13.4468735454272,13.4327011845778));
#347=CARTESIAN_POINT('',(4.99314767377287,-0.412063053632758,12.9931817628261));
#348=CARTESIAN_POINT('',(14.9794430213186,-13.0699687298306,0.777399394716649));
#349=CARTESIAN_POINT('',(14.9794430213186,-13.8991673911124,-13.1634406000454));
#350=CARTESIAN_POINT('',(14.9794430213186,-1.25911888201192,-19.1017706571418));
#351=CARTESIAN_POINT('',(14.9794430213186,8.94204367058254,-9.56390544762184));
#352=CARTESIAN_POINT('',(14.9794430213186,19.143206223177,-0.026040238101847));
#353=CARTESIAN_POINT('',(14.9794430213186,14.0668096275558,12.9841399214268));
#354=CARTESIAN_POINT('',(14.9794430213186,0.101752849563934,13.0926727132111));
#355=CARTESIAN_POINT('',(14.9794430213186,-3.16728804241491,2.16913040431731));
#356=CARTESIAN_POINT('',(14.9794430213186,-5.48095080010331,-1.20919870490632));
#357=CARTESIAN_POINT('',(14.9794430213186,-3.20108496828787,-4.61042711762171));
#358=CARTESIAN_POINT('',(14.9794430213186,0.802984296735399,-3.7539387946202));
#359=CARTESIAN_POINT('',(14.9794430213186,4.80705356175867,-2.8974504716187));
#360=CARTESIAN_POINT('',(14.9794430213186,5.49600486249583,1.13882120305267));
#361=CARTESIAN_POINT('',(14.9794430213186,2.00275853527481,3.27502648904435));
#362=CARTESIAN_POINT('',(4.99314767377287,-3.0944504691945,1.65086414117287));
#363=CARTESIAN_POINT('',(4.99314767377287,-4.85531411936174,-1.64977412005699));
#364=CARTESIAN_POINT('',(4.99314767377287,-2.44266664690208,-4.50879246550508));
#365=CARTESIAN_POINT('',(4.99314767377287,1.10705445725985,-3.32797333937182));
#366=CARTESIAN_POINT('',(4.99314767377287,4.65677556142179,-2.14715421323855));
#367=CARTESIAN_POINT('',(4.99314767377287,4.87606878036728,1.58738246620367));
#368=CARTESIAN_POINT('',(4.99314767377287,1.48894263207811,3.17553553865939));
#369=CARTESIAN_POINT('',(-4.99314767377288,-3.02161289597409,1.13259787802844));
#370=CARTESIAN_POINT('',(-4.99314767377288,-4.22967743862018,-2.09034953520766));
#371=CARTESIAN_POINT('',(-4.99314767377288,-1.68424832551629,-4.40715781338846));
#372=CARTESIAN_POINT('',(-4.99314767377288,1.41112461778431,-2.90200788412343));
#373=CARTESIAN_POINT('',(-4.99314767377288,4.50649756108491,-1.3968579548584));
#374=CARTESIAN_POINT('',(-4.99314767377287,4.25613269823873,2.03594372935465));
#375=CARTESIAN_POINT('',(-4.99314767377287,0.975126728881421,3.07604458827444));
#376=CARTESIAN_POINT('',(-4.99314767377288,-12.9242935833898,-0.259133131572218));
#377=CARTESIAN_POINT('',(-4.99314767377288,-12.6478940296292,-14.0445914303467));
#378=CARTESIAN_POINT('',(-4.99314767377288,0.257717760759668,-18.8985013529086));
#379=CARTESIAN_POINT('',(-4.99314767377288,9.55018399163146,-8.71197453712506));
#380=CARTESIAN_POINT('',(-4.99314767377288,18.8426502225033,1.47455227865846));
#381=CARTESIAN_POINT('',(-4.99314767377288,12.8269374632987,13.8812624477288));
#382=CARTESIAN_POINT('',(-4.99314767377288,-0.925878956829452,12.8936908124412));
#383=CARTESIAN_POINT('',(4.99314767377287,-12.9971311566102,0.259133131572216));
#384=CARTESIAN_POINT('',(4.99314767377287,-13.2735307103708,-13.6040160151961));
#385=CARTESIAN_POINT('',(4.99314767377287,-0.500700560626126,-19.0001360050252));
#386=CARTESIAN_POINT('',(4.99314767377287,9.246113831107,-9.13793999237345));
#387=CARTESIAN_POINT('',(4.99314767377287,18.9929282228401,0.724256020278307));
#388=CARTESIAN_POINT('',(4.99314767377287,13.4468735454272,13.4327011845778));
#389=CARTESIAN_POINT('',(4.99314767377287,-0.412063053632758,12.9931817628261));
#390=CARTESIAN_POINT('',(4.99314767377287,-0.412063053632759,12.9931817628261));
#391=CARTESIAN_POINT('',(4.99314767377287,-7.71524375373901,12.7615702149043));
#392=CARTESIAN_POINT('',(4.99314767377287,-12.8514781426063,7.56453369875857));
#393=CARTESIAN_POINT('',(4.99314767377287,-12.9971311566102,0.259133131572217));
#394=CARTESIAN_POINT('',(14.9794430213186,0.101752849563934,13.0926727132111));
#395=CARTESIAN_POINT('',(14.9794430213186,-7.25734951791754,13.1498657441931));
#396=CARTESIAN_POINT('',(14.9794430213186,-12.6330096878189,8.12374035423306));
#397=CARTESIAN_POINT('',(14.9794430213186,-13.0699687298306,0.777399394716651));
#398=CARTESIAN_POINT('',(14.9794430213186,2.00275853527481,3.27502648904435));
#399=CARTESIAN_POINT('',(14.9794430213186,0.161938427950838,4.4007328594146));
#400=CARTESIAN_POINT('',(14.9794430213186,-1.94806771640154,3.94939310865513));
#401=CARTESIAN_POINT('',(14.9794430213186,-3.16728804241491,2.1691304043173));
#402=CARTESIAN_POINT('',(4.99314767377287,1.48894263207811,3.17553553865939));
#403=CARTESIAN_POINT('',(4.99314767377287,-0.295955807870629,4.01243733012583));
#404=CARTESIAN_POINT('',(4.99314767377287,-2.16653617118896,3.39018645318064));
#405=CARTESIAN_POINT('',(4.99314767377287,-3.0944504691945,1.65086414117287));
#406=CARTESIAN_POINT('',(-4.99314767377288,0.975126728881421,3.07604458827444));
#407=CARTESIAN_POINT('',(-4.99314767377288,-0.753850043692095,3.62414180083706));
#408=CARTESIAN_POINT('',(-4.99314767377288,-2.38500462597638,2.83097979770615));
#409=CARTESIAN_POINT('',(-4.99314767377288,-3.02161289597409,1.13259787802844));
#410=CARTESIAN_POINT('',(-4.99314767377288,-0.925878956829451,12.8936908124412));
#411=CARTESIAN_POINT('',(-4.99314767377288,-8.17313798956048,12.3732746856155));
#412=CARTESIAN_POINT('',(-4.99314767377288,-13.0699465973937,7.00532704328407));
#413=CARTESIAN_POINT('',(-4.99314767377288,-12.9242935833898,-0.259133131572217));
#414=CARTESIAN_POINT('',(4.99314767377287,-0.412063053632759,12.9931817628261));
#415=CARTESIAN_POINT('',(4.99314767377287,-7.71524375373901,12.7615702149043));
#416=CARTESIAN_POINT('',(4.99314767377287,-12.8514781426063,7.56453369875857));
#417=CARTESIAN_POINT('',(4.99314767377287,-12.9971311566102,0.259133131572217));
#418=CARTESIAN_POINT('',(199.,0.,0.));
#419=CARTESIAN_POINT('',(199.,0.,12.25));
#420=CARTESIAN_POINT('',(200.,0.,0.));
#421=CARTESIAN_POINT('',(200.,0.,11.25));
#422=CARTESIAN_POINT('',(199.,0.,0.));
#423=CARTESIAN_POINT('',(200.,0.,0.));
#424=CARTESIAN_POINT('',(3.00000000000864,0.,0.));
#425=CARTESIAN_POINT('',(3.00000000000864,0.,4.65534412998191));
#426=CARTESIAN_POINT('',(3.00000000000432,4.6553441299868,0.));
#427=CARTESIAN_POINT('',(7.51480427134958,0.,0.));
#428=CARTESIAN_POINT('',(7.51480427134958,0.,11.560284912934));
#429=CARTESIAN_POINT('',(4.65034893849636,4.06995673562253,0.));
#430=CARTESIAN_POINT('',(5.75463405899294,4.04243328074277,0.));
#431=CARTESIAN_POINT('',(6.30819368196892,4.1236360854913,0.));
#432=CARTESIAN_POINT('',(7.0828704388046,4.39485360627573,0.));
#433=CARTESIAN_POINT('',(7.33580324656429,4.51209634914545,0.));
#434=CARTESIAN_POINT('',(7.8062177845973,4.79289017108567,0.));
#435=CARTESIAN_POINT('',(8.02509849294432,4.95625786284344,0.));
#436=CARTESIAN_POINT('',(8.42856032614079,5.33125131060051,0.));
#437=CARTESIAN_POINT('',(8.60964371654356,5.5404125557856,0.));
#438=CARTESIAN_POINT('',(8.92080055239599,5.98834522742817,0.));
#439=CARTESIAN_POINT('',(9.05388560851308,6.23161530909409,0.));
#440=CARTESIAN_POINT('',(9.26506374066671,6.73941012338948,0.));
#441=CARTESIAN_POINT('',(9.34263088225704,7.000799596398,0.));
#442=CARTESIAN_POINT('',(9.44400413943735,7.53795232847441,0.));
#443=CARTESIAN_POINT('',(9.46724939155605,7.81613031080181,0.));
#444=CARTESIAN_POINT('',(9.45772249892959,8.36247591122667,0.));
#445=CARTESIAN_POINT('',(9.42587524109562,8.63327088953558,0.));
#446=CARTESIAN_POINT('',(9.30808505572766,9.17011151948644,0.));
#447=CARTESIAN_POINT('',(9.22204544755376,9.43363867694082,0.));
#448=CARTESIAN_POINT('',(9.00359274055752,9.93321060327008,0.));
#449=CARTESIAN_POINT('',(8.87049475920986,10.1722495757171,0.));
#450=CARTESIAN_POINT('',(8.55573208569956,10.6268600817982,0.));
#451=CARTESIAN_POINT('',(8.37904257893237,10.8353274979009,0.));
#452=CARTESIAN_POINT('',(7.98886894522221,11.2163640002994,0.));
#453=CARTESIAN_POINT('',(7.77299879433535,11.390391416313,0.));
#454=CARTESIAN_POINT('',(7.31415557008297,11.6926015509017,0.));
#455=CARTESIAN_POINT('',(7.07311997243322,11.8202403218825,0.));
#456=CARTESIAN_POINT('',(6.56822893794255,12.0294099100154,0.));
#457=CARTESIAN_POINT('',(6.30177299907995,12.1111212544188,0.));
#458=CARTESIAN_POINT('',(5.76584487785637,12.2209482450371,0.));
#459=CARTESIAN_POINT('',(5.49470023237427,12.2502517461454,0.));
#460=CARTESIAN_POINT('',(4.94597662000739,12.2570497445065,0.));
#461=CARTESIAN_POINT('',(4.66909878364902,12.2338433136878,0.));
#462=CARTESIAN_POINT('',(4.13204864852063,12.1366910892868,0.));
#463=CARTESIAN_POINT('',(3.86890849483374,12.0629218095642,0.));
#464=CARTESIAN_POINT('',(3.35386814236056,11.8627974384973,0.));
#465=CARTESIAN_POINT('',(3.10916614112318,11.739113742128,0.));
#466=CARTESIAN_POINT('',(2.64785217546573,11.447498782572,0.));
#467=CARTESIAN_POINT('',(2.42865437088898,11.2773065365263,0.));
#468=CARTESIAN_POINT('',(2.03001000064959,10.8992598149519,0.));
#469=CARTESIAN_POINT('',(1.85127629314408,10.6929847853152,0.));
#470=CARTESIAN_POINT('',(1.53506149282698,10.2458679911326,0.));
#471=CARTESIAN_POINT('',(1.39749356539792,10.0034087819392,0.));
#472=CARTESIAN_POINT('',(1.17678818180167,9.50339030011358,0.));
#473=CARTESIAN_POINT('',(1.09170888524574,9.24363108170293,0.));
#474=CARTESIAN_POINT('',(0.974559657916109,8.7036626768975,0.));
#475=CARTESIAN_POINT('',(0.944267066139743,8.43075215476507,0.));
#476=CARTESIAN_POINT('',(0.939756552373472,7.88458269115627,0.));
#477=CARTESIAN_POINT('',(0.966219111266156,7.60719886339789,0.));
#478=CARTESIAN_POINT('',(1.07540107333977,7.06999545159573,0.));
#479=CARTESIAN_POINT('',(1.15727361194859,6.80983149284577,0.));
#480=CARTESIAN_POINT('',(1.37600433512691,6.30650975163669,0.));
#481=CARTESIAN_POINT('',(1.51332379235757,6.06456439154366,0.));
#482=CARTESIAN_POINT('',(1.82956061878674,5.62135233422919,0.));
#483=CARTESIAN_POINT('',(2.00975863027507,5.41681189051782,0.));
#484=CARTESIAN_POINT('',(2.41458588735016,5.0420724340557,0.));
#485=CARTESIAN_POINT('',(2.63419272629202,4.87692108242229,0.));
#486=CARTESIAN_POINT('',(3.09723156993705,4.59230872554574,0.));
#487=CARTESIAN_POINT('',(3.34183195097647,4.47179987816429,0.));
#488=CARTESIAN_POINT('',(4.11408843501842,4.17435302491119,0.));
#489=CARTESIAN_POINT('',(4.65034893849636,4.06995673562253,0.));
#490=CARTESIAN_POINT('',(5.75463405899294,4.04243328074277,0.));
#491=CARTESIAN_POINT('',(0.,0.,0.));
#492=CARTESIAN_POINT('',(7.85676268273931,0.,0.));
#493=CARTESIAN_POINT('',(7.85676268273931,0.,11.5));
#494=CARTESIAN_POINT('',(7.85676268273931,0.,0.));
#495=CARTESIAN_POINT('',(57.3431457505076,0.,0.));
#496=CARTESIAN_POINT('',(57.3431457505076,0.,11.5));
#497=CARTESIAN_POINT('',(0.,0.,0.));
#498=CARTESIAN_POINT('',(60.1715728752538,0.,0.));
#499=CARTESIAN_POINT('',(60.1715728752538,0.,12.6715728752538));
#500=CARTESIAN_POINT('',(57.3431457505076,0.,0.));
#501=CARTESIAN_POINT('',(60.,0.,0.));
#502=CARTESIAN_POINT('',(60.,0.,12.5));
#503=CARTESIAN_POINT('',(60.,0.,0.));
#504=CARTESIAN_POINT('',(194.582179545096,0.,0.));
#505=CARTESIAN_POINT('',(194.582179545096,0.,12.5));
#506=CARTESIAN_POINT('',(0.,0.,0.));
#507=CARTESIAN_POINT('',(196.,0.,0.));
#508=CARTESIAN_POINT('',(196.,0.,12.25));
#509=CARTESIAN_POINT('',(196.,0.,0.));
#510=CARTESIAN_POINT('',(0.,0.,0.));
#511=(
GEOMETRIC_REPRESENTATION_CONTEXT(3)
GLOBAL_UNCERTAINTY_ASSIGNED_CONTEXT((#512))
GLOBAL_UNIT_ASSIGNED_CONTEXT((#518,#514,#513))
REPRESENTATION_CONTEXT('model1','TOP_LEVEL_ASSEMBLY_PART')
);
#512=UNCERTAINTY_MEASURE_WITH_UNIT(LENGTH_MEASURE(2.E-5),#518,
'DISTANCE_ACCURACY_VALUE','Maximum Tolerance applied to model');
#513=(
NAMED_UNIT(*)
SI_UNIT($,.STERADIAN.)
SOLID_ANGLE_UNIT()
);
#514=(
CONVERSION_BASED_UNIT('DEGREE',#516)
NAMED_UNIT(#515)
PLANE_ANGLE_UNIT()
);
#515=DIMENSIONAL_EXPONENTS(0.,0.,0.,0.,0.,0.,0.);
#516=PLANE_ANGLE_MEASURE_WITH_UNIT(PLANE_ANGLE_MEASURE(0.0174532925),#517);
#517=(
NAMED_UNIT(*)
PLANE_ANGLE_UNIT()
SI_UNIT($,.RADIAN.)
);
#518=(
LENGTH_UNIT()
NAMED_UNIT(*)
SI_UNIT(.MILLI.,.METRE.)
);
ENDSEC;
END-ISO-10303-21;
