ISO-10303-21;
HEADER;
/* Generated by software containing ST-Developer
 * from STEP Tools, Inc. (www.steptools.com) 
 */
/* OPTION: using custom schema-name function */

FILE_DESCRIPTION(
/* description */ (''),
/* implementation_level */ '2;1');

FILE_NAME(
/* name */ 'AEMR-RY10-D32-M16-L43-Z04-H.stp',
/* time_stamp */ '2023-10-21T12:47:55+03:00',
/* author */ (''),
/* organization */ (''),
/* preprocessor_version */ 'ST-DEVELOPER v19.4',
/* originating_system */ 'SIEMENS PLM Software NX2306.5001',
/* authorisation */ '');

FILE_SCHEMA (('AUTOMOTIVE_DESIGN { 1 0 10303 214 3 1 1 1 }'));
ENDSEC;

DATA;
#10=PROPERTY_DEFINITION_REPRESENTATION(#14,#12);
#11=PROPERTY_DEFINITION_REPRESENTATION(#15,#13);
#12=REPRESENTATION('',(#16),#492);
#13=REPRESENTATION('',(#17),#492);
#14=PROPERTY_DEFINITION('pmi validation property','',#21);
#15=PROPERTY_DEFINITION('pmi validation property','',#21);
#16=VALUE_REPRESENTATION_ITEM('number of annotations',COUNT_MEASURE(0.));
#17=VALUE_REPRESENTATION_ITEM('number of views',COUNT_MEASURE(0.));
#18=SHAPE_REPRESENTATION_RELATIONSHIP('None',
'relationship between AEMR-RY10-D32-M16-L43-Z04-H-LIGHT_x_t_objects-No
ne and AEMR-RY10-D32-M16-L43-Z04-H-LIGHT_x_t_objects-None',#30,#19);
#19=ADVANCED_BREP_SHAPE_REPRESENTATION(
'AEMR-RY10-D32-M16-L43-Z04-H-LIGHT_x_t_objects-None',(#49,#50),#492);
#20=SHAPE_DEFINITION_REPRESENTATION(#21,#30);
#21=PRODUCT_DEFINITION_SHAPE('','',#22);
#22=PRODUCT_DEFINITION(' ','',#24,#23);
#23=PRODUCT_DEFINITION_CONTEXT('part definition',#29,'design');
#24=PRODUCT_DEFINITION_FORMATION_WITH_SPECIFIED_SOURCE(' ',' ',#26,
 .NOT_KNOWN.);
#25=PRODUCT_RELATED_PRODUCT_CATEGORY('part','',(#26));
#26=PRODUCT('AEMR-RY10-D32-M16-L43-Z04-H-LIGHT_x_t_objects',
'AEMR-RY10-D32-M16-L43-Z04-H-LIGHT_x_t_objects',' ',(#27));
#27=PRODUCT_CONTEXT(' ',#29,'mechanical');
#28=APPLICATION_PROTOCOL_DEFINITION('international standard',
'automotive_design',2010,#29);
#29=APPLICATION_CONTEXT(
'core data for automotive mechanical design processes');
#30=SHAPE_REPRESENTATION(
'AEMR-RY10-D32-M16-L43-Z04-H-LIGHT_x_t_objects-None',(#232),#492);
#31=DRAUGHTING_PRE_DEFINED_COLOUR('yellow');
#32=(
BOUNDED_SURFACE()
B_SPLINE_SURFACE(3,3,((#442,#443,#444,#445,#446,#447,#448),(#449,#450,#451,
#452,#453,#454,#455),(#456,#457,#458,#459,#460,#461,#462),(#463,#464,#465,
#466,#467,#468,#469),(#470,#471,#472,#473,#474,#475,#476),(#477,#478,#479,
#480,#481,#482,#483),(#484,#485,#486,#487,#488,#489,#490)),
 .UNSPECIFIED.,.T.,.T.,.F.)
B_SPLINE_SURFACE_WITH_KNOTS((1,3,3,3,1),(1,3,3,3,1),(-0.5,0.,0.5,1.,1.5),
(-0.5,0.,0.5,1.,1.5),.UNSPECIFIED.)
GEOMETRIC_REPRESENTATION_ITEM()
RATIONAL_B_SPLINE_SURFACE(((1.,0.333333333333334,0.333333333333334,1.,0.333333333333334,
0.333333333333334,1.),(0.333333333333334,0.111111111111111,0.111111111111111,
0.333333333333334,0.111111111111111,0.111111111111111,0.333333333333334),
(0.333333333333334,0.111111111111111,0.111111111111111,0.333333333333334,
0.111111111111111,0.111111111111111,0.333333333333334),(1.,0.333333333333334,
0.333333333333334,1.,0.333333333333334,0.333333333333334,1.),(0.333333333333334,
0.111111111111111,0.111111111111111,0.333333333333334,0.111111111111111,
0.111111111111111,0.333333333333334),(0.333333333333334,0.111111111111111,
0.111111111111111,0.333333333333334,0.111111111111111,0.111111111111111,
0.333333333333334),(1.,0.333333333333334,0.333333333333334,1.,0.333333333333334,
0.333333333333334,1.)))
REPRESENTATION_ITEM('')
SURFACE()
);
#33=PRESENTATION_LAYER_ASSIGNMENT('1','Layer 1',(#49,#50));
#34=STYLED_ITEM('',(#36),#49);
#35=STYLED_ITEM('',(#37),#50);
#36=PRESENTATION_STYLE_ASSIGNMENT((#38));
#37=PRESENTATION_STYLE_ASSIGNMENT((#39));
#38=SURFACE_STYLE_USAGE(.BOTH.,#40);
#39=SURFACE_STYLE_USAGE(.BOTH.,#41);
#40=SURFACE_SIDE_STYLE('',(#42));
#41=SURFACE_SIDE_STYLE('',(#43));
#42=SURFACE_STYLE_FILL_AREA(#44);
#43=SURFACE_STYLE_FILL_AREA(#45);
#44=FILL_AREA_STYLE('',(#46));
#45=FILL_AREA_STYLE('',(#47));
#46=FILL_AREA_STYLE_COLOUR('',#48);
#47=FILL_AREA_STYLE_COLOUR('',#31);
#48=COLOUR_RGB('silver gray',0.6,0.6,0.6);
#49=MANIFOLD_SOLID_BREP('',#51);
#50=MANIFOLD_SOLID_BREP('',#52);
#51=CLOSED_SHELL('',(#69,#70,#71,#72,#73,#74,#75,#76,#77,#78,#79,#80,#81,
#82,#83,#84));
#52=CLOSED_SHELL('',(#85));
#53=FACE_OUTER_BOUND('',#142,.T.);
#54=FACE_OUTER_BOUND('',#143,.T.);
#55=SURFACE_OF_REVOLUTION('',#57,#56);
#56=AXIS1_PLACEMENT('',#428,#310);
#57=B_SPLINE_CURVE_WITH_KNOTS('',3,(#364,#365,#366,#367,#368,#369,#370,
#371,#372,#373,#374,#375,#376,#377,#378,#379,#380,#381,#382,#383,#384,#385,
#386,#387,#388,#389,#390,#391,#392,#393,#394,#395,#396,#397,#398,#399,#400,
#401,#402,#403,#404,#405,#406,#407,#408,#409,#410,#411,#412,#413,#414,#415,
#416,#417,#418,#419,#420,#421,#422,#423,#424,#425,#426,#427),
 .UNSPECIFIED.,.T.,.F.,(2,2,2,2,2,2,2,2,2,2,2,2,2,2,2,2,2,2,2,2,2,2,2,2,
2,2,2,2,2,2,2,2,2,2),(-0.03125,0.,0.0625,0.09375,0.125,0.15625,0.1875,0.21875,
0.25,0.28125,0.3125,0.34375,0.375,0.40625,0.4375,0.46875,0.5,0.53125,0.5625,
0.59375,0.625,0.65625,0.6875,0.71875,0.75,0.78125,0.8125,0.84375,0.875,
0.90625,0.9375,0.96875,1.,1.0625),.UNSPECIFIED.);
#58=PLANE('',#243);
#59=PLANE('',#255);
#60=PLANE('',#257);
#61=TOROIDAL_SURFACE('',#239,8.88,0.6);
#62=TOROIDAL_SURFACE('',#253,15.0000000000012,1.0000000000006);
#63=CONICAL_SURFACE('',#237,8.5,14.9999999999999);
#64=CONICAL_SURFACE('',#241,9.03529142706151,75.);
#65=CONICAL_SURFACE('',#245,14.,44.9999999999999);
#66=CONICAL_SURFACE('',#249,14.5,45.0000000000005);
#67=CONICAL_SURFACE('',#259,5.875,45.0000000000002);
#68=CONICAL_SURFACE('',#262,7.875,30.);
#69=ADVANCED_FACE('',(#90,#91),#86,.T.);
#70=ADVANCED_FACE('',(#92,#93),#63,.T.);
#71=ADVANCED_FACE('',(#94,#95),#61,.F.);
#72=ADVANCED_FACE('',(#96,#97),#64,.F.);
#73=ADVANCED_FACE('',(#98,#99),#58,.F.);
#74=ADVANCED_FACE('',(#100,#101),#65,.T.);
#75=ADVANCED_FACE('',(#102,#103),#87,.T.);
#76=ADVANCED_FACE('',(#104,#105),#66,.T.);
#77=ADVANCED_FACE('',(#106,#107),#88,.T.);
#78=ADVANCED_FACE('',(#108,#109),#62,.F.);
#79=ADVANCED_FACE('',(#110,#111),#55,.T.);
#80=ADVANCED_FACE('',(#53),#59,.F.);
#81=ADVANCED_FACE('',(#54),#60,.F.);
#82=ADVANCED_FACE('',(#112,#113),#67,.T.);
#83=ADVANCED_FACE('',(#114,#115),#89,.T.);
#84=ADVANCED_FACE('',(#116,#117),#68,.T.);
#85=ADVANCED_FACE('',(#118,#119),#32,.F.);
#86=CYLINDRICAL_SURFACE('',#235,8.5);
#87=CYLINDRICAL_SURFACE('',#247,14.5);
#88=CYLINDRICAL_SURFACE('',#251,14.);
#89=CYLINDRICAL_SURFACE('',#261,7.875);
#90=FACE_BOUND('',#120,.T.);
#91=FACE_BOUND('',#121,.T.);
#92=FACE_BOUND('',#122,.T.);
#93=FACE_BOUND('',#123,.T.);
#94=FACE_BOUND('',#124,.T.);
#95=FACE_BOUND('',#125,.T.);
#96=FACE_BOUND('',#126,.T.);
#97=FACE_BOUND('',#127,.T.);
#98=FACE_BOUND('',#128,.T.);
#99=FACE_BOUND('',#129,.T.);
#100=FACE_BOUND('',#130,.T.);
#101=FACE_BOUND('',#131,.T.);
#102=FACE_BOUND('',#132,.T.);
#103=FACE_BOUND('',#133,.T.);
#104=FACE_BOUND('',#134,.T.);
#105=FACE_BOUND('',#135,.T.);
#106=FACE_BOUND('',#136,.T.);
#107=FACE_BOUND('',#137,.T.);
#108=FACE_BOUND('',#138,.T.);
#109=FACE_BOUND('',#139,.T.);
#110=FACE_BOUND('',#140,.T.);
#111=FACE_BOUND('',#141,.T.);
#112=FACE_BOUND('',#144,.T.);
#113=FACE_BOUND('',#145,.T.);
#114=FACE_BOUND('',#146,.T.);
#115=FACE_BOUND('',#147,.T.);
#116=FACE_BOUND('',#148,.T.);
#117=FACE_BOUND('',#149,.T.);
#118=FACE_BOUND('',#150,.T.);
#119=FACE_BOUND('',#151,.T.);
#120=EDGE_LOOP('',(#152));
#121=EDGE_LOOP('',(#153));
#122=EDGE_LOOP('',(#154));
#123=EDGE_LOOP('',(#155));
#124=EDGE_LOOP('',(#156));
#125=EDGE_LOOP('',(#157));
#126=EDGE_LOOP('',(#158));
#127=EDGE_LOOP('',(#159));
#128=EDGE_LOOP('',(#160));
#129=EDGE_LOOP('',(#161));
#130=EDGE_LOOP('',(#162));
#131=EDGE_LOOP('',(#163));
#132=EDGE_LOOP('',(#164));
#133=EDGE_LOOP('',(#165));
#134=EDGE_LOOP('',(#166));
#135=EDGE_LOOP('',(#167));
#136=EDGE_LOOP('',(#168));
#137=EDGE_LOOP('',(#169));
#138=EDGE_LOOP('',(#170));
#139=EDGE_LOOP('',(#171));
#140=EDGE_LOOP('',(#172));
#141=EDGE_LOOP('',(#173));
#142=EDGE_LOOP('',(#174));
#143=EDGE_LOOP('',(#175));
#144=EDGE_LOOP('',(#176));
#145=EDGE_LOOP('',(#177));
#146=EDGE_LOOP('',(#178));
#147=EDGE_LOOP('',(#179));
#148=EDGE_LOOP('',(#180));
#149=EDGE_LOOP('',(#181));
#150=EDGE_LOOP('',(#182));
#151=EDGE_LOOP('',(#183));
#152=ORIENTED_EDGE('',*,*,#200,.F.);
#153=ORIENTED_EDGE('',*,*,#201,.T.);
#154=ORIENTED_EDGE('',*,*,#202,.F.);
#155=ORIENTED_EDGE('',*,*,#200,.T.);
#156=ORIENTED_EDGE('',*,*,#203,.F.);
#157=ORIENTED_EDGE('',*,*,#202,.T.);
#158=ORIENTED_EDGE('',*,*,#204,.F.);
#159=ORIENTED_EDGE('',*,*,#203,.T.);
#160=ORIENTED_EDGE('',*,*,#205,.F.);
#161=ORIENTED_EDGE('',*,*,#204,.T.);
#162=ORIENTED_EDGE('',*,*,#206,.F.);
#163=ORIENTED_EDGE('',*,*,#205,.T.);
#164=ORIENTED_EDGE('',*,*,#207,.F.);
#165=ORIENTED_EDGE('',*,*,#206,.T.);
#166=ORIENTED_EDGE('',*,*,#208,.F.);
#167=ORIENTED_EDGE('',*,*,#207,.T.);
#168=ORIENTED_EDGE('',*,*,#209,.F.);
#169=ORIENTED_EDGE('',*,*,#208,.T.);
#170=ORIENTED_EDGE('',*,*,#210,.F.);
#171=ORIENTED_EDGE('',*,*,#209,.T.);
#172=ORIENTED_EDGE('',*,*,#211,.F.);
#173=ORIENTED_EDGE('',*,*,#210,.T.);
#174=ORIENTED_EDGE('',*,*,#211,.T.);
#175=ORIENTED_EDGE('',*,*,#212,.F.);
#176=ORIENTED_EDGE('',*,*,#213,.F.);
#177=ORIENTED_EDGE('',*,*,#212,.T.);
#178=ORIENTED_EDGE('',*,*,#214,.F.);
#179=ORIENTED_EDGE('',*,*,#213,.T.);
#180=ORIENTED_EDGE('',*,*,#201,.F.);
#181=ORIENTED_EDGE('',*,*,#214,.T.);
#182=ORIENTED_EDGE('',*,*,#215,.T.);
#183=ORIENTED_EDGE('',*,*,#215,.F.);
#184=VERTEX_POINT('',#331);
#185=VERTEX_POINT('',#333);
#186=VERTEX_POINT('',#336);
#187=VERTEX_POINT('',#339);
#188=VERTEX_POINT('',#342);
#189=VERTEX_POINT('',#345);
#190=VERTEX_POINT('',#348);
#191=VERTEX_POINT('',#351);
#192=VERTEX_POINT('',#354);
#193=VERTEX_POINT('',#357);
#194=VERTEX_POINT('',#360);
#195=VERTEX_POINT('',#363);
#196=VERTEX_POINT('',#431);
#197=VERTEX_POINT('',#434);
#198=VERTEX_POINT('',#437);
#199=VERTEX_POINT('',#441);
#200=EDGE_CURVE('',#184,#184,#216,.T.);
#201=EDGE_CURVE('',#185,#185,#217,.T.);
#202=EDGE_CURVE('',#186,#186,#218,.T.);
#203=EDGE_CURVE('',#187,#187,#219,.T.);
#204=EDGE_CURVE('',#188,#188,#220,.T.);
#205=EDGE_CURVE('',#189,#189,#221,.T.);
#206=EDGE_CURVE('',#190,#190,#222,.T.);
#207=EDGE_CURVE('',#191,#191,#223,.T.);
#208=EDGE_CURVE('',#192,#192,#224,.T.);
#209=EDGE_CURVE('',#193,#193,#225,.T.);
#210=EDGE_CURVE('',#194,#194,#226,.T.);
#211=EDGE_CURVE('',#195,#195,#227,.T.);
#212=EDGE_CURVE('',#196,#196,#228,.T.);
#213=EDGE_CURVE('',#197,#197,#229,.T.);
#214=EDGE_CURVE('',#198,#198,#230,.T.);
#215=EDGE_CURVE('',#199,#199,#231,.T.);
#216=CIRCLE('',#233,8.5);
#217=CIRCLE('',#234,8.5);
#218=CIRCLE('',#236,8.30044450422656);
#219=CIRCLE('',#238,9.03529142706151);
#220=CIRCLE('',#240,9.78004267621759);
#221=CIRCLE('',#242,14.);
#222=CIRCLE('',#244,14.5);
#223=CIRCLE('',#246,14.5);
#224=CIRCLE('',#248,14.);
#225=CIRCLE('',#250,14.);
#226=CIRCLE('',#252,14.1072786233272);
#227=CIRCLE('',#254,7.23626460148642);
#228=CIRCLE('',#256,5.875);
#229=CIRCLE('',#258,7.875);
#230=CIRCLE('',#260,7.875);
#231=CIRCLE('',#263,5.);
#232=AXIS2_PLACEMENT_3D('',#329,#264,#265);
#233=AXIS2_PLACEMENT_3D('',#330,#266,#267);
#234=AXIS2_PLACEMENT_3D('',#332,#268,#269);
#235=AXIS2_PLACEMENT_3D('',#334,#270,#271);
#236=AXIS2_PLACEMENT_3D('',#335,#272,#273);
#237=AXIS2_PLACEMENT_3D('',#337,#274,#275);
#238=AXIS2_PLACEMENT_3D('',#338,#276,#277);
#239=AXIS2_PLACEMENT_3D('',#340,#278,#279);
#240=AXIS2_PLACEMENT_3D('',#341,#280,#281);
#241=AXIS2_PLACEMENT_3D('',#343,#282,#283);
#242=AXIS2_PLACEMENT_3D('',#344,#284,#285);
#243=AXIS2_PLACEMENT_3D('',#346,#286,#287);
#244=AXIS2_PLACEMENT_3D('',#347,#288,#289);
#245=AXIS2_PLACEMENT_3D('',#349,#290,#291);
#246=AXIS2_PLACEMENT_3D('',#350,#292,#293);
#247=AXIS2_PLACEMENT_3D('',#352,#294,#295);
#248=AXIS2_PLACEMENT_3D('',#353,#296,#297);
#249=AXIS2_PLACEMENT_3D('',#355,#298,#299);
#250=AXIS2_PLACEMENT_3D('',#356,#300,#301);
#251=AXIS2_PLACEMENT_3D('',#358,#302,#303);
#252=AXIS2_PLACEMENT_3D('',#359,#304,#305);
#253=AXIS2_PLACEMENT_3D('',#361,#306,#307);
#254=AXIS2_PLACEMENT_3D('',#362,#308,#309);
#255=AXIS2_PLACEMENT_3D('',#429,#311,#312);
#256=AXIS2_PLACEMENT_3D('',#430,#313,#314);
#257=AXIS2_PLACEMENT_3D('',#432,#315,#316);
#258=AXIS2_PLACEMENT_3D('',#433,#317,#318);
#259=AXIS2_PLACEMENT_3D('',#435,#319,#320);
#260=AXIS2_PLACEMENT_3D('',#436,#321,#322);
#261=AXIS2_PLACEMENT_3D('',#438,#323,#324);
#262=AXIS2_PLACEMENT_3D('',#439,#325,#326);
#263=AXIS2_PLACEMENT_3D('',#440,#327,#328);
#264=DIRECTION('',(0.,0.,1.));
#265=DIRECTION('',(1.,0.,0.));
#266=DIRECTION('',(-1.,0.,0.));
#267=DIRECTION('',(0.,0.,1.));
#268=DIRECTION('',(-1.,0.,0.));
#269=DIRECTION('',(0.,0.,1.));
#270=DIRECTION('',(-1.,0.,0.));
#271=DIRECTION('',(0.,0.,1.));
#272=DIRECTION('',(-1.,0.,0.));
#273=DIRECTION('',(0.,0.,1.));
#274=DIRECTION('',(1.,0.,0.));
#275=DIRECTION('',(-2.00800554861772E-16,0.,-1.));
#276=DIRECTION('',(-1.,0.,0.));
#277=DIRECTION('',(0.,0.,1.));
#278=DIRECTION('',(-1.,0.,0.));
#279=DIRECTION('',(0.,0.,1.));
#280=DIRECTION('',(-1.,0.,0.));
#281=DIRECTION('',(0.,0.,1.));
#282=DIRECTION('',(1.,0.,0.));
#283=DIRECTION('',(-1.66930253628554E-17,0.,-1.));
#284=DIRECTION('',(-1.,0.,0.));
#285=DIRECTION('',(0.,0.,1.));
#286=DIRECTION('',(-1.,0.,0.));
#287=DIRECTION('',(0.,0.,1.));
#288=DIRECTION('',(-1.,0.,0.));
#289=DIRECTION('',(0.,0.,1.));
#290=DIRECTION('',(-1.,0.,0.));
#291=DIRECTION('',(4.10585438101021E-17,0.,1.));
#292=DIRECTION('',(-1.,0.,0.));
#293=DIRECTION('',(0.,0.,1.));
#294=DIRECTION('',(-1.,0.,0.));
#295=DIRECTION('',(0.,0.,1.));
#296=DIRECTION('',(-1.,0.,0.));
#297=DIRECTION('',(0.,0.,1.));
#298=DIRECTION('',(1.,0.,0.));
#299=DIRECTION('',(-2.05191539790255E-17,0.,-1.));
#300=DIRECTION('',(-1.,0.,0.));
#301=DIRECTION('',(0.,0.,1.));
#302=DIRECTION('',(-1.,0.,0.));
#303=DIRECTION('',(0.,0.,1.));
#304=DIRECTION('',(-1.,0.,0.));
#305=DIRECTION('',(0.,0.,1.));
#306=DIRECTION('',(-1.,0.,0.));
#307=DIRECTION('',(0.,0.,1.));
#308=DIRECTION('',(-1.,0.,0.));
#309=DIRECTION('',(0.,0.,1.));
#310=DIRECTION('',(-1.,0.,0.));
#311=DIRECTION('',(1.,0.,0.));
#312=DIRECTION('',(0.,0.,-1.));
#313=DIRECTION('',(-1.,0.,0.));
#314=DIRECTION('',(0.,0.,1.));
#315=DIRECTION('',(-1.,0.,0.));
#316=DIRECTION('',(0.,0.,1.));
#317=DIRECTION('',(-1.,0.,0.));
#318=DIRECTION('',(0.,0.,1.));
#319=DIRECTION('',(-1.,0.,0.));
#320=DIRECTION('',(5.51869280290865E-17,0.,1.));
#321=DIRECTION('',(-1.,0.,0.));
#322=DIRECTION('',(0.,0.,1.));
#323=DIRECTION('',(-1.,0.,0.));
#324=DIRECTION('',(0.,0.,1.));
#325=DIRECTION('',(-1.,0.,0.));
#326=DIRECTION('',(7.11407480423632E-17,0.,1.));
#327=DIRECTION('',(-0.0523359562429439,-0.156220077042707,0.98633474805104));
#328=DIRECTION('',(0.,-0.987688340595138,-0.156434465040231));
#329=CARTESIAN_POINT('',(0.,0.,0.));
#330=CARTESIAN_POINT('',(44.2800426762176,0.,0.));
#331=CARTESIAN_POINT('',(44.2800426762176,0.,8.5));
#332=CARTESIAN_POINT('',(50.,0.,0.));
#333=CARTESIAN_POINT('',(50.,0.,8.5));
#334=CARTESIAN_POINT('',(0.,0.,0.));
#335=CARTESIAN_POINT('',(43.5352914270615,0.,0.));
#336=CARTESIAN_POINT('',(43.5352914270615,0.,8.30044450422656));
#337=CARTESIAN_POINT('',(44.2800426762176,0.,0.));
#338=CARTESIAN_POINT('',(42.8004445042265,0.,0.));
#339=CARTESIAN_POINT('',(42.8004445042265,0.,9.03529142706151));
#340=CARTESIAN_POINT('',(43.38,0.,0.));
#341=CARTESIAN_POINT('',(43.,0.,0.));
#342=CARTESIAN_POINT('',(43.,0.,9.78004267621759));
#343=CARTESIAN_POINT('',(42.8004445042265,0.,0.));
#344=CARTESIAN_POINT('',(43.,0.,0.));
#345=CARTESIAN_POINT('',(43.,0.,14.));
#346=CARTESIAN_POINT('',(43.,14.,0.));
#347=CARTESIAN_POINT('',(42.5,0.,0.));
#348=CARTESIAN_POINT('',(42.5,0.,14.5));
#349=CARTESIAN_POINT('',(43.,0.,0.));
#350=CARTESIAN_POINT('',(38.5,0.,0.));
#351=CARTESIAN_POINT('',(38.5,0.,14.5));
#352=CARTESIAN_POINT('',(0.,0.,0.));
#353=CARTESIAN_POINT('',(38.,0.,0.));
#354=CARTESIAN_POINT('',(38.,0.,14.));
#355=CARTESIAN_POINT('',(38.5,0.,0.));
#356=CARTESIAN_POINT('',(8.34922440813046,0.,0.));
#357=CARTESIAN_POINT('',(8.34922440813046,0.,14.));
#358=CARTESIAN_POINT('',(0.,0.,0.));
#359=CARTESIAN_POINT('',(7.89861532740536,0.,0.));
#360=CARTESIAN_POINT('',(7.89861532740536,0.,14.1072786233272));
#361=CARTESIAN_POINT('',(8.34922440812887,0.,0.));
#362=CARTESIAN_POINT('',(2.99999999998402,0.,0.));
#363=CARTESIAN_POINT('',(2.99999999998402,0.,7.23626460148642));
#364=CARTESIAN_POINT('',(4.92192598986969,6.6140082155858,0.));
#365=CARTESIAN_POINT('',(5.76362251649457,6.60575785799831,0.));
#366=CARTESIAN_POINT('',(6.32237954186586,6.71095343670131,0.));
#367=CARTESIAN_POINT('',(7.09318474266841,7.02023762098373,0.));
#368=CARTESIAN_POINT('',(7.34323125343209,7.15043113841161,0.));
#369=CARTESIAN_POINT('',(7.80887170273014,7.45586251474362,0.));
#370=CARTESIAN_POINT('',(8.02399520657747,7.62989886410225,0.));
#371=CARTESIAN_POINT('',(8.41898642696731,8.02044704201307,0.));
#372=CARTESIAN_POINT('',(8.59911344241998,8.23849143769377,0.));
#373=CARTESIAN_POINT('',(8.90755877233677,8.69866872954819,0.));
#374=CARTESIAN_POINT('',(9.03830822951364,8.94278724479775,0.));
#375=CARTESIAN_POINT('',(9.25169917855436,9.45977826891319,0.));
#376=CARTESIAN_POINT('',(9.33186022828583,9.7276178352272,0.));
#377=CARTESIAN_POINT('',(9.43788366596627,10.2705697154117,0.));
#378=CARTESIAN_POINT('',(9.46439716957983,10.5497624319021,0.));
#379=CARTESIAN_POINT('',(9.46171879655552,11.1081661332152,0.));
#380=CARTESIAN_POINT('',(9.43305796104505,11.3834760520176,0.));
#381=CARTESIAN_POINT('',(9.32256397342506,11.9265215652197,0.));
#382=CARTESIAN_POINT('',(9.23930358509271,12.1968042503822,0.));
#383=CARTESIAN_POINT('',(9.02468973703077,12.7087898888279,0.));
#384=CARTESIAN_POINT('',(8.89351617001589,12.9523507093359,0.));
#385=CARTESIAN_POINT('',(8.58315251494794,13.4144608173835,0.));
#386=CARTESIAN_POINT('',(8.40376304044465,13.6319771482843,0.));
#387=CARTESIAN_POINT('',(8.01188067103371,14.0228937583309,0.));
#388=CARTESIAN_POINT('',(7.79776953961008,14.1989588049786,0.));
#389=CARTESIAN_POINT('',(7.33179105406793,14.5107906963379,0.));
#390=CARTESIAN_POINT('',(7.08672304855146,14.6418893120717,0.));
#391=CARTESIAN_POINT('',(6.5759742673249,14.8549374518591,0.));
#392=CARTESIAN_POINT('',(6.30701009569386,14.9376536788209,0.));
#393=CARTESIAN_POINT('',(5.76076456474266,15.0484165550581,0.));
#394=CARTESIAN_POINT('',(5.4854842957391,15.0767217996973,0.));
#395=CARTESIAN_POINT('',(4.93066063872381,15.0798310855737,0.));
#396=CARTESIAN_POINT('',(4.64899574483374,15.053759042706,0.));
#397=CARTESIAN_POINT('',(4.10444361677825,14.9488564709312,0.));
#398=CARTESIAN_POINT('',(3.83897681658015,14.8704367779272,0.));
#399=CARTESIAN_POINT('',(3.32194968019192,14.6605624783152,0.));
#400=CARTESIAN_POINT('',(3.07342174424989,14.5297258630394,0.));
#401=CARTESIAN_POINT('',(2.61118836194493,14.2254193600158,0.));
#402=CARTESIAN_POINT('',(2.39393520970535,14.0499235317975,0.));
#403=CARTESIAN_POINT('',(1.99580592867734,13.6567083050616,0.));
#404=CARTESIAN_POINT('',(1.81898735039371,13.4434382504386,0.));
#405=CARTESIAN_POINT('',(1.5086599512303,12.9844588590836,0.));
#406=CARTESIAN_POINT('',(1.37419921126495,12.7357769074627,0.));
#407=CARTESIAN_POINT('',(1.15987900844441,12.2231760103549,0.));
#408=CARTESIAN_POINT('',(1.07880347542261,11.958620936326,0.));
#409=CARTESIAN_POINT('',(0.969218474037694,11.4128759269973,0.));
#410=CARTESIAN_POINT('',(0.941598565348077,11.1321515662968,0.));
#411=CARTESIAN_POINT('',(0.94215832093203,10.5786054249014,0.));
#412=CARTESIAN_POINT('',(0.969556991789404,10.3026843434503,0.));
#413=CARTESIAN_POINT('',(1.08082033367079,9.75261616897104,0.));
#414=CARTESIAN_POINT('',(1.16285438576445,9.48763338539145,0.));
#415=CARTESIAN_POINT('',(1.37716441671807,8.97749865171142,0.));
#416=CARTESIAN_POINT('',(1.51131274389734,8.72973504667217,0.));
#417=CARTESIAN_POINT('',(1.82367541073929,8.26864223087039,0.));
#418=CARTESIAN_POINT('',(2.00053607081851,8.05601831519765,0.));
#419=CARTESIAN_POINT('',(2.39475635853204,7.66587039030698,0.));
#420=CARTESIAN_POINT('',(2.6142707089945,7.48746851101626,0.));
#421=CARTESIAN_POINT('',(3.07634850767261,7.18099687959638,0.));
#422=CARTESIAN_POINT('',(3.32047288156206,7.05082476291642,0.));
#423=CARTESIAN_POINT('',(3.83511367739922,6.83699762382442,0.));
#424=CARTESIAN_POINT('',(4.10413026259459,6.75464627913615,0.));
#425=CARTESIAN_POINT('',(4.64623250441717,6.64374471272048,0.));
#426=CARTESIAN_POINT('',(4.92192598986969,6.6140082155858,0.));
#427=CARTESIAN_POINT('',(5.76362251649457,6.60575785799831,0.));
#428=CARTESIAN_POINT('',(0.,0.,0.));
#429=CARTESIAN_POINT('',(2.99999999999202,7.23626460147677,0.));
#430=CARTESIAN_POINT('',(68.,0.,0.));
#431=CARTESIAN_POINT('',(68.,0.,5.875));
#432=CARTESIAN_POINT('',(68.,5.875,0.));
#433=CARTESIAN_POINT('',(66.,0.,0.));
#434=CARTESIAN_POINT('',(66.,0.,7.875));
#435=CARTESIAN_POINT('',(68.,0.,0.));
#436=CARTESIAN_POINT('',(51.0825317547305,0.,0.));
#437=CARTESIAN_POINT('',(51.0825317547305,0.,7.875));
#438=CARTESIAN_POINT('',(0.,0.,0.));
#439=CARTESIAN_POINT('',(51.0825317547305,0.,0.));
#440=CARTESIAN_POINT('',(4.99314767377287,-11.0600114336105,1.04063039407642));
#441=CARTESIAN_POINT('',(4.99314767377287,-15.9984531365862,0.258458068875265));
#442=CARTESIAN_POINT('',(4.99314767377287,-15.9984531365862,0.258458068875263));
#443=CARTESIAN_POINT('',(4.99314767377287,-16.5153692743367,-31.7384482042971));
#444=CARTESIAN_POINT('',(4.99314767377287,15.4815369988357,-32.2553643420476));
#445=CARTESIAN_POINT('',(4.99314767377287,15.9984531365862,-0.258458068875263));
#446=CARTESIAN_POINT('',(4.99314767377287,16.5153692743367,31.7384482042971));
#447=CARTESIAN_POINT('',(4.99314767377287,-15.4815369988357,32.2553643420476));
#448=CARTESIAN_POINT('',(4.99314767377287,-15.9984531365862,0.258458068875263));
#449=CARTESIAN_POINT('',(14.9794430213186,-16.0803246097585,0.775374206625793));
#450=CARTESIAN_POINT('',(14.9794430213186,-17.6310730230101,-31.3852750128913));
#451=CARTESIAN_POINT('',(14.9794430213186,14.5295761965069,-32.9360234261429));
#452=CARTESIAN_POINT('',(14.9794430213186,16.0803246097585,-0.775374206625793));
#453=CARTESIAN_POINT('',(14.9794430213186,17.6310730230101,31.3852750128913));
#454=CARTESIAN_POINT('',(14.9794430213186,-14.5295761965069,32.9360234261429));
#455=CARTESIAN_POINT('',(14.9794430213186,-16.0803246097585,0.775374206625793));
#456=CARTESIAN_POINT('',(14.9794430213186,-6.20344120380714,2.33971885702811));
#457=CARTESIAN_POINT('',(14.9794430213186,-10.8828789178633,-10.0671635505862));
#458=CARTESIAN_POINT('',(14.9794430213186,1.52400348975093,-14.7466012646424));
#459=CARTESIAN_POINT('',(14.9794430213186,6.20344120380714,-2.33971885702811));
#460=CARTESIAN_POINT('',(14.9794430213186,10.8828789178633,10.0671635505862));
#461=CARTESIAN_POINT('',(14.9794430213186,-1.52400348975093,14.7466012646424));
#462=CARTESIAN_POINT('',(14.9794430213186,-6.20344120380714,2.33971885702811));
#463=CARTESIAN_POINT('',(4.99314767377287,-6.12156973063479,1.82280271927758));
#464=CARTESIAN_POINT('',(4.99314767377287,-9.76717516918994,-10.420336741992));
#465=CARTESIAN_POINT('',(4.99314767377287,2.47596429207964,-14.0659421805472));
#466=CARTESIAN_POINT('',(4.99314767377287,6.12156973063479,-1.82280271927758));
#467=CARTESIAN_POINT('',(4.99314767377287,9.76717516918994,10.420336741992));
#468=CARTESIAN_POINT('',(4.99314767377287,-2.47596429207964,14.0659421805472));
#469=CARTESIAN_POINT('',(4.99314767377287,-6.12156973063479,1.82280271927758));
#470=CARTESIAN_POINT('',(-4.99314767377287,-6.03969825746245,1.30588658152705));
#471=CARTESIAN_POINT('',(-4.99314767377288,-8.65147142051656,-10.7735099333979));
#472=CARTESIAN_POINT('',(-4.99314767377288,3.42792509440836,-13.385283096452));
#473=CARTESIAN_POINT('',(-4.99314767377287,6.03969825746245,-1.30588658152705));
#474=CARTESIAN_POINT('',(-4.99314767377288,8.65147142051656,10.7735099333979));
#475=CARTESIAN_POINT('',(-4.99314767377288,-3.42792509440836,13.385283096452));
#476=CARTESIAN_POINT('',(-4.99314767377287,-6.03969825746245,1.30588658152705));
#477=CARTESIAN_POINT('',(-4.99314767377287,-15.9165816634138,-0.258458068875267));
#478=CARTESIAN_POINT('',(-4.99314767377288,-15.3996655256633,-32.091621395703));
#479=CARTESIAN_POINT('',(-4.99314767377288,16.4334978011644,-31.5747052579524));
#480=CARTESIAN_POINT('',(-4.99314767377287,15.9165816634138,0.258458068875267));
#481=CARTESIAN_POINT('',(-4.99314767377288,15.3996655256633,32.091621395703));
#482=CARTESIAN_POINT('',(-4.99314767377288,-16.4334978011644,31.5747052579524));
#483=CARTESIAN_POINT('',(-4.99314767377287,-15.9165816634138,-0.258458068875267));
#484=CARTESIAN_POINT('',(4.99314767377287,-15.9984531365862,0.258458068875263));
#485=CARTESIAN_POINT('',(4.99314767377287,-16.5153692743367,-31.7384482042971));
#486=CARTESIAN_POINT('',(4.99314767377287,15.4815369988357,-32.2553643420476));
#487=CARTESIAN_POINT('',(4.99314767377287,15.9984531365862,-0.258458068875263));
#488=CARTESIAN_POINT('',(4.99314767377287,16.5153692743367,31.7384482042971));
#489=CARTESIAN_POINT('',(4.99314767377287,-15.4815369988357,32.2553643420476));
#490=CARTESIAN_POINT('',(4.99314767377287,-15.9984531365862,0.258458068875263));
#491=MECHANICAL_DESIGN_GEOMETRIC_PRESENTATION_REPRESENTATION('',(#34,#35),
#492);
#492=(
GEOMETRIC_REPRESENTATION_CONTEXT(3)
GLOBAL_UNCERTAINTY_ASSIGNED_CONTEXT((#493))
GLOBAL_UNIT_ASSIGNED_CONTEXT((#499,#495,#494))
REPRESENTATION_CONTEXT('AEMR-RY10-D32-M16-L43-Z04-H',
'TOP_LEVEL_ASSEMBLY_PART')
);
#493=UNCERTAINTY_MEASURE_WITH_UNIT(LENGTH_MEASURE(2.E-5),#499,
'DISTANCE_ACCURACY_VALUE','Maximum Tolerance applied to model');
#494=(
NAMED_UNIT(*)
SI_UNIT($,.STERADIAN.)
SOLID_ANGLE_UNIT()
);
#495=(
CONVERSION_BASED_UNIT('DEGREE',#497)
NAMED_UNIT(#496)
PLANE_ANGLE_UNIT()
);
#496=DIMENSIONAL_EXPONENTS(0.,0.,0.,0.,0.,0.,0.);
#497=PLANE_ANGLE_MEASURE_WITH_UNIT(PLANE_ANGLE_MEASURE(0.0174532925),#498);
#498=(
NAMED_UNIT(*)
PLANE_ANGLE_UNIT()
SI_UNIT($,.RADIAN.)
);
#499=(
LENGTH_UNIT()
NAMED_UNIT(*)
SI_UNIT(.MILLI.,.METRE.)
);
ENDSEC;
END-ISO-10303-21;
