ISO-10303-21;
HEADER;
/* Generated by software containing ST-Developer
 * from STEP Tools, Inc. (www.steptools.com) 
 */
/* OPTION: using custom schema-name function */

FILE_DESCRIPTION(
/* description */ (''),
/* implementation_level */ '2;1');

FILE_NAME(
/* name */ 'model1.stp',
/* time_stamp */ '2023-11-06T18:34:07+03:00',
/* author */ (''),
/* organization */ (''),
/* preprocessor_version */ 'ST-DEVELOPER v19.4',
/* originating_system */ 'SIEMENS PLM Software NX2306.3001',
/* authorisation */ '');

FILE_SCHEMA (('AUTOMOTIVE_DESIGN { 1 0 10303 214 3 1 1 1 }'));
ENDSEC;

DATA;
#10=PROPERTY_DEFINITION_REPRESENTATION(#14,#12);
#11=PROPERTY_DEFINITION_REPRESENTATION(#15,#13);
#12=REPRESENTATION('',(#16),#476);
#13=REPRESENTATION('',(#17),#476);
#14=PROPERTY_DEFINITION('pmi validation property','',#21);
#15=PROPERTY_DEFINITION('pmi validation property','',#21);
#16=VALUE_REPRESENTATION_ITEM('number of annotations',COUNT_MEASURE(0.));
#17=VALUE_REPRESENTATION_ITEM('number of views',COUNT_MEASURE(0.));
#18=SHAPE_REPRESENTATION_RELATIONSHIP('None',
'relationship between model1_objects-None and model1_objects-None',#30,
#19);
#19=ADVANCED_BREP_SHAPE_REPRESENTATION('model1_objects-None',(#147,#148),
#476);
#20=SHAPE_DEFINITION_REPRESENTATION(#21,#30);
#21=PRODUCT_DEFINITION_SHAPE('','',#22);
#22=PRODUCT_DEFINITION(' ','',#24,#23);
#23=PRODUCT_DEFINITION_CONTEXT('part definition',#29,'design');
#24=PRODUCT_DEFINITION_FORMATION_WITH_SPECIFIED_SOURCE(' ',' ',#26,
 .NOT_KNOWN.);
#25=PRODUCT_RELATED_PRODUCT_CATEGORY('part','',(#26));
#26=PRODUCT('model1_objects','model1_objects',' ',(#27));
#27=PRODUCT_CONTEXT(' ',#29,'mechanical');
#28=APPLICATION_PROTOCOL_DEFINITION('international standard',
'automotive_design',2010,#29);
#29=APPLICATION_CONTEXT(
'core data for automotive mechanical design processes');
#30=SHAPE_REPRESENTATION('model1_objects-None',(#282),#476);
#31=OVER_RIDING_STYLED_ITEM('',(#64),#153,#61);
#32=OVER_RIDING_STYLED_ITEM('',(#65),#154,#61);
#33=OVER_RIDING_STYLED_ITEM('',(#66),#155,#61);
#34=OVER_RIDING_STYLED_ITEM('',(#67),#156,#61);
#35=OVER_RIDING_STYLED_ITEM('',(#68),#157,#61);
#36=OVER_RIDING_STYLED_ITEM('',(#69),#158,#61);
#37=OVER_RIDING_STYLED_ITEM('',(#70),#159,#61);
#38=OVER_RIDING_STYLED_ITEM('',(#71),#160,#61);
#39=OVER_RIDING_STYLED_ITEM('',(#72),#161,#61);
#40=OVER_RIDING_STYLED_ITEM('',(#73),#162,#61);
#41=OVER_RIDING_STYLED_ITEM('',(#74),#163,#61);
#42=OVER_RIDING_STYLED_ITEM('',(#75),#164,#61);
#43=COLOUR_RGB('Medium Steel',0.611764705882353,0.658823529411765,0.670588235294118);
#44=COLOUR_RGB('silver gray',0.6,0.6,0.6);
#45=PLANE('',#300);
#46=PLANE('',#302);
#47=FACE_OUTER_BOUND('',#209,.T.);
#48=FACE_OUTER_BOUND('',#210,.T.);
#49=TOROIDAL_SURFACE('',#293,17.25,5.);
#50=TOROIDAL_SURFACE('',#297,10.6568919056189,4.6704784880476);
#51=TOROIDAL_SURFACE('',#299,5.16974705813918,1.);
#52=TOROIDAL_SURFACE('',#304,11.25,1.);
#53=CONICAL_SURFACE('',#289,12.5,44.9999999999996);
#54=CONICAL_SURFACE('',#295,12.4203708685546,14.9999999999996);
#55=CONICAL_SURFACE('',#307,12.25,9.99999999999998);
#56=CYLINDRICAL_SURFACE('',#287,12.5);
#57=CYLINDRICAL_SURFACE('',#291,12.25);
#58=CYLINDRICAL_SURFACE('',#306,12.25);
#59=PRESENTATION_LAYER_ASSIGNMENT('1','Layer 1',(#147,#148));
#60=STYLED_ITEM('',(#62),#147);
#61=STYLED_ITEM('',(#63),#148);
#62=PRESENTATION_STYLE_ASSIGNMENT((#76));
#63=PRESENTATION_STYLE_ASSIGNMENT((#77));
#64=PRESENTATION_STYLE_ASSIGNMENT((#78));
#65=PRESENTATION_STYLE_ASSIGNMENT((#79));
#66=PRESENTATION_STYLE_ASSIGNMENT((#80));
#67=PRESENTATION_STYLE_ASSIGNMENT((#81));
#68=PRESENTATION_STYLE_ASSIGNMENT((#82));
#69=PRESENTATION_STYLE_ASSIGNMENT((#83));
#70=PRESENTATION_STYLE_ASSIGNMENT((#84));
#71=PRESENTATION_STYLE_ASSIGNMENT((#85));
#72=PRESENTATION_STYLE_ASSIGNMENT((#86));
#73=PRESENTATION_STYLE_ASSIGNMENT((#87));
#74=PRESENTATION_STYLE_ASSIGNMENT((#88));
#75=PRESENTATION_STYLE_ASSIGNMENT((#89));
#76=SURFACE_STYLE_USAGE(.BOTH.,#90);
#77=SURFACE_STYLE_USAGE(.BOTH.,#91);
#78=SURFACE_STYLE_USAGE(.BOTH.,#92);
#79=SURFACE_STYLE_USAGE(.BOTH.,#93);
#80=SURFACE_STYLE_USAGE(.BOTH.,#94);
#81=SURFACE_STYLE_USAGE(.BOTH.,#95);
#82=SURFACE_STYLE_USAGE(.BOTH.,#96);
#83=SURFACE_STYLE_USAGE(.BOTH.,#97);
#84=SURFACE_STYLE_USAGE(.BOTH.,#98);
#85=SURFACE_STYLE_USAGE(.BOTH.,#99);
#86=SURFACE_STYLE_USAGE(.BOTH.,#100);
#87=SURFACE_STYLE_USAGE(.BOTH.,#101);
#88=SURFACE_STYLE_USAGE(.BOTH.,#102);
#89=SURFACE_STYLE_USAGE(.BOTH.,#103);
#90=SURFACE_SIDE_STYLE('',(#104));
#91=SURFACE_SIDE_STYLE('',(#105));
#92=SURFACE_SIDE_STYLE('',(#106));
#93=SURFACE_SIDE_STYLE('',(#107));
#94=SURFACE_SIDE_STYLE('',(#108));
#95=SURFACE_SIDE_STYLE('',(#109));
#96=SURFACE_SIDE_STYLE('',(#110));
#97=SURFACE_SIDE_STYLE('',(#111));
#98=SURFACE_SIDE_STYLE('',(#112));
#99=SURFACE_SIDE_STYLE('',(#113));
#100=SURFACE_SIDE_STYLE('',(#114));
#101=SURFACE_SIDE_STYLE('',(#115));
#102=SURFACE_SIDE_STYLE('',(#116));
#103=SURFACE_SIDE_STYLE('',(#117));
#104=SURFACE_STYLE_FILL_AREA(#118);
#105=SURFACE_STYLE_FILL_AREA(#119);
#106=SURFACE_STYLE_FILL_AREA(#120);
#107=SURFACE_STYLE_FILL_AREA(#121);
#108=SURFACE_STYLE_FILL_AREA(#122);
#109=SURFACE_STYLE_FILL_AREA(#123);
#110=SURFACE_STYLE_FILL_AREA(#124);
#111=SURFACE_STYLE_FILL_AREA(#125);
#112=SURFACE_STYLE_FILL_AREA(#126);
#113=SURFACE_STYLE_FILL_AREA(#127);
#114=SURFACE_STYLE_FILL_AREA(#128);
#115=SURFACE_STYLE_FILL_AREA(#129);
#116=SURFACE_STYLE_FILL_AREA(#130);
#117=SURFACE_STYLE_FILL_AREA(#131);
#118=FILL_AREA_STYLE('',(#132));
#119=FILL_AREA_STYLE('',(#133));
#120=FILL_AREA_STYLE('',(#134));
#121=FILL_AREA_STYLE('',(#135));
#122=FILL_AREA_STYLE('',(#136));
#123=FILL_AREA_STYLE('',(#137));
#124=FILL_AREA_STYLE('',(#138));
#125=FILL_AREA_STYLE('',(#139));
#126=FILL_AREA_STYLE('',(#140));
#127=FILL_AREA_STYLE('',(#141));
#128=FILL_AREA_STYLE('',(#142));
#129=FILL_AREA_STYLE('',(#143));
#130=FILL_AREA_STYLE('',(#144));
#131=FILL_AREA_STYLE('',(#145));
#132=FILL_AREA_STYLE_COLOUR('',#146);
#133=FILL_AREA_STYLE_COLOUR('',#43);
#134=FILL_AREA_STYLE_COLOUR('',#44);
#135=FILL_AREA_STYLE_COLOUR('',#44);
#136=FILL_AREA_STYLE_COLOUR('',#44);
#137=FILL_AREA_STYLE_COLOUR('',#44);
#138=FILL_AREA_STYLE_COLOUR('',#44);
#139=FILL_AREA_STYLE_COLOUR('',#44);
#140=FILL_AREA_STYLE_COLOUR('',#44);
#141=FILL_AREA_STYLE_COLOUR('',#44);
#142=FILL_AREA_STYLE_COLOUR('',#44);
#143=FILL_AREA_STYLE_COLOUR('',#44);
#144=FILL_AREA_STYLE_COLOUR('',#44);
#145=FILL_AREA_STYLE_COLOUR('',#44);
#146=DRAUGHTING_PRE_DEFINED_COLOUR('yellow');
#147=MANIFOLD_SOLID_BREP('',#149);
#148=MANIFOLD_SOLID_BREP('',#150);
#149=CLOSED_SHELL('',(#151,#152));
#150=CLOSED_SHELL('',(#153,#154,#155,#156,#157,#158,#159,#160,#161,#162,
#163,#164));
#151=ADVANCED_FACE('',(#167,#168),#165,.F.);
#152=ADVANCED_FACE('',(#169,#170),#166,.F.);
#153=ADVANCED_FACE('',(#171,#172),#56,.T.);
#154=ADVANCED_FACE('',(#173,#174),#53,.T.);
#155=ADVANCED_FACE('',(#175,#176),#57,.T.);
#156=ADVANCED_FACE('',(#177,#178),#49,.F.);
#157=ADVANCED_FACE('',(#179,#180),#54,.T.);
#158=ADVANCED_FACE('',(#181,#182),#50,.T.);
#159=ADVANCED_FACE('',(#183,#184),#51,.F.);
#160=ADVANCED_FACE('',(#47),#45,.F.);
#161=ADVANCED_FACE('',(#48),#46,.F.);
#162=ADVANCED_FACE('',(#185,#186),#52,.T.);
#163=ADVANCED_FACE('',(#187,#188),#58,.T.);
#164=ADVANCED_FACE('',(#189,#190),#55,.T.);
#165=(
BOUNDED_SURFACE()
B_SPLINE_SURFACE(3,3,((#365,#366,#367,#368,#369,#370,#371),(#372,#373,#374,
#375,#376,#377,#378),(#379,#380,#381,#382,#383,#384,#385),(#386,#387,#388,
#389,#390,#391,#392),(#393,#394,#395,#396,#397,#398,#399),(#400,#401,#402,
#403,#404,#405,#406),(#407,#408,#409,#410,#411,#412,#413)),
 .UNSPECIFIED.,.T.,.F.,.F.)
B_SPLINE_SURFACE_WITH_KNOTS((1,3,3,3,1),(4,3,4),(-0.5,0.,0.5,1.,1.5),(0.,
0.5,1.),.UNSPECIFIED.)
GEOMETRIC_REPRESENTATION_ITEM()
RATIONAL_B_SPLINE_SURFACE(((1.,0.591083418460556,0.591083418460556,1.,0.591083418460556,
0.591083418460556,1.),(0.333333333333334,0.197027806153519,0.197027806153519,
0.333333333333334,0.197027806153519,0.197027806153519,0.333333333333334),
(0.333333333333334,0.197027806153519,0.197027806153519,0.333333333333334,
0.197027806153519,0.197027806153519,0.333333333333334),(1.,0.591083418460556,
0.591083418460556,1.,0.591083418460556,0.591083418460556,1.),(0.333333333333334,
0.197027806153519,0.197027806153519,0.333333333333334,0.197027806153519,
0.197027806153519,0.333333333333334),(0.333333333333334,0.197027806153519,
0.197027806153519,0.333333333333334,0.197027806153519,0.197027806153519,
0.333333333333334),(1.,0.591083418460556,0.591083418460556,1.,0.591083418460556,
0.591083418460556,1.)))
REPRESENTATION_ITEM('')
SURFACE()
);
#166=(
BOUNDED_SURFACE()
B_SPLINE_SURFACE(3,3,((#414,#415,#416,#417),(#418,#419,#420,#421),(#422,
#423,#424,#425),(#426,#427,#428,#429),(#430,#431,#432,#433),(#434,#435,
#436,#437),(#438,#439,#440,#441)),.UNSPECIFIED.,.T.,.F.,.F.)
B_SPLINE_SURFACE_WITH_KNOTS((1,3,3,3,1),(4,4),(-0.5,0.,0.5,1.,1.5),(0.,
1.),.UNSPECIFIED.)
GEOMETRIC_REPRESENTATION_ITEM()
RATIONAL_B_SPLINE_SURFACE(((1.,0.800694680850728,0.800694680850728,1.),
(0.333333333333334,0.266898226950243,0.266898226950243,0.333333333333334),
(0.333333333333334,0.266898226950243,0.266898226950243,0.333333333333334),
(1.,0.800694680850728,0.800694680850728,1.),(0.333333333333334,0.266898226950243,
0.266898226950243,0.333333333333334),(0.333333333333334,0.266898226950243,
0.266898226950243,0.333333333333334),(1.,0.800694680850728,0.800694680850728,
1.)))
REPRESENTATION_ITEM('')
SURFACE()
);
#167=FACE_BOUND('',#191,.T.);
#168=FACE_BOUND('',#192,.T.);
#169=FACE_BOUND('',#193,.T.);
#170=FACE_BOUND('',#194,.T.);
#171=FACE_BOUND('',#195,.T.);
#172=FACE_BOUND('',#196,.T.);
#173=FACE_BOUND('',#197,.T.);
#174=FACE_BOUND('',#198,.T.);
#175=FACE_BOUND('',#199,.T.);
#176=FACE_BOUND('',#200,.T.);
#177=FACE_BOUND('',#201,.T.);
#178=FACE_BOUND('',#202,.T.);
#179=FACE_BOUND('',#203,.T.);
#180=FACE_BOUND('',#204,.T.);
#181=FACE_BOUND('',#205,.T.);
#182=FACE_BOUND('',#206,.T.);
#183=FACE_BOUND('',#207,.T.);
#184=FACE_BOUND('',#208,.T.);
#185=FACE_BOUND('',#211,.T.);
#186=FACE_BOUND('',#212,.T.);
#187=FACE_BOUND('',#213,.T.);
#188=FACE_BOUND('',#214,.T.);
#189=FACE_BOUND('',#215,.T.);
#190=FACE_BOUND('',#216,.T.);
#191=EDGE_LOOP('',(#217));
#192=EDGE_LOOP('',(#218));
#193=EDGE_LOOP('',(#219));
#194=EDGE_LOOP('',(#220));
#195=EDGE_LOOP('',(#221));
#196=EDGE_LOOP('',(#222));
#197=EDGE_LOOP('',(#223));
#198=EDGE_LOOP('',(#224));
#199=EDGE_LOOP('',(#225));
#200=EDGE_LOOP('',(#226));
#201=EDGE_LOOP('',(#227));
#202=EDGE_LOOP('',(#228));
#203=EDGE_LOOP('',(#229));
#204=EDGE_LOOP('',(#230));
#205=EDGE_LOOP('',(#231));
#206=EDGE_LOOP('',(#232));
#207=EDGE_LOOP('',(#233));
#208=EDGE_LOOP('',(#234));
#209=EDGE_LOOP('',(#235));
#210=EDGE_LOOP('',(#236));
#211=EDGE_LOOP('',(#237));
#212=EDGE_LOOP('',(#238));
#213=EDGE_LOOP('',(#239));
#214=EDGE_LOOP('',(#240));
#215=EDGE_LOOP('',(#241));
#216=EDGE_LOOP('',(#242));
#217=ORIENTED_EDGE('',*,*,#256,.T.);
#218=ORIENTED_EDGE('',*,*,#257,.F.);
#219=ORIENTED_EDGE('',*,*,#257,.T.);
#220=ORIENTED_EDGE('',*,*,#256,.F.);
#221=ORIENTED_EDGE('',*,*,#258,.F.);
#222=ORIENTED_EDGE('',*,*,#259,.T.);
#223=ORIENTED_EDGE('',*,*,#260,.F.);
#224=ORIENTED_EDGE('',*,*,#258,.T.);
#225=ORIENTED_EDGE('',*,*,#261,.F.);
#226=ORIENTED_EDGE('',*,*,#260,.T.);
#227=ORIENTED_EDGE('',*,*,#262,.F.);
#228=ORIENTED_EDGE('',*,*,#261,.T.);
#229=ORIENTED_EDGE('',*,*,#263,.F.);
#230=ORIENTED_EDGE('',*,*,#262,.T.);
#231=ORIENTED_EDGE('',*,*,#264,.F.);
#232=ORIENTED_EDGE('',*,*,#263,.T.);
#233=ORIENTED_EDGE('',*,*,#265,.F.);
#234=ORIENTED_EDGE('',*,*,#264,.T.);
#235=ORIENTED_EDGE('',*,*,#265,.T.);
#236=ORIENTED_EDGE('',*,*,#266,.F.);
#237=ORIENTED_EDGE('',*,*,#267,.F.);
#238=ORIENTED_EDGE('',*,*,#266,.T.);
#239=ORIENTED_EDGE('',*,*,#268,.F.);
#240=ORIENTED_EDGE('',*,*,#267,.T.);
#241=ORIENTED_EDGE('',*,*,#259,.F.);
#242=ORIENTED_EDGE('',*,*,#268,.T.);
#243=VERTEX_POINT('',#362);
#244=VERTEX_POINT('',#364);
#245=VERTEX_POINT('',#443);
#246=VERTEX_POINT('',#445);
#247=VERTEX_POINT('',#448);
#248=VERTEX_POINT('',#451);
#249=VERTEX_POINT('',#454);
#250=VERTEX_POINT('',#457);
#251=VERTEX_POINT('',#460);
#252=VERTEX_POINT('',#463);
#253=VERTEX_POINT('',#467);
#254=VERTEX_POINT('',#470);
#255=VERTEX_POINT('',#473);
#256=EDGE_CURVE('',#243,#243,#269,.T.);
#257=EDGE_CURVE('',#244,#244,#270,.T.);
#258=EDGE_CURVE('',#245,#245,#271,.T.);
#259=EDGE_CURVE('',#246,#246,#272,.T.);
#260=EDGE_CURVE('',#247,#247,#273,.T.);
#261=EDGE_CURVE('',#248,#248,#274,.T.);
#262=EDGE_CURVE('',#249,#249,#275,.T.);
#263=EDGE_CURVE('',#250,#250,#276,.T.);
#264=EDGE_CURVE('',#251,#251,#277,.T.);
#265=EDGE_CURVE('',#252,#252,#278,.T.);
#266=EDGE_CURVE('',#253,#253,#279,.T.);
#267=EDGE_CURVE('',#254,#254,#280,.T.);
#268=EDGE_CURVE('',#255,#255,#281,.T.);
#269=CIRCLE('',#283,6.);
#270=CIRCLE('',#284,6.);
#271=CIRCLE('',#285,12.5);
#272=CIRCLE('',#286,12.5);
#273=CIRCLE('',#288,12.25);
#274=CIRCLE('',#290,12.25);
#275=CIRCLE('',#292,12.4203708685546);
#276=CIRCLE('',#294,15.1682276983516);
#277=CIRCLE('',#296,6.13741581114578);
#278=CIRCLE('',#298,5.16974705813918);
#279=CIRCLE('',#301,11.25);
#280=CIRCLE('',#303,12.25);
#281=CIRCLE('',#305,12.25);
#282=AXIS2_PLACEMENT_3D('',#360,#308,#309);
#283=AXIS2_PLACEMENT_3D('',#361,#310,#311);
#284=AXIS2_PLACEMENT_3D('',#363,#312,#313);
#285=AXIS2_PLACEMENT_3D('',#442,#314,#315);
#286=AXIS2_PLACEMENT_3D('',#444,#316,#317);
#287=AXIS2_PLACEMENT_3D('',#446,#318,#319);
#288=AXIS2_PLACEMENT_3D('',#447,#320,#321);
#289=AXIS2_PLACEMENT_3D('',#449,#322,#323);
#290=AXIS2_PLACEMENT_3D('',#450,#324,#325);
#291=AXIS2_PLACEMENT_3D('',#452,#326,#327);
#292=AXIS2_PLACEMENT_3D('',#453,#328,#329);
#293=AXIS2_PLACEMENT_3D('',#455,#330,#331);
#294=AXIS2_PLACEMENT_3D('',#456,#332,#333);
#295=AXIS2_PLACEMENT_3D('',#458,#334,#335);
#296=AXIS2_PLACEMENT_3D('',#459,#336,#337);
#297=AXIS2_PLACEMENT_3D('',#461,#338,#339);
#298=AXIS2_PLACEMENT_3D('',#462,#340,#341);
#299=AXIS2_PLACEMENT_3D('',#464,#342,#343);
#300=AXIS2_PLACEMENT_3D('',#465,#344,#345);
#301=AXIS2_PLACEMENT_3D('',#466,#346,#347);
#302=AXIS2_PLACEMENT_3D('',#468,#348,#349);
#303=AXIS2_PLACEMENT_3D('',#469,#350,#351);
#304=AXIS2_PLACEMENT_3D('',#471,#352,#353);
#305=AXIS2_PLACEMENT_3D('',#472,#354,#355);
#306=AXIS2_PLACEMENT_3D('',#474,#356,#357);
#307=AXIS2_PLACEMENT_3D('',#475,#358,#359);
#308=DIRECTION('',(0.,0.,1.));
#309=DIRECTION('',(1.,0.,0.));
#310=DIRECTION('',(0.052335956242944,0.994796975922362,0.0874066609581902));
#311=DIRECTION('',(0.,-0.0875266131395478,0.996162181571013));
#312=DIRECTION('',(0.052335956242944,-0.104385210641588,0.993158937674856));
#313=DIRECTION('',(0.,-0.994521895368273,-0.104528463267654));
#314=DIRECTION('',(-1.,0.,0.));
#315=DIRECTION('',(0.,0.,1.));
#316=DIRECTION('',(-1.,0.,0.));
#317=DIRECTION('',(0.,0.,1.));
#318=DIRECTION('',(-1.,0.,0.));
#319=DIRECTION('',(0.,0.,1.));
#320=DIRECTION('',(-1.,0.,0.));
#321=DIRECTION('',(0.,0.,1.));
#322=DIRECTION('',(1.,0.,0.));
#323=DIRECTION('',(2.74129141882758E-17,0.,-1.));
#324=DIRECTION('',(-1.,0.,0.));
#325=DIRECTION('',(0.,0.,1.));
#326=DIRECTION('',(-1.,0.,0.));
#327=DIRECTION('',(0.,0.,1.));
#328=DIRECTION('',(-1.,0.,0.));
#329=DIRECTION('',(0.,0.,1.));
#330=DIRECTION('',(-1.,0.,0.));
#331=DIRECTION('',(0.,0.,1.));
#332=DIRECTION('',(-1.,0.,0.));
#333=DIRECTION('',(0.,0.,1.));
#334=DIRECTION('',(-1.,0.,0.));
#335=DIRECTION('',(1.23745491882988E-16,0.,1.));
#336=DIRECTION('',(-1.,0.,0.));
#337=DIRECTION('',(0.,0.,1.));
#338=DIRECTION('',(-1.,0.,0.));
#339=DIRECTION('',(0.,0.,1.));
#340=DIRECTION('',(-1.,0.,0.));
#341=DIRECTION('',(0.,0.,1.));
#342=DIRECTION('',(-1.,0.,0.));
#343=DIRECTION('',(0.,0.,1.));
#344=DIRECTION('',(1.,0.,0.));
#345=DIRECTION('',(0.,0.,-1.));
#346=DIRECTION('',(-1.,0.,0.));
#347=DIRECTION('',(0.,0.,1.));
#348=DIRECTION('',(-1.,0.,0.));
#349=DIRECTION('',(0.,0.,1.));
#350=DIRECTION('',(-1.,0.,0.));
#351=DIRECTION('',(0.,0.,1.));
#352=DIRECTION('',(-1.,0.,0.));
#353=DIRECTION('',(0.,0.,1.));
#354=DIRECTION('',(-1.,0.,0.));
#355=DIRECTION('',(0.,0.,1.));
#356=DIRECTION('',(-1.,0.,0.));
#357=DIRECTION('',(0.,0.,1.));
#358=DIRECTION('',(-1.,0.,0.));
#359=DIRECTION('',(1.47184324997431E-16,0.,1.));
#360=CARTESIAN_POINT('',(0.,0.,0.));
#361=CARTESIAN_POINT('',(5.99177720852744,0.486139246623555,10.0229148148856));
#362=CARTESIAN_POINT('',(5.99177720852744,-0.0390204322137318,15.9998879043116));
#363=CARTESIAN_POINT('',(5.99177720852744,-10.029756045312,0.314875253214061));
#364=CARTESIAN_POINT('',(5.99177720852744,-15.9968874175217,-0.312295526391861));
#365=CARTESIAN_POINT('',(5.99177720852744,-15.9968874175217,-0.312295526391861));
#366=CARTESIAN_POINT('',(5.99177720852744,-15.6720483531549,-16.951707565132));
#367=CARTESIAN_POINT('',(5.99177720852744,-0.200976631382655,-23.0853437780557));
#368=CARTESIAN_POINT('',(5.99177720852744,11.437194464139,-11.1887675073771));
#369=CARTESIAN_POINT('',(5.99177720852744,23.0753655596606,0.707808763301536));
#370=CARTESIAN_POINT('',(5.99177720852744,16.6035126096761,16.040475615695));
#371=CARTESIAN_POINT('',(5.99177720852744,-0.039020432213736,15.9998879043117));
#372=CARTESIAN_POINT('',(17.9753316255823,-15.9312402525651,-0.936886579175585));
#373=CARTESIAN_POINT('',(17.9753316255823,-14.9567230594646,-17.5080146950263));
#374=CARTESIAN_POINT('',(17.9753316255823,0.702556594315679,-23.0160934450345));
#375=CARTESIAN_POINT('',(17.9753316255823,11.8365813925937,-10.7040886292899));
#376=CARTESIAN_POINT('',(17.9753316255823,22.9706061908717,1.60791618645465));
#377=CARTESIAN_POINT('',(17.9753316255823,15.9207140557857,16.6362558044976));
#378=CARTESIAN_POINT('',(17.9753316255823,-0.664641636360651,15.9449184363673));
#379=CARTESIAN_POINT('',(17.9753316255823,-3.99697750814579,0.317454980036259));
#380=CARTESIAN_POINT('',(17.9753316255823,-4.32718325872121,-3.84006353789541));
#381=CARTESIAN_POINT('',(17.9753316255823,-0.620631859521667,-5.75199261339735));
#382=CARTESIAN_POINT('',(17.9753316255823,2.57566570707009,-3.07287374136919));
#383=CARTESIAN_POINT('',(17.9753316255823,5.77196327366185,-0.393754869341032));
#384=CARTESIAN_POINT('',(17.9753316255823,4.53694978410518,3.58980355815453));
#385=CARTESIAN_POINT('',(17.9753316255823,0.385677721313928,3.99097225751511));
#386=CARTESIAN_POINT('',(5.99177720852745,-4.06262467310241,0.942046032819983));
#387=CARTESIAN_POINT('',(5.99177720852744,-5.04250855241152,-3.28375640800108));
#388=CARTESIAN_POINT('',(5.99177720852744,-1.52416508522,-5.82124294641856));
#389=CARTESIAN_POINT('',(5.99177720852745,2.17627877861537,-3.55755261945635));
#390=CARTESIAN_POINT('',(5.99177720852744,5.87672264245075,-1.29386229249414));
#391=CARTESIAN_POINT('',(5.99177720852744,5.21974833799547,2.99402336935187));
#392=CARTESIAN_POINT('',(5.99177720852745,1.01129892546084,4.04594172545949));
#393=CARTESIAN_POINT('',(-5.99177720852745,-4.12827183805902,1.56663708560371));
#394=CARTESIAN_POINT('',(-5.99177720852744,-5.75783384610181,-2.72744927810674));
#395=CARTESIAN_POINT('',(-5.99177720852744,-2.42769831091833,-5.89049327943974));
#396=CARTESIAN_POINT('',(-5.99177720852745,1.77689185016065,-4.0422314975435));
#397=CARTESIAN_POINT('',(-5.99177720852744,5.98148201123962,-2.19396971564725));
#398=CARTESIAN_POINT('',(-5.99177720852744,5.90254689188572,2.3982431805492));
#399=CARTESIAN_POINT('',(-5.99177720852745,1.63692012960775,4.10091119340385));
#400=CARTESIAN_POINT('',(-5.99177720852745,-16.0625345824783,0.312295526391862));
#401=CARTESIAN_POINT('',(-5.99177720852744,-16.3873736468451,-16.3954004352376));
#402=CARTESIAN_POINT('',(-5.99177720852744,-1.10450985708099,-23.1545941110769));
#403=CARTESIAN_POINT('',(-5.99177720852745,11.0378075356843,-11.6734463854642));
#404=CARTESIAN_POINT('',(-5.99177720852744,23.1801249284495,-0.192298659851578));
#405=CARTESIAN_POINT('',(-5.99177720852744,17.2863111635663,15.4446954268923));
#406=CARTESIAN_POINT('',(-5.99177720852745,0.586600771933176,16.054857372256));
#407=CARTESIAN_POINT('',(5.99177720852744,-15.9968874175217,-0.312295526391861));
#408=CARTESIAN_POINT('',(5.99177720852744,-15.6720483531549,-16.951707565132));
#409=CARTESIAN_POINT('',(5.99177720852744,-0.200976631382655,-23.0853437780557));
#410=CARTESIAN_POINT('',(5.99177720852744,11.437194464139,-11.1887675073771));
#411=CARTESIAN_POINT('',(5.99177720852744,23.0753655596606,0.707808763301536));
#412=CARTESIAN_POINT('',(5.99177720852744,16.6035126096761,16.040475615695));
#413=CARTESIAN_POINT('',(5.99177720852744,-0.039020432213736,15.9998879043117));
#414=CARTESIAN_POINT('',(5.99177720852744,-0.0390204322137318,15.9998879043117));
#415=CARTESIAN_POINT('',(5.99177720852745,-9.53897072483212,15.9767194815925));
#416=CARTESIAN_POINT('',(5.99177720852745,-16.1823132151943,9.18587322403518));
#417=CARTESIAN_POINT('',(5.99177720852744,-15.9968874175217,-0.31229552639186));
#418=CARTESIAN_POINT('',(17.9753316255823,-0.664641636360645,15.9449184363673));
#419=CARTESIAN_POINT('',(17.9753316255823,-10.1319537494989,15.550286764846));
#420=CARTESIAN_POINT('',(17.9753316255823,-16.487517645583,8.52230409792564));
#421=CARTESIAN_POINT('',(17.9753316255823,-15.9312402525651,-0.936886579175584));
#422=CARTESIAN_POINT('',(17.9753316255823,0.385677721313928,3.99097225751511));
#423=CARTESIAN_POINT('',(17.9753316255823,-1.98396625946643,4.21996881070129));
#424=CARTESIAN_POINT('',(17.9753316255823,-3.80848827943838,2.69066458470269));
#425=CARTESIAN_POINT('',(17.9753316255823,-3.9969775081458,0.317454980036259));
#426=CARTESIAN_POINT('',(5.99177720852745,1.01129892546084,4.04594172545949));
#427=CARTESIAN_POINT('',(5.99177720852745,-1.39098323479967,4.64640152744769));
#428=CARTESIAN_POINT('',(5.99177720852745,-3.50328384904973,3.35423371081224));
#429=CARTESIAN_POINT('',(5.99177720852745,-4.06262467310241,0.942046032819984));
#430=CARTESIAN_POINT('',(-5.99177720852745,1.63692012960775,4.10091119340385));
#431=CARTESIAN_POINT('',(-5.99177720852744,-0.798000210132902,5.07283424419407));
#432=CARTESIAN_POINT('',(-5.99177720852744,-3.19807941866107,4.01780283692178));
#433=CARTESIAN_POINT('',(-5.99177720852745,-4.12827183805902,1.56663708560371));
#434=CARTESIAN_POINT('',(-5.99177720852745,0.586600771933182,16.054857372256));
#435=CARTESIAN_POINT('',(-5.99177720852744,-8.94598770016535,16.4031521983388));
#436=CARTESIAN_POINT('',(-5.99177720852744,-15.8771087848057,9.84944235014472));
#437=CARTESIAN_POINT('',(-5.99177720852745,-16.0625345824783,0.312295526391864));
#438=CARTESIAN_POINT('',(5.99177720852744,-0.0390204322137318,15.9998879043117));
#439=CARTESIAN_POINT('',(5.99177720852745,-9.53897072483212,15.9767194815925));
#440=CARTESIAN_POINT('',(5.99177720852745,-16.1823132151943,9.18587322403518));
#441=CARTESIAN_POINT('',(5.99177720852744,-15.9968874175217,-0.31229552639186));
#442=CARTESIAN_POINT('',(30.,0.,0.));
#443=CARTESIAN_POINT('',(30.,0.,12.5));
#444=CARTESIAN_POINT('',(154.582179545095,0.,0.));
#445=CARTESIAN_POINT('',(154.582179545095,0.,12.5));
#446=CARTESIAN_POINT('',(0.,0.,0.));
#447=CARTESIAN_POINT('',(29.75,0.,0.));
#448=CARTESIAN_POINT('',(29.75,0.,12.25));
#449=CARTESIAN_POINT('',(30.,0.,0.));
#450=CARTESIAN_POINT('',(18.1882787533357,0.,0.));
#451=CARTESIAN_POINT('',(18.1882787533357,0.,12.25));
#452=CARTESIAN_POINT('',(0.,0.,0.));
#453=CARTESIAN_POINT('',(16.8941835278232,0.,0.));
#454=CARTESIAN_POINT('',(16.8941835278232,0.,12.4203708685546));
#455=CARTESIAN_POINT('',(18.1882787533357,0.,0.));
#456=CARTESIAN_POINT('',(6.63904222709538,0.,0.));
#457=CARTESIAN_POINT('',(6.63904222709538,0.,15.1682276983516));
#458=CARTESIAN_POINT('',(16.8941835278232,0.,0.));
#459=CARTESIAN_POINT('',(4.2522244723548,0.,0.));
#460=CARTESIAN_POINT('',(4.2522244723548,0.,6.13741581114578));
#461=CARTESIAN_POINT('',(5.43023344464706,0.,0.));
#462=CARTESIAN_POINT('',(5.,0.,0.));
#463=CARTESIAN_POINT('',(5.,0.,5.16974705813918));
#464=CARTESIAN_POINT('',(4.,0.,0.));
#465=CARTESIAN_POINT('',(5.,5.16974705813918,0.));
#466=CARTESIAN_POINT('',(160.,0.,0.));
#467=CARTESIAN_POINT('',(160.,0.,11.25));
#468=CARTESIAN_POINT('',(160.,11.25,0.));
#469=CARTESIAN_POINT('',(159.,0.,0.));
#470=CARTESIAN_POINT('',(159.,0.,12.25));
#471=CARTESIAN_POINT('',(159.,0.,0.));
#472=CARTESIAN_POINT('',(156.,0.,0.));
#473=CARTESIAN_POINT('',(156.,0.,12.25));
#474=CARTESIAN_POINT('',(0.,0.,0.));
#475=CARTESIAN_POINT('',(156.,0.,0.));
#476=(
GEOMETRIC_REPRESENTATION_CONTEXT(3)
GLOBAL_UNCERTAINTY_ASSIGNED_CONTEXT((#477))
GLOBAL_UNIT_ASSIGNED_CONTEXT((#483,#479,#478))
REPRESENTATION_CONTEXT('model1','TOP_LEVEL_ASSEMBLY_PART')
);
#477=UNCERTAINTY_MEASURE_WITH_UNIT(LENGTH_MEASURE(2.E-5),#483,
'DISTANCE_ACCURACY_VALUE','Maximum Tolerance applied to model');
#478=(
NAMED_UNIT(*)
SI_UNIT($,.STERADIAN.)
SOLID_ANGLE_UNIT()
);
#479=(
CONVERSION_BASED_UNIT('DEGREE',#481)
NAMED_UNIT(#480)
PLANE_ANGLE_UNIT()
);
#480=DIMENSIONAL_EXPONENTS(0.,0.,0.,0.,0.,0.,0.);
#481=PLANE_ANGLE_MEASURE_WITH_UNIT(PLANE_ANGLE_MEASURE(0.0174532925),#482);
#482=(
NAMED_UNIT(*)
PLANE_ANGLE_UNIT()
SI_UNIT($,.RADIAN.)
);
#483=(
LENGTH_UNIT()
NAMED_UNIT(*)
SI_UNIT(.MILLI.,.METRE.)
);
ENDSEC;
END-ISO-10303-21;
