ISO-10303-21;
HEADER;
/* Generated by software containing ST-Developer
 * from STEP Tools, Inc. (www.steptools.com) 
 */
/* OPTION: using custom schema-name function */

FILE_DESCRIPTION(
/* description */ (''),
/* implementation_level */ '2;1');

FILE_NAME(
/* name */ 'model1.stp',
/* time_stamp */ '2023-11-07T11:16:58+03:00',
/* author */ (''),
/* organization */ (''),
/* preprocessor_version */ 'ST-DEVELOPER v19.4',
/* originating_system */ 'SIEMENS PLM Software NX2306.3001',
/* authorisation */ '');

FILE_SCHEMA (('AUTOMOTIVE_DESIGN { 1 0 10303 214 3 1 1 1 }'));
ENDSEC;

DATA;
#10=PROPERTY_DEFINITION_REPRESENTATION(#14,#12);
#11=PROPERTY_DEFINITION_REPRESENTATION(#15,#13);
#12=REPRESENTATION('',(#16),#484);
#13=REPRESENTATION('',(#17),#484);
#14=PROPERTY_DEFINITION('pmi validation property','',#21);
#15=PROPERTY_DEFINITION('pmi validation property','',#21);
#16=VALUE_REPRESENTATION_ITEM('number of annotations',COUNT_MEASURE(0.));
#17=VALUE_REPRESENTATION_ITEM('number of views',COUNT_MEASURE(0.));
#18=SHAPE_REPRESENTATION_RELATIONSHIP('None',
'relationship between model1_objects-None and model1_objects-None',#30,
#19);
#19=ADVANCED_BREP_SHAPE_REPRESENTATION('model1_objects-None',(#133,#134),
#484);
#20=SHAPE_DEFINITION_REPRESENTATION(#21,#30);
#21=PRODUCT_DEFINITION_SHAPE('','',#22);
#22=PRODUCT_DEFINITION(' ','',#24,#23);
#23=PRODUCT_DEFINITION_CONTEXT('part definition',#29,'design');
#24=PRODUCT_DEFINITION_FORMATION_WITH_SPECIFIED_SOURCE(' ',' ',#26,
 .NOT_KNOWN.);
#25=PRODUCT_RELATED_PRODUCT_CATEGORY('part','',(#26));
#26=PRODUCT('model1_objects','model1_objects',' ',(#27));
#27=PRODUCT_CONTEXT(' ',#29,'mechanical');
#28=APPLICATION_PROTOCOL_DEFINITION('international standard',
'automotive_design',2010,#29);
#29=APPLICATION_CONTEXT(
'core data for automotive mechanical design processes');
#30=SHAPE_REPRESENTATION('model1_objects-None',(#248),#484);
#31=OVER_RIDING_STYLED_ITEM('',(#62),#139,#59);
#32=OVER_RIDING_STYLED_ITEM('',(#63),#140,#59);
#33=OVER_RIDING_STYLED_ITEM('',(#64),#141,#59);
#34=OVER_RIDING_STYLED_ITEM('',(#65),#142,#59);
#35=OVER_RIDING_STYLED_ITEM('',(#66),#143,#59);
#36=OVER_RIDING_STYLED_ITEM('',(#67),#144,#59);
#37=OVER_RIDING_STYLED_ITEM('',(#68),#145,#59);
#38=OVER_RIDING_STYLED_ITEM('',(#69),#146,#59);
#39=OVER_RIDING_STYLED_ITEM('',(#70),#147,#59);
#40=OVER_RIDING_STYLED_ITEM('',(#71),#148,#59);
#41=COLOUR_RGB('Medium Steel',0.611764705882353,0.658823529411765,0.670588235294118);
#42=COLOUR_RGB('silver gray',0.6,0.6,0.6);
#43=TOROIDAL_SURFACE('',#265,8.75,1.);
#44=PLANE('',#261);
#45=PLANE('',#263);
#46=FACE_OUTER_BOUND('',#185,.T.);
#47=FACE_OUTER_BOUND('',#186,.T.);
#48=SURFACE_OF_REVOLUTION('',#50,#49);
#49=AXIS1_PLACEMENT('',#472,#295);
#50=B_SPLINE_CURVE_WITH_KNOTS('',3,(#410,#411,#412,#413,#414,#415,#416,
#417,#418,#419,#420,#421,#422,#423,#424,#425,#426,#427,#428,#429,#430,#431,
#432,#433,#434,#435,#436,#437,#438,#439,#440,#441,#442,#443,#444,#445,#446,
#447,#448,#449,#450,#451,#452,#453,#454,#455,#456,#457,#458,#459,#460,#461,
#462,#463,#464,#465,#466,#467,#468,#469,#470,#471),.UNSPECIFIED.,.T.,.F.,
(2,2,2,2,2,2,2,2,2,2,2,2,2,2,2,2,2,2,2,2,2,2,2,2,2,2,2,2,2,2,2,2,2),(-0.0625,
0.,0.0625,0.09375,0.125,0.15625,0.1875,0.21875,0.25,0.28125,0.3125,0.34375,
0.375,0.40625,0.4375,0.46875,0.5,0.53125,0.5625,0.59375,0.625,0.65625,0.6875,
0.71875,0.75,0.78125,0.8125,0.84375,0.875,0.90625,0.9375,1.,1.0625),
 .UNSPECIFIED.);
#51=CONICAL_SURFACE('',#255,10.,45.0000000000004);
#52=CONICAL_SURFACE('',#257,9.75,2.52082790771017);
#53=CONICAL_SURFACE('',#268,9.75,10.);
#54=CYLINDRICAL_SURFACE('',#253,10.);
#55=CYLINDRICAL_SURFACE('',#259,7.99999999999983);
#56=CYLINDRICAL_SURFACE('',#267,9.75);
#57=PRESENTATION_LAYER_ASSIGNMENT('1','Layer 1',(#133,#134));
#58=STYLED_ITEM('',(#60),#133);
#59=STYLED_ITEM('',(#61),#134);
#60=PRESENTATION_STYLE_ASSIGNMENT((#72));
#61=PRESENTATION_STYLE_ASSIGNMENT((#73));
#62=PRESENTATION_STYLE_ASSIGNMENT((#74));
#63=PRESENTATION_STYLE_ASSIGNMENT((#75));
#64=PRESENTATION_STYLE_ASSIGNMENT((#76));
#65=PRESENTATION_STYLE_ASSIGNMENT((#77));
#66=PRESENTATION_STYLE_ASSIGNMENT((#78));
#67=PRESENTATION_STYLE_ASSIGNMENT((#79));
#68=PRESENTATION_STYLE_ASSIGNMENT((#80));
#69=PRESENTATION_STYLE_ASSIGNMENT((#81));
#70=PRESENTATION_STYLE_ASSIGNMENT((#82));
#71=PRESENTATION_STYLE_ASSIGNMENT((#83));
#72=SURFACE_STYLE_USAGE(.BOTH.,#84);
#73=SURFACE_STYLE_USAGE(.BOTH.,#85);
#74=SURFACE_STYLE_USAGE(.BOTH.,#86);
#75=SURFACE_STYLE_USAGE(.BOTH.,#87);
#76=SURFACE_STYLE_USAGE(.BOTH.,#88);
#77=SURFACE_STYLE_USAGE(.BOTH.,#89);
#78=SURFACE_STYLE_USAGE(.BOTH.,#90);
#79=SURFACE_STYLE_USAGE(.BOTH.,#91);
#80=SURFACE_STYLE_USAGE(.BOTH.,#92);
#81=SURFACE_STYLE_USAGE(.BOTH.,#93);
#82=SURFACE_STYLE_USAGE(.BOTH.,#94);
#83=SURFACE_STYLE_USAGE(.BOTH.,#95);
#84=SURFACE_SIDE_STYLE('',(#96));
#85=SURFACE_SIDE_STYLE('',(#97));
#86=SURFACE_SIDE_STYLE('',(#98));
#87=SURFACE_SIDE_STYLE('',(#99));
#88=SURFACE_SIDE_STYLE('',(#100));
#89=SURFACE_SIDE_STYLE('',(#101));
#90=SURFACE_SIDE_STYLE('',(#102));
#91=SURFACE_SIDE_STYLE('',(#103));
#92=SURFACE_SIDE_STYLE('',(#104));
#93=SURFACE_SIDE_STYLE('',(#105));
#94=SURFACE_SIDE_STYLE('',(#106));
#95=SURFACE_SIDE_STYLE('',(#107));
#96=SURFACE_STYLE_FILL_AREA(#108);
#97=SURFACE_STYLE_FILL_AREA(#109);
#98=SURFACE_STYLE_FILL_AREA(#110);
#99=SURFACE_STYLE_FILL_AREA(#111);
#100=SURFACE_STYLE_FILL_AREA(#112);
#101=SURFACE_STYLE_FILL_AREA(#113);
#102=SURFACE_STYLE_FILL_AREA(#114);
#103=SURFACE_STYLE_FILL_AREA(#115);
#104=SURFACE_STYLE_FILL_AREA(#116);
#105=SURFACE_STYLE_FILL_AREA(#117);
#106=SURFACE_STYLE_FILL_AREA(#118);
#107=SURFACE_STYLE_FILL_AREA(#119);
#108=FILL_AREA_STYLE('',(#120));
#109=FILL_AREA_STYLE('',(#121));
#110=FILL_AREA_STYLE('',(#122));
#111=FILL_AREA_STYLE('',(#123));
#112=FILL_AREA_STYLE('',(#124));
#113=FILL_AREA_STYLE('',(#125));
#114=FILL_AREA_STYLE('',(#126));
#115=FILL_AREA_STYLE('',(#127));
#116=FILL_AREA_STYLE('',(#128));
#117=FILL_AREA_STYLE('',(#129));
#118=FILL_AREA_STYLE('',(#130));
#119=FILL_AREA_STYLE('',(#131));
#120=FILL_AREA_STYLE_COLOUR('',#132);
#121=FILL_AREA_STYLE_COLOUR('',#41);
#122=FILL_AREA_STYLE_COLOUR('',#42);
#123=FILL_AREA_STYLE_COLOUR('',#42);
#124=FILL_AREA_STYLE_COLOUR('',#42);
#125=FILL_AREA_STYLE_COLOUR('',#42);
#126=FILL_AREA_STYLE_COLOUR('',#42);
#127=FILL_AREA_STYLE_COLOUR('',#42);
#128=FILL_AREA_STYLE_COLOUR('',#42);
#129=FILL_AREA_STYLE_COLOUR('',#42);
#130=FILL_AREA_STYLE_COLOUR('',#42);
#131=FILL_AREA_STYLE_COLOUR('',#42);
#132=DRAUGHTING_PRE_DEFINED_COLOUR('yellow');
#133=MANIFOLD_SOLID_BREP('',#135);
#134=MANIFOLD_SOLID_BREP('',#136);
#135=CLOSED_SHELL('',(#137,#138));
#136=CLOSED_SHELL('',(#139,#140,#141,#142,#143,#144,#145,#146,#147,#148));
#137=ADVANCED_FACE('',(#151,#152),#149,.F.);
#138=ADVANCED_FACE('',(#153,#154),#150,.F.);
#139=ADVANCED_FACE('',(#155,#156),#54,.T.);
#140=ADVANCED_FACE('',(#157,#158),#51,.T.);
#141=ADVANCED_FACE('',(#159,#160),#52,.T.);
#142=ADVANCED_FACE('',(#161,#162),#55,.T.);
#143=ADVANCED_FACE('',(#163,#164),#48,.T.);
#144=ADVANCED_FACE('',(#46),#44,.F.);
#145=ADVANCED_FACE('',(#47),#45,.F.);
#146=ADVANCED_FACE('',(#165,#166),#43,.T.);
#147=ADVANCED_FACE('',(#167,#168),#56,.T.);
#148=ADVANCED_FACE('',(#169,#170),#53,.T.);
#149=(
BOUNDED_SURFACE()
B_SPLINE_SURFACE(3,3,((#317,#318,#319,#320,#321,#322,#323),(#324,#325,#326,
#327,#328,#329,#330),(#331,#332,#333,#334,#335,#336,#337),(#338,#339,#340,
#341,#342,#343,#344),(#345,#346,#347,#348,#349,#350,#351),(#352,#353,#354,
#355,#356,#357,#358),(#359,#360,#361,#362,#363,#364,#365)),
 .UNSPECIFIED.,.T.,.F.,.F.)
B_SPLINE_SURFACE_WITH_KNOTS((1,3,3,3,1),(4,3,4),(-0.5,0.,0.5,1.,1.5),(0.,
0.5,1.),.UNSPECIFIED.)
GEOMETRIC_REPRESENTATION_ITEM()
RATIONAL_B_SPLINE_SURFACE(((1.,0.53876372851975,0.53876372851975,1.,0.53876372851975,
0.53876372851975,1.),(0.333333333333334,0.179587909506584,0.179587909506584,
0.333333333333334,0.179587909506584,0.179587909506584,0.333333333333334),
(0.333333333333334,0.179587909506584,0.179587909506584,0.333333333333334,
0.179587909506584,0.179587909506584,0.333333333333334),(1.,0.53876372851975,
0.53876372851975,1.,0.53876372851975,0.53876372851975,1.),(0.333333333333334,
0.179587909506584,0.179587909506584,0.333333333333334,0.179587909506584,
0.179587909506584,0.333333333333334),(0.333333333333334,0.179587909506584,
0.179587909506584,0.333333333333334,0.179587909506584,0.179587909506584,
0.333333333333334),(1.,0.53876372851975,0.53876372851975,1.,0.53876372851975,
0.53876372851975,1.)))
REPRESENTATION_ITEM('')
SURFACE()
);
#150=(
BOUNDED_SURFACE()
B_SPLINE_SURFACE(3,3,((#366,#367,#368,#369),(#370,#371,#372,#373),(#374,
#375,#376,#377),(#378,#379,#380,#381),(#382,#383,#384,#385),(#386,#387,
#388,#389),(#390,#391,#392,#393)),.UNSPECIFIED.,.T.,.F.,.F.)
B_SPLINE_SURFACE_WITH_KNOTS((1,3,3,3,1),(4,4),(-0.5,0.,0.5,1.,1.5),(0.,
1.),.UNSPECIFIED.)
GEOMETRIC_REPRESENTATION_ITEM()
RATIONAL_B_SPLINE_SURFACE(((1.,0.873395058200658,0.873395058200658,1.),
(0.333333333333334,0.291131686066886,0.291131686066886,0.333333333333334),
(0.333333333333334,0.291131686066886,0.291131686066886,0.333333333333334),
(1.,0.873395058200658,0.873395058200658,1.),(0.333333333333334,0.291131686066886,
0.291131686066886,0.333333333333334),(0.333333333333334,0.291131686066886,
0.291131686066886,0.333333333333334),(1.,0.873395058200658,0.873395058200658,
1.)))
REPRESENTATION_ITEM('')
SURFACE()
);
#151=FACE_BOUND('',#171,.T.);
#152=FACE_BOUND('',#172,.T.);
#153=FACE_BOUND('',#173,.T.);
#154=FACE_BOUND('',#174,.T.);
#155=FACE_BOUND('',#175,.T.);
#156=FACE_BOUND('',#176,.T.);
#157=FACE_BOUND('',#177,.T.);
#158=FACE_BOUND('',#178,.T.);
#159=FACE_BOUND('',#179,.T.);
#160=FACE_BOUND('',#180,.T.);
#161=FACE_BOUND('',#181,.T.);
#162=FACE_BOUND('',#182,.T.);
#163=FACE_BOUND('',#183,.T.);
#164=FACE_BOUND('',#184,.T.);
#165=FACE_BOUND('',#187,.T.);
#166=FACE_BOUND('',#188,.T.);
#167=FACE_BOUND('',#189,.T.);
#168=FACE_BOUND('',#190,.T.);
#169=FACE_BOUND('',#191,.T.);
#170=FACE_BOUND('',#192,.T.);
#171=EDGE_LOOP('',(#193));
#172=EDGE_LOOP('',(#194));
#173=EDGE_LOOP('',(#195));
#174=EDGE_LOOP('',(#196));
#175=EDGE_LOOP('',(#197));
#176=EDGE_LOOP('',(#198));
#177=EDGE_LOOP('',(#199));
#178=EDGE_LOOP('',(#200));
#179=EDGE_LOOP('',(#201));
#180=EDGE_LOOP('',(#202));
#181=EDGE_LOOP('',(#203));
#182=EDGE_LOOP('',(#204));
#183=EDGE_LOOP('',(#205));
#184=EDGE_LOOP('',(#206));
#185=EDGE_LOOP('',(#207));
#186=EDGE_LOOP('',(#208));
#187=EDGE_LOOP('',(#209));
#188=EDGE_LOOP('',(#210));
#189=EDGE_LOOP('',(#211));
#190=EDGE_LOOP('',(#212));
#191=EDGE_LOOP('',(#213));
#192=EDGE_LOOP('',(#214));
#193=ORIENTED_EDGE('',*,*,#226,.T.);
#194=ORIENTED_EDGE('',*,*,#227,.F.);
#195=ORIENTED_EDGE('',*,*,#227,.T.);
#196=ORIENTED_EDGE('',*,*,#226,.F.);
#197=ORIENTED_EDGE('',*,*,#228,.F.);
#198=ORIENTED_EDGE('',*,*,#229,.T.);
#199=ORIENTED_EDGE('',*,*,#230,.F.);
#200=ORIENTED_EDGE('',*,*,#228,.T.);
#201=ORIENTED_EDGE('',*,*,#231,.F.);
#202=ORIENTED_EDGE('',*,*,#230,.T.);
#203=ORIENTED_EDGE('',*,*,#232,.F.);
#204=ORIENTED_EDGE('',*,*,#231,.T.);
#205=ORIENTED_EDGE('',*,*,#233,.F.);
#206=ORIENTED_EDGE('',*,*,#232,.T.);
#207=ORIENTED_EDGE('',*,*,#233,.T.);
#208=ORIENTED_EDGE('',*,*,#234,.F.);
#209=ORIENTED_EDGE('',*,*,#235,.F.);
#210=ORIENTED_EDGE('',*,*,#234,.T.);
#211=ORIENTED_EDGE('',*,*,#236,.F.);
#212=ORIENTED_EDGE('',*,*,#235,.T.);
#213=ORIENTED_EDGE('',*,*,#229,.F.);
#214=ORIENTED_EDGE('',*,*,#236,.T.);
#215=VERTEX_POINT('',#314);
#216=VERTEX_POINT('',#316);
#217=VERTEX_POINT('',#395);
#218=VERTEX_POINT('',#397);
#219=VERTEX_POINT('',#400);
#220=VERTEX_POINT('',#403);
#221=VERTEX_POINT('',#406);
#222=VERTEX_POINT('',#409);
#223=VERTEX_POINT('',#475);
#224=VERTEX_POINT('',#478);
#225=VERTEX_POINT('',#481);
#226=EDGE_CURVE('',#215,#215,#237,.T.);
#227=EDGE_CURVE('',#216,#216,#238,.T.);
#228=EDGE_CURVE('',#217,#217,#239,.T.);
#229=EDGE_CURVE('',#218,#218,#240,.T.);
#230=EDGE_CURVE('',#219,#219,#241,.T.);
#231=EDGE_CURVE('',#220,#220,#242,.T.);
#232=EDGE_CURVE('',#221,#221,#243,.T.);
#233=EDGE_CURVE('',#222,#222,#244,.T.);
#234=EDGE_CURVE('',#223,#223,#245,.T.);
#235=EDGE_CURVE('',#224,#224,#246,.T.);
#236=EDGE_CURVE('',#225,#225,#247,.T.);
#237=CIRCLE('',#249,5.);
#238=CIRCLE('',#250,5.);
#239=CIRCLE('',#251,10.);
#240=CIRCLE('',#252,10.);
#241=CIRCLE('',#254,9.75);
#242=CIRCLE('',#256,8.);
#243=CIRCLE('',#258,7.99999999999966);
#244=CIRCLE('',#260,1.79921648856021);
#245=CIRCLE('',#262,8.75);
#246=CIRCLE('',#264,9.75);
#247=CIRCLE('',#266,9.75);
#248=AXIS2_PLACEMENT_3D('',#312,#269,#270);
#249=AXIS2_PLACEMENT_3D('',#313,#271,#272);
#250=AXIS2_PLACEMENT_3D('',#315,#273,#274);
#251=AXIS2_PLACEMENT_3D('',#394,#275,#276);
#252=AXIS2_PLACEMENT_3D('',#396,#277,#278);
#253=AXIS2_PLACEMENT_3D('',#398,#279,#280);
#254=AXIS2_PLACEMENT_3D('',#399,#281,#282);
#255=AXIS2_PLACEMENT_3D('',#401,#283,#284);
#256=AXIS2_PLACEMENT_3D('',#402,#285,#286);
#257=AXIS2_PLACEMENT_3D('',#404,#287,#288);
#258=AXIS2_PLACEMENT_3D('',#405,#289,#290);
#259=AXIS2_PLACEMENT_3D('',#407,#291,#292);
#260=AXIS2_PLACEMENT_3D('',#408,#293,#294);
#261=AXIS2_PLACEMENT_3D('',#473,#296,#297);
#262=AXIS2_PLACEMENT_3D('',#474,#298,#299);
#263=AXIS2_PLACEMENT_3D('',#476,#300,#301);
#264=AXIS2_PLACEMENT_3D('',#477,#302,#303);
#265=AXIS2_PLACEMENT_3D('',#479,#304,#305);
#266=AXIS2_PLACEMENT_3D('',#480,#306,#307);
#267=AXIS2_PLACEMENT_3D('',#482,#308,#309);
#268=AXIS2_PLACEMENT_3D('',#483,#310,#311);
#269=DIRECTION('',(0.,0.,1.));
#270=DIRECTION('',(1.,0.,0.));
#271=DIRECTION('',(0.,0.949917759598162,0.312500000000013));
#272=DIRECTION('',(1.,0.,0.));
#273=DIRECTION('',(0.,0.,1.));
#274=DIRECTION('',(1.,0.,0.));
#275=DIRECTION('',(-1.,0.,0.));
#276=DIRECTION('',(0.,0.,1.));
#277=DIRECTION('',(-1.,0.,0.));
#278=DIRECTION('',(0.,0.,1.));
#279=DIRECTION('',(-1.,0.,0.));
#280=DIRECTION('',(0.,0.,1.));
#281=DIRECTION('',(-1.,0.,0.));
#282=DIRECTION('',(0.,0.,1.));
#283=DIRECTION('',(1.,0.,0.));
#284=DIRECTION('',(5.49615358725317E-17,0.,-1.));
#285=DIRECTION('',(-1.,0.,0.));
#286=DIRECTION('',(0.,0.,1.));
#287=DIRECTION('',(1.,0.,0.));
#288=DIRECTION('',(-5.1614122661735E-16,0.,-1.));
#289=DIRECTION('',(-1.,0.,0.));
#290=DIRECTION('',(0.,0.,1.));
#291=DIRECTION('',(-1.,0.,0.));
#292=DIRECTION('',(0.,0.,1.));
#293=DIRECTION('',(-1.,0.,0.));
#294=DIRECTION('',(0.,0.,1.));
#295=DIRECTION('',(-1.,0.,0.));
#296=DIRECTION('',(1.,0.,0.));
#297=DIRECTION('',(0.,0.,-1.));
#298=DIRECTION('',(-1.,0.,0.));
#299=DIRECTION('',(0.,0.,1.));
#300=DIRECTION('',(-1.,0.,0.));
#301=DIRECTION('',(0.,0.,1.));
#302=DIRECTION('',(-1.,0.,0.));
#303=DIRECTION('',(0.,0.,1.));
#304=DIRECTION('',(-1.,0.,0.));
#305=DIRECTION('',(0.,0.,1.));
#306=DIRECTION('',(-1.,0.,0.));
#307=DIRECTION('',(0.,0.,1.));
#308=DIRECTION('',(-1.,0.,0.));
#309=DIRECTION('',(0.,0.,1.));
#310=DIRECTION('',(-1.,0.,0.));
#311=DIRECTION('',(1.49161790512469E-16,0.,1.));
#312=CARTESIAN_POINT('',(0.,0.,0.));
#313=CARTESIAN_POINT('',(5.,0.911783048995343,5.22841948434782));
#314=CARTESIAN_POINT('',(10.,0.911783048995343,5.22841948434782));
#315=CARTESIAN_POINT('',(5.,-4.68163632,2.5));
#316=CARTESIAN_POINT('',(10.,-4.68163632,2.5));
#317=CARTESIAN_POINT('',(10.,-4.68163632,2.5));
#318=CARTESIAN_POINT('',(10.,-7.62460606181732,-3.01116561278119));
#319=CARTESIAN_POINT('',(10.,-3.28848127381924,-7.50916951847789));
#320=CARTESIAN_POINT('',(10.,2.32680395432626,-4.77008406538866));
#321=CARTESIAN_POINT('',(10.,7.94208918247176,-2.03099861229944));
#322=CARTESIAN_POINT('',(10.,7.06661518498083,4.15507951462973));
#323=CARTESIAN_POINT('',(10.,0.911783048995344,5.22841948434782));
#324=CARTESIAN_POINT('',(10.,5.31836368,2.5));
#325=CARTESIAN_POINT('',(10.,2.37539393818269,8.76071335448806));
#326=CARTESIAN_POINT('',(10.,-4.48753131797746,7.89016207129056));
#327=CARTESIAN_POINT('',(10.,-5.77412191868361,1.09293563439057));
#328=CARTESIAN_POINT('',(10.,-7.06071251938975,-5.70429080250943));
#329=CARTESIAN_POINT('',(10.,-0.990701709868181,-9.02281025862369));
#330=CARTESIAN_POINT('',(10.,4.03678304899548,-4.27075811163381));
#331=CARTESIAN_POINT('',(-5.10076676829453E-16,5.31836368,2.5));
#332=CARTESIAN_POINT('',(-5.10076676829453E-16,2.37539393818269,8.76071335448806));
#333=CARTESIAN_POINT('',(-5.10076676829453E-16,-4.48753131797746,7.89016207129057));
#334=CARTESIAN_POINT('',(-5.10076676829453E-16,-5.77412191868361,1.09293563439057));
#335=CARTESIAN_POINT('',(-5.10076676829453E-16,-7.06071251938975,-5.70429080250943));
#336=CARTESIAN_POINT('',(-5.10076676829453E-16,-0.990701709868181,-9.02281025862369));
#337=CARTESIAN_POINT('',(-5.10076676829453E-16,4.03678304899548,-4.27075811163381));
#338=CARTESIAN_POINT('',(-1.7347234759768E-15,-4.68163632,2.5));
#339=CARTESIAN_POINT('',(-1.73472347597681E-15,-7.62460606181732,-3.01116561278119));
#340=CARTESIAN_POINT('',(-1.73472347597681E-15,-3.28848127381924,-7.50916951847789));
#341=CARTESIAN_POINT('',(-1.7347234759768E-15,2.32680395432626,-4.77008406538866));
#342=CARTESIAN_POINT('',(-1.73472347597681E-15,7.94208918247176,-2.03099861229944));
#343=CARTESIAN_POINT('',(-1.73472347597681E-15,7.06661518498083,4.15507951462973));
#344=CARTESIAN_POINT('',(-1.7347234759768E-15,0.911783048995344,5.22841948434782));
#345=CARTESIAN_POINT('',(-2.95937027512416E-15,-14.68163632,2.5));
#346=CARTESIAN_POINT('',(-2.95937027512416E-15,-17.6246060618173,-14.7830445800504));
#347=CARTESIAN_POINT('',(-2.95937027512416E-15,-2.08943122966102,-22.9085011082463));
#348=CARTESIAN_POINT('',(-2.95937027512416E-15,10.4277298273361,-10.6331037651679));
#349=CARTESIAN_POINT('',(-2.95937027512416E-15,22.9448908843333,1.64229357791055));
#350=CARTESIAN_POINT('',(-2.95937027512416E-15,15.1239320798298,17.3329692878831));
#351=CARTESIAN_POINT('',(-2.95937027512416E-15,-2.21321695100478,14.7275970803294));
#352=CARTESIAN_POINT('',(10.,-14.68163632,2.5));
#353=CARTESIAN_POINT('',(10.,-17.6246060618173,-14.7830445800504));
#354=CARTESIAN_POINT('',(10.,-2.08943122966102,-22.9085011082463));
#355=CARTESIAN_POINT('',(10.,10.4277298273361,-10.6331037651679));
#356=CARTESIAN_POINT('',(10.,22.9448908843333,1.64229357791056));
#357=CARTESIAN_POINT('',(10.,15.1239320798298,17.3329692878831));
#358=CARTESIAN_POINT('',(10.,-2.21321695100479,14.7275970803294));
#359=CARTESIAN_POINT('',(10.,-4.68163632,2.5));
#360=CARTESIAN_POINT('',(10.,-7.62460606181732,-3.01116561278119));
#361=CARTESIAN_POINT('',(10.,-3.28848127381924,-7.50916951847789));
#362=CARTESIAN_POINT('',(10.,2.32680395432626,-4.77008406538866));
#363=CARTESIAN_POINT('',(10.,7.94208918247176,-2.03099861229944));
#364=CARTESIAN_POINT('',(10.,7.06661518498083,4.15507951462973));
#365=CARTESIAN_POINT('',(10.,0.911783048995344,5.22841948434782));
#366=CARTESIAN_POINT('',(10.,0.911783048995343,5.22841948434782));
#367=CARTESIAN_POINT('',(10.,-1.42807649471782,5.63646713151432));
#368=CARTESIAN_POINT('',(10.,-3.56281850578389,4.59515924579885));
#369=CARTESIAN_POINT('',(10.,-4.68163632,2.5));
#370=CARTESIAN_POINT('',(10.,4.03678304899548,-4.27075811163381));
#371=CARTESIAN_POINT('',(10.,5.94806315119701,-2.46418819669711));
#372=CARTESIAN_POINT('',(10.,6.4371814942161,0.119887988934437));
#373=CARTESIAN_POINT('',(10.,5.31836368,2.5));
#374=CARTESIAN_POINT('',(-5.10076676829453E-16,4.03678304899548,-4.27075811163381));
#375=CARTESIAN_POINT('',(-5.10076676829454E-16,5.94806315119701,-2.46418819669711));
#376=CARTESIAN_POINT('',(-5.10076676829454E-16,6.4371814942161,0.119887988934437));
#377=CARTESIAN_POINT('',(-5.10076676829453E-16,5.31836368,2.5));
#378=CARTESIAN_POINT('',(-1.7347234759768E-15,0.911783048995343,5.22841948434782));
#379=CARTESIAN_POINT('',(-1.73472347597681E-15,-1.42807649471782,5.63646713151432));
#380=CARTESIAN_POINT('',(-1.73472347597681E-15,-3.56281850578389,4.59515924579885));
#381=CARTESIAN_POINT('',(-1.7347234759768E-15,-4.68163632,2.5));
#382=CARTESIAN_POINT('',(-2.95937027512416E-15,-2.21321695100479,14.7275970803294));
#383=CARTESIAN_POINT('',(-2.95937027512416E-15,-8.80421614063265,13.7371224597258));
#384=CARTESIAN_POINT('',(-2.95937027512416E-15,-13.5628185057839,9.07043050266325));
#385=CARTESIAN_POINT('',(-2.95937027512416E-15,-14.68163632,2.5));
#386=CARTESIAN_POINT('',(10.,-2.21321695100479,14.7275970803294));
#387=CARTESIAN_POINT('',(10.,-8.80421614063265,13.7371224597258));
#388=CARTESIAN_POINT('',(10.,-13.5628185057839,9.07043050266325));
#389=CARTESIAN_POINT('',(10.,-14.68163632,2.5));
#390=CARTESIAN_POINT('',(10.,0.911783048995343,5.22841948434782));
#391=CARTESIAN_POINT('',(10.,-1.42807649471782,5.63646713151432));
#392=CARTESIAN_POINT('',(10.,-3.56281850578389,4.59515924579885));
#393=CARTESIAN_POINT('',(10.,-4.68163632,2.5));
#394=CARTESIAN_POINT('',(70.,0.,0.));
#395=CARTESIAN_POINT('',(70.,0.,10.));
#396=CARTESIAN_POINT('',(154.582179545095,0.,0.));
#397=CARTESIAN_POINT('',(154.582179545095,0.,10.));
#398=CARTESIAN_POINT('',(0.,0.,0.));
#399=CARTESIAN_POINT('',(69.75,0.,0.));
#400=CARTESIAN_POINT('',(69.75,0.,9.75));
#401=CARTESIAN_POINT('',(70.,0.,0.));
#402=CARTESIAN_POINT('',(30.,0.,0.));
#403=CARTESIAN_POINT('',(30.,0.,8.));
#404=CARTESIAN_POINT('',(69.75,0.,0.));
#405=CARTESIAN_POINT('',(7.3591384878953,0.,0.));
#406=CARTESIAN_POINT('',(7.3591384878953,0.,7.99999999999966));
#407=CARTESIAN_POINT('',(0.,0.,0.));
#408=CARTESIAN_POINT('',(2.3,0.,0.));
#409=CARTESIAN_POINT('',(2.3,0.,1.79921648856021));
#410=CARTESIAN_POINT('',(4.47470808832692,0.929512983672058,0.));
#411=CARTESIAN_POINT('',(5.52529191167309,0.929512983672058,0.));
#412=CARTESIAN_POINT('',(6.05800198497357,0.996121180639913,0.));
#413=CARTESIAN_POINT('',(6.80088262224309,1.24655166326967,0.));
#414=CARTESIAN_POINT('',(7.04268580417258,1.35701551253004,0.));
#415=CARTESIAN_POINT('',(7.49233211737293,1.62767526945909,0.));
#416=CARTESIAN_POINT('',(7.69912667347293,1.7860544319866,0.));
#417=CARTESIAN_POINT('',(8.07758465053917,2.14772736442587,0.));
#418=CARTESIAN_POINT('',(8.24892406424536,2.35197338942516,0.));
#419=CARTESIAN_POINT('',(8.54018095474793,2.78432459880738,0.));
#420=CARTESIAN_POINT('',(8.66278180806055,3.01468519252695,0.));
#421=CARTESIAN_POINT('',(8.86148685355657,3.50404830786434,0.));
#422=CARTESIAN_POINT('',(8.93443825073153,3.75567351187804,0.));
#423=CARTESIAN_POINT('',(9.02946566869814,4.26804950139341,0.));
#424=CARTESIAN_POINT('',(9.0516398208343,4.53231179268781,0.));
#425=CARTESIAN_POINT('',(9.04317083031976,5.05718230632879,0.));
#426=CARTESIAN_POINT('',(9.0132062892853,5.31604937519944,0.));
#427=CARTESIAN_POINT('',(8.90293760750228,5.82680252446303,0.));
#428=CARTESIAN_POINT('',(8.82136411051204,6.0805028356599,0.));
#429=CARTESIAN_POINT('',(8.6136639062631,6.55974302575901,0.));
#430=CARTESIAN_POINT('',(8.48738715314016,6.78775738777568,0.));
#431=CARTESIAN_POINT('',(8.18938689698228,7.22026753800478,0.));
#432=CARTESIAN_POINT('',(8.01846210382214,7.42257942224691,0.));
#433=CARTESIAN_POINT('',(7.64532303177844,7.78644743997775,0.));
#434=CARTESIAN_POINT('',(7.44118557853398,7.95053398952091,0.));
#435=CARTESIAN_POINT('',(6.99919431949661,8.23942998601924,0.));
#436=CARTESIAN_POINT('',(6.76771701323617,8.36020493054772,0.));
#437=CARTESIAN_POINT('',(6.2846036347973,8.55622588751892,0.));
#438=CARTESIAN_POINT('',(6.03009571904705,8.63189619649001,0.));
#439=CARTESIAN_POINT('',(5.51526612674755,8.73170185684839,0.));
#440=CARTESIAN_POINT('',(5.25584265971279,8.75635742671492,0.));
#441=CARTESIAN_POINT('',(4.73301545992204,8.75564005977388,0.));
#442=CARTESIAN_POINT('',(4.46792758448038,8.72944731967216,0.));
#443=CARTESIAN_POINT('',(3.95570623588295,8.62807757010517,0.));
#444=CARTESIAN_POINT('',(3.70596453522274,8.55321894390054,0.));
#445=CARTESIAN_POINT('',(3.21948285163606,8.35415303495995,0.));
#446=CARTESIAN_POINT('',(2.98564919586109,8.2305787080833,0.));
#447=CARTESIAN_POINT('',(2.55035792212544,7.94389248342436,0.));
#448=CARTESIAN_POINT('',(2.34584090891398,7.7791197577524,0.));
#449=CARTESIAN_POINT('',(1.96956190481734,7.40953897234687,0.));
#450=CARTESIAN_POINT('',(1.80212625772944,7.20929377186843,0.));
#451=CARTESIAN_POINT('',(1.50742376939013,6.7788185601617,0.));
#452=CARTESIAN_POINT('',(1.37916855662573,6.54580841155193,0.));
#453=CARTESIAN_POINT('',(1.17281324640912,6.06429597326326,0.));
#454=CARTESIAN_POINT('',(1.09390343820064,5.81583187155715,0.));
#455=CARTESIAN_POINT('',(0.984890907797361,5.30340170422004,0.));
#456=CARTESIAN_POINT('',(0.955474002768211,5.03903155911237,0.));
#457=CARTESIAN_POINT('',(0.949247283928573,4.51710784288981,0.));
#458=CARTESIAN_POINT('',(0.971623532682563,4.25671990021896,0.));
#459=CARTESIAN_POINT('',(1.07006513473716,3.7371710287181,0.));
#460=CARTESIAN_POINT('',(1.14451400351008,3.48651623144851,0.));
#461=CARTESIAN_POINT('',(1.34308415142793,3.00316260680891,0.));
#462=CARTESIAN_POINT('',(1.4690570928781,2.76824849334853,0.));
#463=CARTESIAN_POINT('',(1.76373967989621,2.33572086002984,0.));
#464=CARTESIAN_POINT('',(1.93247537210477,2.13644692413544,0.));
#465=CARTESIAN_POINT('',(2.315374046118,1.77397411313956,0.));
#466=CARTESIAN_POINT('',(2.52562717062787,1.61518287457379,0.));
#467=CARTESIAN_POINT('',(2.9741859843896,1.34867785395512,0.));
#468=CARTESIAN_POINT('',(3.217431991328,1.23903805379765,0.));
#469=CARTESIAN_POINT('',(3.96082248662724,0.992610509278986,0.));
#470=CARTESIAN_POINT('',(4.47470808832692,0.929512983672058,0.));
#471=CARTESIAN_POINT('',(5.52529191167309,0.929512983672058,0.));
#472=CARTESIAN_POINT('',(0.,0.,0.));
#473=CARTESIAN_POINT('',(2.3,1.79921648856021,0.));
#474=CARTESIAN_POINT('',(160.,0.,0.));
#475=CARTESIAN_POINT('',(160.,0.,8.75));
#476=CARTESIAN_POINT('',(160.,0.,0.));
#477=CARTESIAN_POINT('',(159.,0.,0.));
#478=CARTESIAN_POINT('',(159.,0.,9.75));
#479=CARTESIAN_POINT('',(159.,0.,0.));
#480=CARTESIAN_POINT('',(156.,0.,0.));
#481=CARTESIAN_POINT('',(156.,0.,9.75));
#482=CARTESIAN_POINT('',(0.,0.,0.));
#483=CARTESIAN_POINT('',(156.,0.,0.));
#484=(
GEOMETRIC_REPRESENTATION_CONTEXT(3)
GLOBAL_UNCERTAINTY_ASSIGNED_CONTEXT((#485))
GLOBAL_UNIT_ASSIGNED_CONTEXT((#491,#487,#486))
REPRESENTATION_CONTEXT('model1','TOP_LEVEL_ASSEMBLY_PART')
);
#485=UNCERTAINTY_MEASURE_WITH_UNIT(LENGTH_MEASURE(2.E-5),#491,
'DISTANCE_ACCURACY_VALUE','Maximum Tolerance applied to model');
#486=(
NAMED_UNIT(*)
SI_UNIT($,.STERADIAN.)
SOLID_ANGLE_UNIT()
);
#487=(
CONVERSION_BASED_UNIT('DEGREE',#489)
NAMED_UNIT(#488)
PLANE_ANGLE_UNIT()
);
#488=DIMENSIONAL_EXPONENTS(0.,0.,0.,0.,0.,0.,0.);
#489=PLANE_ANGLE_MEASURE_WITH_UNIT(PLANE_ANGLE_MEASURE(0.0174532925),#490);
#490=(
NAMED_UNIT(*)
PLANE_ANGLE_UNIT()
SI_UNIT($,.RADIAN.)
);
#491=(
LENGTH_UNIT()
NAMED_UNIT(*)
SI_UNIT(.MILLI.,.METRE.)
);
ENDSEC;
END-ISO-10303-21;
