ISO-10303-21;
HEADER;
/* Generated by software containing ST-Developer
 * from STEP Tools, Inc. (www.steptools.com) 
 */
/* OPTION: using custom schema-name function */

FILE_DESCRIPTION(
/* description */ (''),
/* implementation_level */ '2;1');

FILE_NAME(
/* name */ 'model1.stp',
/* time_stamp */ '2023-11-06T18:51:45+03:00',
/* author */ (''),
/* organization */ (''),
/* preprocessor_version */ 'ST-DEVELOPER v19.4',
/* originating_system */ 'SIEMENS PLM Software NX2306.3001',
/* authorisation */ '');

FILE_SCHEMA (('AUTOMOTIVE_DESIGN { 1 0 10303 214 3 1 1 1 }'));
ENDSEC;

DATA;
#10=PROPERTY_DEFINITION_REPRESENTATION(#14,#12);
#11=PROPERTY_DEFINITION_REPRESENTATION(#15,#13);
#12=REPRESENTATION('',(#16),#488);
#13=REPRESENTATION('',(#17),#488);
#14=PROPERTY_DEFINITION('pmi validation property','',#21);
#15=PROPERTY_DEFINITION('pmi validation property','',#21);
#16=VALUE_REPRESENTATION_ITEM('number of annotations',COUNT_MEASURE(0.));
#17=VALUE_REPRESENTATION_ITEM('number of views',COUNT_MEASURE(0.));
#18=SHAPE_REPRESENTATION_RELATIONSHIP('None',
'relationship between model1_objects-None and model1_objects-None',#30,
#19);
#19=ADVANCED_BREP_SHAPE_REPRESENTATION('model1_objects-None',(#133,#134),
#488);
#20=SHAPE_DEFINITION_REPRESENTATION(#21,#30);
#21=PRODUCT_DEFINITION_SHAPE('','',#22);
#22=PRODUCT_DEFINITION(' ','',#24,#23);
#23=PRODUCT_DEFINITION_CONTEXT('part definition',#29,'design');
#24=PRODUCT_DEFINITION_FORMATION_WITH_SPECIFIED_SOURCE(' ',' ',#26,
 .NOT_KNOWN.);
#25=PRODUCT_RELATED_PRODUCT_CATEGORY('part','',(#26));
#26=PRODUCT('model1_objects','model1_objects',' ',(#27));
#27=PRODUCT_CONTEXT(' ',#29,'mechanical');
#28=APPLICATION_PROTOCOL_DEFINITION('international standard',
'automotive_design',2010,#29);
#29=APPLICATION_CONTEXT(
'core data for automotive mechanical design processes');
#30=SHAPE_REPRESENTATION('model1_objects-None',(#248),#488);
#31=OVER_RIDING_STYLED_ITEM('',(#62),#139,#59);
#32=OVER_RIDING_STYLED_ITEM('',(#63),#140,#59);
#33=OVER_RIDING_STYLED_ITEM('',(#64),#141,#59);
#34=OVER_RIDING_STYLED_ITEM('',(#65),#142,#59);
#35=OVER_RIDING_STYLED_ITEM('',(#66),#143,#59);
#36=OVER_RIDING_STYLED_ITEM('',(#67),#144,#59);
#37=OVER_RIDING_STYLED_ITEM('',(#68),#145,#59);
#38=OVER_RIDING_STYLED_ITEM('',(#69),#146,#59);
#39=OVER_RIDING_STYLED_ITEM('',(#70),#147,#59);
#40=OVER_RIDING_STYLED_ITEM('',(#71),#148,#59);
#41=COLOUR_RGB('Medium Steel',0.611764705882353,0.658823529411765,0.670588235294118);
#42=COLOUR_RGB('silver gray',0.6,0.6,0.6);
#43=TOROIDAL_SURFACE('',#265,11.25,1.);
#44=PLANE('',#261);
#45=PLANE('',#263);
#46=FACE_OUTER_BOUND('',#185,.T.);
#47=FACE_OUTER_BOUND('',#186,.T.);
#48=SURFACE_OF_REVOLUTION('',#50,#49);
#49=AXIS1_PLACEMENT('',#476,#295);
#50=B_SPLINE_CURVE_WITH_KNOTS('',3,(#410,#411,#412,#413,#414,#415,#416,
#417,#418,#419,#420,#421,#422,#423,#424,#425,#426,#427,#428,#429,#430,#431,
#432,#433,#434,#435,#436,#437,#438,#439,#440,#441,#442,#443,#444,#445,#446,
#447,#448,#449,#450,#451,#452,#453,#454,#455,#456,#457,#458,#459,#460,#461,
#462,#463,#464,#465,#466,#467,#468,#469,#470,#471,#472,#473,#474,#475),
 .UNSPECIFIED.,.T.,.F.,(2,2,2,2,2,2,2,2,2,2,2,2,2,2,2,2,2,2,2,2,2,2,2,2,
2,2,2,2,2,2,2,2,2,2,2),(-0.03125,0.,0.03125,0.0625,0.09375,0.125,0.15625,
0.1875,0.21875,0.25,0.28125,0.3125,0.34375,0.375,0.40625,0.4375,0.46875,
0.5,0.53125,0.5625,0.59375,0.625,0.65625,0.6875,0.71875,0.75,0.78125,0.8125,
0.84375,0.875,0.90625,0.9375,0.96875,1.,1.03125),.UNSPECIFIED.);
#51=CONICAL_SURFACE('',#255,12.5,44.9999999999986);
#52=CONICAL_SURFACE('',#257,12.25,1.43722699632189);
#53=CONICAL_SURFACE('',#268,12.25,9.99999999999977);
#54=CYLINDRICAL_SURFACE('',#253,12.5);
#55=CYLINDRICAL_SURFACE('',#259,10.5000000000035);
#56=CYLINDRICAL_SURFACE('',#267,12.25);
#57=PRESENTATION_LAYER_ASSIGNMENT('1','Layer 1',(#133,#134));
#58=STYLED_ITEM('',(#60),#133);
#59=STYLED_ITEM('',(#61),#134);
#60=PRESENTATION_STYLE_ASSIGNMENT((#72));
#61=PRESENTATION_STYLE_ASSIGNMENT((#73));
#62=PRESENTATION_STYLE_ASSIGNMENT((#74));
#63=PRESENTATION_STYLE_ASSIGNMENT((#75));
#64=PRESENTATION_STYLE_ASSIGNMENT((#76));
#65=PRESENTATION_STYLE_ASSIGNMENT((#77));
#66=PRESENTATION_STYLE_ASSIGNMENT((#78));
#67=PRESENTATION_STYLE_ASSIGNMENT((#79));
#68=PRESENTATION_STYLE_ASSIGNMENT((#80));
#69=PRESENTATION_STYLE_ASSIGNMENT((#81));
#70=PRESENTATION_STYLE_ASSIGNMENT((#82));
#71=PRESENTATION_STYLE_ASSIGNMENT((#83));
#72=SURFACE_STYLE_USAGE(.BOTH.,#84);
#73=SURFACE_STYLE_USAGE(.BOTH.,#85);
#74=SURFACE_STYLE_USAGE(.BOTH.,#86);
#75=SURFACE_STYLE_USAGE(.BOTH.,#87);
#76=SURFACE_STYLE_USAGE(.BOTH.,#88);
#77=SURFACE_STYLE_USAGE(.BOTH.,#89);
#78=SURFACE_STYLE_USAGE(.BOTH.,#90);
#79=SURFACE_STYLE_USAGE(.BOTH.,#91);
#80=SURFACE_STYLE_USAGE(.BOTH.,#92);
#81=SURFACE_STYLE_USAGE(.BOTH.,#93);
#82=SURFACE_STYLE_USAGE(.BOTH.,#94);
#83=SURFACE_STYLE_USAGE(.BOTH.,#95);
#84=SURFACE_SIDE_STYLE('',(#96));
#85=SURFACE_SIDE_STYLE('',(#97));
#86=SURFACE_SIDE_STYLE('',(#98));
#87=SURFACE_SIDE_STYLE('',(#99));
#88=SURFACE_SIDE_STYLE('',(#100));
#89=SURFACE_SIDE_STYLE('',(#101));
#90=SURFACE_SIDE_STYLE('',(#102));
#91=SURFACE_SIDE_STYLE('',(#103));
#92=SURFACE_SIDE_STYLE('',(#104));
#93=SURFACE_SIDE_STYLE('',(#105));
#94=SURFACE_SIDE_STYLE('',(#106));
#95=SURFACE_SIDE_STYLE('',(#107));
#96=SURFACE_STYLE_FILL_AREA(#108);
#97=SURFACE_STYLE_FILL_AREA(#109);
#98=SURFACE_STYLE_FILL_AREA(#110);
#99=SURFACE_STYLE_FILL_AREA(#111);
#100=SURFACE_STYLE_FILL_AREA(#112);
#101=SURFACE_STYLE_FILL_AREA(#113);
#102=SURFACE_STYLE_FILL_AREA(#114);
#103=SURFACE_STYLE_FILL_AREA(#115);
#104=SURFACE_STYLE_FILL_AREA(#116);
#105=SURFACE_STYLE_FILL_AREA(#117);
#106=SURFACE_STYLE_FILL_AREA(#118);
#107=SURFACE_STYLE_FILL_AREA(#119);
#108=FILL_AREA_STYLE('',(#120));
#109=FILL_AREA_STYLE('',(#121));
#110=FILL_AREA_STYLE('',(#122));
#111=FILL_AREA_STYLE('',(#123));
#112=FILL_AREA_STYLE('',(#124));
#113=FILL_AREA_STYLE('',(#125));
#114=FILL_AREA_STYLE('',(#126));
#115=FILL_AREA_STYLE('',(#127));
#116=FILL_AREA_STYLE('',(#128));
#117=FILL_AREA_STYLE('',(#129));
#118=FILL_AREA_STYLE('',(#130));
#119=FILL_AREA_STYLE('',(#131));
#120=FILL_AREA_STYLE_COLOUR('',#132);
#121=FILL_AREA_STYLE_COLOUR('',#41);
#122=FILL_AREA_STYLE_COLOUR('',#42);
#123=FILL_AREA_STYLE_COLOUR('',#42);
#124=FILL_AREA_STYLE_COLOUR('',#42);
#125=FILL_AREA_STYLE_COLOUR('',#42);
#126=FILL_AREA_STYLE_COLOUR('',#42);
#127=FILL_AREA_STYLE_COLOUR('',#42);
#128=FILL_AREA_STYLE_COLOUR('',#42);
#129=FILL_AREA_STYLE_COLOUR('',#42);
#130=FILL_AREA_STYLE_COLOUR('',#42);
#131=FILL_AREA_STYLE_COLOUR('',#42);
#132=DRAUGHTING_PRE_DEFINED_COLOUR('yellow');
#133=MANIFOLD_SOLID_BREP('',#135);
#134=MANIFOLD_SOLID_BREP('',#136);
#135=CLOSED_SHELL('',(#137,#138));
#136=CLOSED_SHELL('',(#139,#140,#141,#142,#143,#144,#145,#146,#147,#148));
#137=ADVANCED_FACE('',(#151,#152),#149,.F.);
#138=ADVANCED_FACE('',(#153,#154),#150,.F.);
#139=ADVANCED_FACE('',(#155,#156),#54,.T.);
#140=ADVANCED_FACE('',(#157,#158),#51,.T.);
#141=ADVANCED_FACE('',(#159,#160),#52,.T.);
#142=ADVANCED_FACE('',(#161,#162),#55,.T.);
#143=ADVANCED_FACE('',(#163,#164),#48,.T.);
#144=ADVANCED_FACE('',(#46),#44,.F.);
#145=ADVANCED_FACE('',(#47),#45,.F.);
#146=ADVANCED_FACE('',(#165,#166),#43,.T.);
#147=ADVANCED_FACE('',(#167,#168),#56,.T.);
#148=ADVANCED_FACE('',(#169,#170),#53,.T.);
#149=(
BOUNDED_SURFACE()
B_SPLINE_SURFACE(3,3,((#317,#318,#319,#320,#321,#322,#323),(#324,#325,#326,
#327,#328,#329,#330),(#331,#332,#333,#334,#335,#336,#337),(#338,#339,#340,
#341,#342,#343,#344),(#345,#346,#347,#348,#349,#350,#351),(#352,#353,#354,
#355,#356,#357,#358),(#359,#360,#361,#362,#363,#364,#365)),
 .UNSPECIFIED.,.T.,.F.,.F.)
B_SPLINE_SURFACE_WITH_KNOTS((1,3,3,3,1),(4,3,4),(-0.5,0.,0.5,1.,1.5),(0.,
0.5,1.),.UNSPECIFIED.)
GEOMETRIC_REPRESENTATION_ITEM()
RATIONAL_B_SPLINE_SURFACE(((1.,0.558664324538903,0.558664324538903,1.,0.558664324538903,
0.558664324538903,1.),(0.333333333333334,0.186221441512968,0.186221441512968,
0.333333333333334,0.186221441512968,0.186221441512968,0.333333333333334),
(0.333333333333334,0.186221441512968,0.186221441512968,0.333333333333334,
0.186221441512968,0.186221441512968,0.333333333333334),(1.,0.558664324538903,
0.558664324538903,1.,0.558664324538903,0.558664324538903,1.),(0.333333333333334,
0.186221441512968,0.186221441512968,0.333333333333334,0.186221441512968,
0.186221441512968,0.333333333333334),(0.333333333333334,0.186221441512968,
0.186221441512968,0.333333333333334,0.186221441512968,0.186221441512968,
0.333333333333334),(1.,0.558664324538903,0.558664324538903,1.,0.558664324538903,
0.558664324538903,1.)))
REPRESENTATION_ITEM('')
SURFACE()
);
#150=(
BOUNDED_SURFACE()
B_SPLINE_SURFACE(3,3,((#366,#367,#368,#369),(#370,#371,#372,#373),(#374,
#375,#376,#377),(#378,#379,#380,#381),(#382,#383,#384,#385),(#386,#387,
#388,#389),(#390,#391,#392,#393)),.UNSPECIFIED.,.T.,.F.,.F.)
B_SPLINE_SURFACE_WITH_KNOTS((1,3,3,3,1),(4,4),(-0.5,0.,0.5,1.,1.5),(0.,
1.),.UNSPECIFIED.)
GEOMETRIC_REPRESENTATION_ITEM()
RATIONAL_B_SPLINE_SURFACE(((1.,0.847677833206946,0.847677833206946,1.),
(0.333333333333334,0.282559277735649,0.282559277735649,0.333333333333334),
(0.333333333333334,0.282559277735649,0.282559277735649,0.333333333333334),
(1.,0.847677833206946,0.847677833206946,1.),(0.333333333333334,0.282559277735649,
0.282559277735649,0.333333333333334),(0.333333333333334,0.282559277735649,
0.282559277735649,0.333333333333334),(1.,0.847677833206946,0.847677833206946,
1.)))
REPRESENTATION_ITEM('')
SURFACE()
);
#151=FACE_BOUND('',#171,.T.);
#152=FACE_BOUND('',#172,.T.);
#153=FACE_BOUND('',#173,.T.);
#154=FACE_BOUND('',#174,.T.);
#155=FACE_BOUND('',#175,.T.);
#156=FACE_BOUND('',#176,.T.);
#157=FACE_BOUND('',#177,.T.);
#158=FACE_BOUND('',#178,.T.);
#159=FACE_BOUND('',#179,.T.);
#160=FACE_BOUND('',#180,.T.);
#161=FACE_BOUND('',#181,.T.);
#162=FACE_BOUND('',#182,.T.);
#163=FACE_BOUND('',#183,.T.);
#164=FACE_BOUND('',#184,.T.);
#165=FACE_BOUND('',#187,.T.);
#166=FACE_BOUND('',#188,.T.);
#167=FACE_BOUND('',#189,.T.);
#168=FACE_BOUND('',#190,.T.);
#169=FACE_BOUND('',#191,.T.);
#170=FACE_BOUND('',#192,.T.);
#171=EDGE_LOOP('',(#193));
#172=EDGE_LOOP('',(#194));
#173=EDGE_LOOP('',(#195));
#174=EDGE_LOOP('',(#196));
#175=EDGE_LOOP('',(#197));
#176=EDGE_LOOP('',(#198));
#177=EDGE_LOOP('',(#199));
#178=EDGE_LOOP('',(#200));
#179=EDGE_LOOP('',(#201));
#180=EDGE_LOOP('',(#202));
#181=EDGE_LOOP('',(#203));
#182=EDGE_LOOP('',(#204));
#183=EDGE_LOOP('',(#205));
#184=EDGE_LOOP('',(#206));
#185=EDGE_LOOP('',(#207));
#186=EDGE_LOOP('',(#208));
#187=EDGE_LOOP('',(#209));
#188=EDGE_LOOP('',(#210));
#189=EDGE_LOOP('',(#211));
#190=EDGE_LOOP('',(#212));
#191=EDGE_LOOP('',(#213));
#192=EDGE_LOOP('',(#214));
#193=ORIENTED_EDGE('',*,*,#226,.T.);
#194=ORIENTED_EDGE('',*,*,#227,.F.);
#195=ORIENTED_EDGE('',*,*,#227,.T.);
#196=ORIENTED_EDGE('',*,*,#226,.F.);
#197=ORIENTED_EDGE('',*,*,#228,.F.);
#198=ORIENTED_EDGE('',*,*,#229,.T.);
#199=ORIENTED_EDGE('',*,*,#230,.F.);
#200=ORIENTED_EDGE('',*,*,#228,.T.);
#201=ORIENTED_EDGE('',*,*,#231,.F.);
#202=ORIENTED_EDGE('',*,*,#230,.T.);
#203=ORIENTED_EDGE('',*,*,#232,.F.);
#204=ORIENTED_EDGE('',*,*,#231,.T.);
#205=ORIENTED_EDGE('',*,*,#233,.F.);
#206=ORIENTED_EDGE('',*,*,#232,.T.);
#207=ORIENTED_EDGE('',*,*,#233,.T.);
#208=ORIENTED_EDGE('',*,*,#234,.F.);
#209=ORIENTED_EDGE('',*,*,#235,.F.);
#210=ORIENTED_EDGE('',*,*,#234,.T.);
#211=ORIENTED_EDGE('',*,*,#236,.F.);
#212=ORIENTED_EDGE('',*,*,#235,.T.);
#213=ORIENTED_EDGE('',*,*,#229,.F.);
#214=ORIENTED_EDGE('',*,*,#236,.T.);
#215=VERTEX_POINT('',#314);
#216=VERTEX_POINT('',#316);
#217=VERTEX_POINT('',#395);
#218=VERTEX_POINT('',#397);
#219=VERTEX_POINT('',#400);
#220=VERTEX_POINT('',#403);
#221=VERTEX_POINT('',#406);
#222=VERTEX_POINT('',#409);
#223=VERTEX_POINT('',#479);
#224=VERTEX_POINT('',#482);
#225=VERTEX_POINT('',#485);
#226=EDGE_CURVE('',#215,#215,#237,.T.);
#227=EDGE_CURVE('',#216,#216,#238,.T.);
#228=EDGE_CURVE('',#217,#217,#239,.T.);
#229=EDGE_CURVE('',#218,#218,#240,.T.);
#230=EDGE_CURVE('',#219,#219,#241,.T.);
#231=EDGE_CURVE('',#220,#220,#242,.T.);
#232=EDGE_CURVE('',#221,#221,#243,.T.);
#233=EDGE_CURVE('',#222,#222,#244,.T.);
#234=EDGE_CURVE('',#223,#223,#245,.T.);
#235=EDGE_CURVE('',#224,#224,#246,.T.);
#236=EDGE_CURVE('',#225,#225,#247,.T.);
#237=CIRCLE('',#249,5.);
#238=CIRCLE('',#250,5.);
#239=CIRCLE('',#251,12.5);
#240=CIRCLE('',#252,12.5);
#241=CIRCLE('',#254,12.25);
#242=CIRCLE('',#256,10.5);
#243=CIRCLE('',#258,10.5000000000069);
#244=CIRCLE('',#260,3.99739827745198);
#245=CIRCLE('',#262,11.25);
#246=CIRCLE('',#264,12.25);
#247=CIRCLE('',#266,12.25);
#248=AXIS2_PLACEMENT_3D('',#312,#269,#270);
#249=AXIS2_PLACEMENT_3D('',#313,#271,#272);
#250=AXIS2_PLACEMENT_3D('',#315,#273,#274);
#251=AXIS2_PLACEMENT_3D('',#394,#275,#276);
#252=AXIS2_PLACEMENT_3D('',#396,#277,#278);
#253=AXIS2_PLACEMENT_3D('',#398,#279,#280);
#254=AXIS2_PLACEMENT_3D('',#399,#281,#282);
#255=AXIS2_PLACEMENT_3D('',#401,#283,#284);
#256=AXIS2_PLACEMENT_3D('',#402,#285,#286);
#257=AXIS2_PLACEMENT_3D('',#404,#287,#288);
#258=AXIS2_PLACEMENT_3D('',#405,#289,#290);
#259=AXIS2_PLACEMENT_3D('',#407,#291,#292);
#260=AXIS2_PLACEMENT_3D('',#408,#293,#294);
#261=AXIS2_PLACEMENT_3D('',#477,#296,#297);
#262=AXIS2_PLACEMENT_3D('',#478,#298,#299);
#263=AXIS2_PLACEMENT_3D('',#480,#300,#301);
#264=AXIS2_PLACEMENT_3D('',#481,#302,#303);
#265=AXIS2_PLACEMENT_3D('',#483,#304,#305);
#266=AXIS2_PLACEMENT_3D('',#484,#306,#307);
#267=AXIS2_PLACEMENT_3D('',#486,#308,#309);
#268=AXIS2_PLACEMENT_3D('',#487,#310,#311);
#269=DIRECTION('',(0.,0.,1.));
#270=DIRECTION('',(1.,0.,0.));
#271=DIRECTION('',(0.,0.981691815623277,0.190476190476065));
#272=DIRECTION('',(1.,0.,0.));
#273=DIRECTION('',(0.,0.,1.));
#274=DIRECTION('',(1.,0.,0.));
#275=DIRECTION('',(-1.,0.,0.));
#276=DIRECTION('',(0.,0.,1.));
#277=DIRECTION('',(-1.,0.,0.));
#278=DIRECTION('',(0.,0.,1.));
#279=DIRECTION('',(-1.,0.,0.));
#280=DIRECTION('',(0.,0.,1.));
#281=DIRECTION('',(-1.,0.,0.));
#282=DIRECTION('',(0.,0.,1.));
#283=DIRECTION('',(1.,0.,0.));
#284=DIRECTION('',(8.22387425648304E-17,0.,-1.));
#285=DIRECTION('',(-1.,0.,0.));
#286=DIRECTION('',(0.,0.,1.));
#287=DIRECTION('',(1.,0.,0.));
#288=DIRECTION('',(0.,0.,-1.));
#289=DIRECTION('',(-1.,0.,0.));
#290=DIRECTION('',(0.,0.,1.));
#291=DIRECTION('',(-1.,0.,0.));
#292=DIRECTION('',(0.,0.,1.));
#293=DIRECTION('',(-1.,0.,0.));
#294=DIRECTION('',(0.,0.,1.));
#295=DIRECTION('',(-1.,0.,0.));
#296=DIRECTION('',(1.,0.,0.));
#297=DIRECTION('',(0.,0.,-1.));
#298=DIRECTION('',(-1.,0.,0.));
#299=DIRECTION('',(0.,0.,1.));
#300=DIRECTION('',(-1.,0.,0.));
#301=DIRECTION('',(0.,0.,1.));
#302=DIRECTION('',(-1.,0.,0.));
#303=DIRECTION('',(0.,0.,1.));
#304=DIRECTION('',(-1.,0.,0.));
#305=DIRECTION('',(0.,0.,1.));
#306=DIRECTION('',(-1.,0.,0.));
#307=DIRECTION('',(0.,0.,1.));
#308=DIRECTION('',(-1.,0.,0.));
#309=DIRECTION('',(0.,0.,1.));
#310=DIRECTION('',(-1.,0.,0.));
#311=DIRECTION('',(-2.94368649994868E-16,0.,1.));
#312=CARTESIAN_POINT('',(0.,0.,0.));
#313=CARTESIAN_POINT('',(5.,0.565548254104616,7.58523101493368));
#314=CARTESIAN_POINT('',(10.,0.565548254104616,7.58523101493368));
#315=CARTESIAN_POINT('',(5.,-7.33863573,2.));
#316=CARTESIAN_POINT('',(10.,-7.33863573,2.));
#317=CARTESIAN_POINT('',(10.,-7.33863573,2.));
#318=CARTESIAN_POINT('',(10.,-9.58482025780676,-6.24196501596791));
#319=CARTESIAN_POINT('',(10.,-2.58711902605114,-11.1417109000402));
#320=CARTESIAN_POINT('',(10.,4.38946236589141,-6.21193967421253));
#321=CARTESIAN_POINT('',(10.,11.366043757834,-1.28216844838487));
#322=CARTESIAN_POINT('',(10.,9.08446252689659,6.95006814588473));
#323=CARTESIAN_POINT('',(10.,0.565548254104614,7.58523101493368));
#324=CARTESIAN_POINT('',(10.,2.66136427,2.));
#325=CARTESIAN_POINT('',(10.,0.415179742193249,4.98895762306585));
#326=CARTESIAN_POINT('',(10.,-3.15707234743991,3.88522413460341));
#327=CARTESIAN_POINT('',(10.,-3.32570513221278,0.150150428591485));
#328=CARTESIAN_POINT('',(10.,-3.49433791698565,-3.58492327742044));
#329=CARTESIAN_POINT('',(10.,-0.0360804049803777,-5.00607337016258));
#330=CARTESIAN_POINT('',(10.,2.47031015886527,-2.23168714129909));
#331=CARTESIAN_POINT('',(-5.10076676829453E-16,2.66136427,2.));
#332=CARTESIAN_POINT('',(-5.10076676829453E-16,0.41517974219325,4.98895762306586));
#333=CARTESIAN_POINT('',(-5.10076676829453E-16,-3.15707234743991,3.88522413460341));
#334=CARTESIAN_POINT('',(-5.10076676829453E-16,-3.32570513221278,0.150150428591485));
#335=CARTESIAN_POINT('',(-5.10076676829453E-16,-3.49433791698565,-3.58492327742044));
#336=CARTESIAN_POINT('',(-5.10076676829453E-16,-0.0360804049803786,-5.00607337016259));
#337=CARTESIAN_POINT('',(-5.10076676829453E-16,2.47031015886527,-2.23168714129909));
#338=CARTESIAN_POINT('',(-1.7347234759768E-15,-7.33863573,2.));
#339=CARTESIAN_POINT('',(-1.73472347597681E-15,-9.58482025780676,-6.24196501596791));
#340=CARTESIAN_POINT('',(-1.73472347597681E-15,-2.58711902605114,-11.1417109000402));
#341=CARTESIAN_POINT('',(-1.7347234759768E-15,4.38946236589141,-6.21193967421253));
#342=CARTESIAN_POINT('',(-1.73472347597681E-15,11.366043757834,-1.28216844838487));
#343=CARTESIAN_POINT('',(-1.73472347597681E-15,9.08446252689659,6.95006814588473));
#344=CARTESIAN_POINT('',(-1.7347234759768E-15,0.565548254104615,7.58523101493368));
#345=CARTESIAN_POINT('',(-2.95937027512416E-15,-17.33863573,2.));
#346=CARTESIAN_POINT('',(-2.95937027512416E-15,-19.5848202578067,-17.4728876550016));
#347=CARTESIAN_POINT('',(-2.95937027512416E-15,-2.01716570466236,-26.1686459346838));
#348=CARTESIAN_POINT('',(-2.95937027512416E-15,12.1046298639956,-12.5740297770165));
#349=CARTESIAN_POINT('',(-2.95937027512416E-15,26.2264254326536,1.0205863806507));
#350=CARTESIAN_POINT('',(-2.95937027512416E-15,18.2050054587735,18.906209661932));
#351=CARTESIAN_POINT('',(-2.95937027512416E-15,-1.33921365065604,17.4021491711664));
#352=CARTESIAN_POINT('',(10.,-17.33863573,2.));
#353=CARTESIAN_POINT('',(10.,-19.5848202578067,-17.4728876550016));
#354=CARTESIAN_POINT('',(10.,-2.01716570466236,-26.1686459346838));
#355=CARTESIAN_POINT('',(10.,12.1046298639956,-12.5740297770165));
#356=CARTESIAN_POINT('',(10.,26.2264254326536,1.0205863806507));
#357=CARTESIAN_POINT('',(10.,18.2050054587735,18.906209661932));
#358=CARTESIAN_POINT('',(10.,-1.33921365065604,17.4021491711664));
#359=CARTESIAN_POINT('',(10.,-7.33863573,2.));
#360=CARTESIAN_POINT('',(10.,-9.58482025780676,-6.24196501596791));
#361=CARTESIAN_POINT('',(10.,-2.58711902605114,-11.1417109000402));
#362=CARTESIAN_POINT('',(10.,4.38946236589141,-6.21193967421253));
#363=CARTESIAN_POINT('',(10.,11.366043757834,-1.28216844838487));
#364=CARTESIAN_POINT('',(10.,9.08446252689659,6.95006814588473));
#365=CARTESIAN_POINT('',(10.,0.565548254104614,7.58523101493368));
#366=CARTESIAN_POINT('',(10.,0.565548254104616,7.58523101493368));
#367=CARTESIAN_POINT('',(10.,-3.2297555179288,7.86820557666348));
#368=CARTESIAN_POINT('',(10.,-6.33792691452391,5.67191873428943));
#369=CARTESIAN_POINT('',(10.,-7.33863573,2.));
#370=CARTESIAN_POINT('',(10.,2.47031015886527,-2.23168714129909));
#371=CARTESIAN_POINT('',(10.,3.58694465670659,-0.995656564830771));
#372=CARTESIAN_POINT('',(10.,3.66207308547609,0.668374656908944));
#373=CARTESIAN_POINT('',(10.,2.66136427,2.));
#374=CARTESIAN_POINT('',(-5.10076676829453E-16,2.47031015886527,-2.23168714129909));
#375=CARTESIAN_POINT('',(-5.10076676829453E-16,3.58694465670659,-0.995656564830773));
#376=CARTESIAN_POINT('',(-5.10076676829453E-16,3.6620730854761,0.668374656908944));
#377=CARTESIAN_POINT('',(-5.10076676829453E-16,2.66136427,2.));
#378=CARTESIAN_POINT('',(-1.7347234759768E-15,0.565548254104617,7.58523101493368));
#379=CARTESIAN_POINT('',(-1.73472347597681E-15,-3.2297555179288,7.86820557666348));
#380=CARTESIAN_POINT('',(-1.73472347597681E-15,-6.33792691452391,5.67191873428943));
#381=CARTESIAN_POINT('',(-1.7347234759768E-15,-7.33863573,2.));
#382=CARTESIAN_POINT('',(-2.95937027512416E-15,-1.33921365065603,17.4021491711664));
#383=CARTESIAN_POINT('',(-2.95937027512416E-15,-10.0464556925642,16.7320677181577));
#384=CARTESIAN_POINT('',(-2.95937027512416E-15,-16.3379269145239,10.6754628116699));
#385=CARTESIAN_POINT('',(-2.95937027512416E-15,-17.33863573,2.));
#386=CARTESIAN_POINT('',(10.,-1.33921365065603,17.4021491711664));
#387=CARTESIAN_POINT('',(10.,-10.0464556925642,16.7320677181577));
#388=CARTESIAN_POINT('',(10.,-16.3379269145239,10.6754628116699));
#389=CARTESIAN_POINT('',(10.,-17.33863573,2.));
#390=CARTESIAN_POINT('',(10.,0.565548254104616,7.58523101493368));
#391=CARTESIAN_POINT('',(10.,-3.2297555179288,7.86820557666348));
#392=CARTESIAN_POINT('',(10.,-6.33792691452391,5.67191873428943));
#393=CARTESIAN_POINT('',(10.,-7.33863573,2.));
#394=CARTESIAN_POINT('',(100.,0.,0.));
#395=CARTESIAN_POINT('',(100.,0.,12.5));
#396=CARTESIAN_POINT('',(194.582179545096,0.,0.));
#397=CARTESIAN_POINT('',(194.582179545096,0.,12.5));
#398=CARTESIAN_POINT('',(0.,0.,0.));
#399=CARTESIAN_POINT('',(99.75,0.,0.));
#400=CARTESIAN_POINT('',(99.75,0.,12.25));
#401=CARTESIAN_POINT('',(100.,0.,0.));
#402=CARTESIAN_POINT('',(30.,0.,0.));
#403=CARTESIAN_POINT('',(30.,0.,10.5));
#404=CARTESIAN_POINT('',(99.75,0.,0.));
#405=CARTESIAN_POINT('',(7.60920124716296,0.,0.));
#406=CARTESIAN_POINT('',(7.60920124716296,0.,10.5000000000069));
#407=CARTESIAN_POINT('',(0.,0.,0.));
#408=CARTESIAN_POINT('',(3.,0.,0.));
#409=CARTESIAN_POINT('',(3.,0.,3.99739827745198));
#410=CARTESIAN_POINT('',(4.73493539425091,3.49588324970001,0.));
#411=CARTESIAN_POINT('',(5.26506460574909,3.49588324970001,0.));
#412=CARTESIAN_POINT('',(5.52778668057997,3.52013832988191,0.));
#413=CARTESIAN_POINT('',(6.04812125269763,3.61759238836008,0.));
#414=CARTESIAN_POINT('',(6.30169646040778,3.69026358584928,0.));
#415=CARTESIAN_POINT('',(6.78909960473284,3.88156300972516,0.));
#416=CARTESIAN_POINT('',(7.02615953321258,4.00184298609434,0.));
#417=CARTESIAN_POINT('',(7.47013347105723,4.28607714525962,0.));
#418=CARTESIAN_POINT('',(7.6754659280637,4.44834347864846,0.));
#419=CARTESIAN_POINT('',(8.05258938005106,4.81345586549241,0.));
#420=CARTESIAN_POINT('',(8.22490276701835,5.01803848376009,0.));
#421=CARTESIAN_POINT('',(8.51988160583045,5.45092139722966,0.));
#422=CARTESIAN_POINT('',(8.64482850580629,5.68095510484951,0.));
#423=CARTESIAN_POINT('',(8.84848146732278,6.16890392345646,0.));
#424=CARTESIAN_POINT('',(8.92476026782994,6.42193807350718,0.));
#425=CARTESIAN_POINT('',(9.02512915059869,6.93513720673205,0.));
#426=CARTESIAN_POINT('',(9.04982922998881,7.1994142926657,0.));
#427=CARTESIAN_POINT('',(9.04578155903716,7.72694272033457,0.));
#428=CARTESIAN_POINT('',(9.01760931976783,7.98700027776366,0.));
#429=CARTESIAN_POINT('',(8.91041450330536,8.49990712353329,0.));
#430=CARTESIAN_POINT('',(8.83003301433424,8.75498524904251,0.));
#431=CARTESIAN_POINT('',(8.62385503163459,9.2372026107165,0.));
#432=CARTESIAN_POINT('',(8.49809023853949,9.46646473596315,0.));
#433=CARTESIAN_POINT('',(8.20090323367991,9.90113610775998,0.));
#434=CARTESIAN_POINT('',(8.02972834810784,10.1050152031632,0.));
#435=CARTESIAN_POINT('',(7.65617284772374,10.4711352419229,0.));
#436=CARTESIAN_POINT('',(7.45225950628704,10.6358003861616,0.));
#437=CARTESIAN_POINT('',(7.00879341155117,10.9268721446618,0.));
#438=CARTESIAN_POINT('',(6.77657658564802,11.0484608631865,0.));
#439=CARTESIAN_POINT('',(6.29215160816058,11.2457746788892,0.));
#440=CARTESIAN_POINT('',(6.03715893474069,11.3219427129929,0.));
#441=CARTESIAN_POINT('',(5.52026668742432,11.4227247821731,0.));
#442=CARTESIAN_POINT('',(5.25993196012728,11.4476817039894,0.));
#443=CARTESIAN_POINT('',(4.73553447647531,11.4473896126486,0.));
#444=CARTESIAN_POINT('',(4.46946650157899,11.4213114429267,0.));
#445=CARTESIAN_POINT('',(3.95520182322548,11.319843937303,0.));
#446=CARTESIAN_POINT('',(3.70459535708687,11.2448242131336,0.));
#447=CARTESIAN_POINT('',(3.21667179152449,11.0453285192456,0.));
#448=CARTESIAN_POINT('',(2.98173420420608,10.9212137064438,0.));
#449=CARTESIAN_POINT('',(2.54493797503343,10.633386196531,0.));
#450=CARTESIAN_POINT('',(2.33999060184025,10.4681050468561,0.));
#451=CARTESIAN_POINT('',(1.96257280600784,10.0967169740649,0.));
#452=CARTESIAN_POINT('',(1.79480581187675,9.89549472521345,0.));
#453=CARTESIAN_POINT('',(1.49992173852676,9.46290872167871,0.));
#454=CARTESIAN_POINT('',(1.37181576855649,9.22873242214134,0.));
#455=CARTESIAN_POINT('',(1.16637237373907,8.74485801329372,0.));
#456=CARTESIAN_POINT('',(1.08821296315279,8.49519860242775,0.));
#457=CARTESIAN_POINT('',(0.981391334471683,7.98031821912421,0.));
#458=CARTESIAN_POINT('',(0.953472095182456,7.71490553953603,0.));
#459=CARTESIAN_POINT('',(0.95078845361702,7.19134593747023,0.));
#460=CARTESIAN_POINT('',(0.975229771101503,6.93028458776307,0.));
#461=CARTESIAN_POINT('',(1.07823446146546,6.40974347768652,0.));
#462=CARTESIAN_POINT('',(1.15505102941233,6.15910470996144,0.));
#463=CARTESIAN_POINT('',(1.35762625719317,5.67644910985957,0.));
#464=CARTESIAN_POINT('',(1.48534837969309,5.44192141212566,0.));
#465=CARTESIAN_POINT('',(1.78256261821907,5.00846590464601,0.));
#466=CARTESIAN_POINT('',(1.95140176770018,4.80903801580644,0.));
#467=CARTESIAN_POINT('',(2.32914791093864,4.44444317414551,0.));
#468=CARTESIAN_POINT('',(2.53933664212821,4.27928184137547,0.));
#469=CARTESIAN_POINT('',(2.98049822476077,3.99834045234533,0.));
#470=CARTESIAN_POINT('',(3.21357651468255,3.88018636512892,0.));
#471=CARTESIAN_POINT('',(3.70452741911323,3.68815306701443,0.));
#472=CARTESIAN_POINT('',(3.9598783555831,3.61578679579771,0.));
#473=CARTESIAN_POINT('',(4.47394243580655,3.52012769120133,0.));
#474=CARTESIAN_POINT('',(4.73493539425091,3.49588324970001,0.));
#475=CARTESIAN_POINT('',(5.26506460574909,3.49588324970001,0.));
#476=CARTESIAN_POINT('',(0.,0.,0.));
#477=CARTESIAN_POINT('',(3.,0.,0.));
#478=CARTESIAN_POINT('',(200.,0.,0.));
#479=CARTESIAN_POINT('',(200.,0.,11.25));
#480=CARTESIAN_POINT('',(200.,0.,0.));
#481=CARTESIAN_POINT('',(199.,0.,0.));
#482=CARTESIAN_POINT('',(199.,0.,12.25));
#483=CARTESIAN_POINT('',(199.,0.,0.));
#484=CARTESIAN_POINT('',(196.,0.,0.));
#485=CARTESIAN_POINT('',(196.,0.,12.25));
#486=CARTESIAN_POINT('',(0.,0.,0.));
#487=CARTESIAN_POINT('',(196.,0.,0.));
#488=(
GEOMETRIC_REPRESENTATION_CONTEXT(3)
GLOBAL_UNCERTAINTY_ASSIGNED_CONTEXT((#489))
GLOBAL_UNIT_ASSIGNED_CONTEXT((#495,#491,#490))
REPRESENTATION_CONTEXT('model1','TOP_LEVEL_ASSEMBLY_PART')
);
#489=UNCERTAINTY_MEASURE_WITH_UNIT(LENGTH_MEASURE(2.E-5),#495,
'DISTANCE_ACCURACY_VALUE','Maximum Tolerance applied to model');
#490=(
NAMED_UNIT(*)
SI_UNIT($,.STERADIAN.)
SOLID_ANGLE_UNIT()
);
#491=(
CONVERSION_BASED_UNIT('DEGREE',#493)
NAMED_UNIT(#492)
PLANE_ANGLE_UNIT()
);
#492=DIMENSIONAL_EXPONENTS(0.,0.,0.,0.,0.,0.,0.);
#493=PLANE_ANGLE_MEASURE_WITH_UNIT(PLANE_ANGLE_MEASURE(0.0174532925),#494);
#494=(
NAMED_UNIT(*)
PLANE_ANGLE_UNIT()
SI_UNIT($,.RADIAN.)
);
#495=(
LENGTH_UNIT()
NAMED_UNIT(*)
SI_UNIT(.MILLI.,.METRE.)
);
ENDSEC;
END-ISO-10303-21;
