ISO-10303-21;
HEADER;
/* Generated by software containing ST-Developer
 * from STEP Tools, Inc. (www.steptools.com) 
 */
/* OPTION: using custom schema-name function */

FILE_DESCRIPTION(
/* description */ (''),
/* implementation_level */ '2;1');

FILE_NAME(
/* name */ 'model1.stp',
/* time_stamp */ '2023-11-07T09:32:42+03:00',
/* author */ (''),
/* organization */ (''),
/* preprocessor_version */ 'ST-DEVELOPER v19.4',
/* originating_system */ 'SIEMENS PLM Software NX2306.3001',
/* authorisation */ '');

FILE_SCHEMA (('AUTOMOTIVE_DESIGN { 1 0 10303 214 3 1 1 1 }'));
ENDSEC;

DATA;
#10=PROPERTY_DEFINITION_REPRESENTATION(#14,#12);
#11=PROPERTY_DEFINITION_REPRESENTATION(#15,#13);
#12=REPRESENTATION('',(#16),#569);
#13=REPRESENTATION('',(#17),#569);
#14=PROPERTY_DEFINITION('pmi validation property','',#21);
#15=PROPERTY_DEFINITION('pmi validation property','',#21);
#16=VALUE_REPRESENTATION_ITEM('number of annotations',COUNT_MEASURE(0.));
#17=VALUE_REPRESENTATION_ITEM('number of views',COUNT_MEASURE(0.));
#18=SHAPE_REPRESENTATION_RELATIONSHIP('None',
'relationship between model1_objects-None and model1_objects-None',#30,
#19);
#19=ADVANCED_BREP_SHAPE_REPRESENTATION('model1_objects-None',(#157,#158),
#569);
#20=SHAPE_DEFINITION_REPRESENTATION(#21,#30);
#21=PRODUCT_DEFINITION_SHAPE('','',#22);
#22=PRODUCT_DEFINITION(' ','',#24,#23);
#23=PRODUCT_DEFINITION_CONTEXT('part definition',#29,'design');
#24=PRODUCT_DEFINITION_FORMATION_WITH_SPECIFIED_SOURCE(' ',' ',#26,
 .NOT_KNOWN.);
#25=PRODUCT_RELATED_PRODUCT_CATEGORY('part','',(#26));
#26=PRODUCT('model1_objects','model1_objects',' ',(#27));
#27=PRODUCT_CONTEXT(' ',#29,'mechanical');
#28=APPLICATION_PROTOCOL_DEFINITION('international standard',
'automotive_design',2010,#29);
#29=APPLICATION_CONTEXT(
'core data for automotive mechanical design processes');
#30=SHAPE_REPRESENTATION('model1_objects-None',(#302),#569);
#31=OVER_RIDING_STYLED_ITEM('',(#68),#163,#65);
#32=OVER_RIDING_STYLED_ITEM('',(#69),#164,#65);
#33=OVER_RIDING_STYLED_ITEM('',(#70),#165,#65);
#34=OVER_RIDING_STYLED_ITEM('',(#71),#166,#65);
#35=OVER_RIDING_STYLED_ITEM('',(#72),#167,#65);
#36=OVER_RIDING_STYLED_ITEM('',(#73),#168,#65);
#37=OVER_RIDING_STYLED_ITEM('',(#74),#169,#65);
#38=OVER_RIDING_STYLED_ITEM('',(#75),#170,#65);
#39=OVER_RIDING_STYLED_ITEM('',(#76),#171,#65);
#40=OVER_RIDING_STYLED_ITEM('',(#77),#172,#65);
#41=OVER_RIDING_STYLED_ITEM('',(#78),#173,#65);
#42=OVER_RIDING_STYLED_ITEM('',(#79),#174,#65);
#43=OVER_RIDING_STYLED_ITEM('',(#80),#175,#65);
#44=COLOUR_RGB('Medium Steel',0.611764705882353,0.658823529411765,0.670588235294118);
#45=COLOUR_RGB('silver gray',0.6,0.6,0.6);
#46=SURFACE_OF_REVOLUTION('',#48,#47);
#47=AXIS1_PLACEMENT('',#567,#381);
#48=B_SPLINE_CURVE_WITH_KNOTS('',3,(#501,#502,#503,#504,#505,#506,#507,
#508,#509,#510,#511,#512,#513,#514,#515,#516,#517,#518,#519,#520,#521,#522,
#523,#524,#525,#526,#527,#528,#529,#530,#531,#532,#533,#534,#535,#536,#537,
#538,#539,#540,#541,#542,#543,#544,#545,#546,#547,#548,#549,#550,#551,#552,
#553,#554,#555,#556,#557,#558,#559,#560,#561,#562,#563,#564,#565,#566),
 .UNSPECIFIED.,.T.,.F.,(2,2,2,2,2,2,2,2,2,2,2,2,2,2,2,2,2,2,2,2,2,2,2,2,
2,2,2,2,2,2,2,2,2,2,2),(-0.03125,0.,0.03125,0.0625,0.09375,0.125,0.15625,
0.1875,0.21875,0.25,0.28125,0.3125,0.34375,0.375,0.40625,0.4375,0.46875,
0.5,0.53125,0.5625,0.59375,0.625,0.65625,0.6875,0.71875,0.75,0.78125,0.8125,
0.84375,0.875,0.90625,0.9375,0.96875,1.,1.03125),.UNSPECIFIED.);
#49=PLANE('',#324);
#50=PLANE('',#326);
#51=FACE_OUTER_BOUND('',#226,.T.);
#52=FACE_OUTER_BOUND('',#227,.T.);
#53=CYLINDRICAL_SURFACE('',#313,15.75);
#54=CYLINDRICAL_SURFACE('',#317,16.);
#55=CYLINDRICAL_SURFACE('',#321,15.75);
#56=CYLINDRICAL_SURFACE('',#328,18.);
#57=CONICAL_SURFACE('',#309,15.9203708685547,14.9999999999996);
#58=CONICAL_SURFACE('',#315,16.,30.0000000000001);
#59=CONICAL_SURFACE('',#319,15.75,9.99999999999998);
#60=TOROIDAL_SURFACE('',#307,13.,5.);
#61=TOROIDAL_SURFACE('',#311,20.75,5.);
#62=TOROIDAL_SURFACE('',#323,14.75,1.);
#63=PRESENTATION_LAYER_ASSIGNMENT('1','Layer 1',(#157,#158));
#64=STYLED_ITEM('',(#66),#157);
#65=STYLED_ITEM('',(#67),#158);
#66=PRESENTATION_STYLE_ASSIGNMENT((#81));
#67=PRESENTATION_STYLE_ASSIGNMENT((#82));
#68=PRESENTATION_STYLE_ASSIGNMENT((#83));
#69=PRESENTATION_STYLE_ASSIGNMENT((#84));
#70=PRESENTATION_STYLE_ASSIGNMENT((#85));
#71=PRESENTATION_STYLE_ASSIGNMENT((#86));
#72=PRESENTATION_STYLE_ASSIGNMENT((#87));
#73=PRESENTATION_STYLE_ASSIGNMENT((#88));
#74=PRESENTATION_STYLE_ASSIGNMENT((#89));
#75=PRESENTATION_STYLE_ASSIGNMENT((#90));
#76=PRESENTATION_STYLE_ASSIGNMENT((#91));
#77=PRESENTATION_STYLE_ASSIGNMENT((#92));
#78=PRESENTATION_STYLE_ASSIGNMENT((#93));
#79=PRESENTATION_STYLE_ASSIGNMENT((#94));
#80=PRESENTATION_STYLE_ASSIGNMENT((#95));
#81=SURFACE_STYLE_USAGE(.BOTH.,#96);
#82=SURFACE_STYLE_USAGE(.BOTH.,#97);
#83=SURFACE_STYLE_USAGE(.BOTH.,#98);
#84=SURFACE_STYLE_USAGE(.BOTH.,#99);
#85=SURFACE_STYLE_USAGE(.BOTH.,#100);
#86=SURFACE_STYLE_USAGE(.BOTH.,#101);
#87=SURFACE_STYLE_USAGE(.BOTH.,#102);
#88=SURFACE_STYLE_USAGE(.BOTH.,#103);
#89=SURFACE_STYLE_USAGE(.BOTH.,#104);
#90=SURFACE_STYLE_USAGE(.BOTH.,#105);
#91=SURFACE_STYLE_USAGE(.BOTH.,#106);
#92=SURFACE_STYLE_USAGE(.BOTH.,#107);
#93=SURFACE_STYLE_USAGE(.BOTH.,#108);
#94=SURFACE_STYLE_USAGE(.BOTH.,#109);
#95=SURFACE_STYLE_USAGE(.BOTH.,#110);
#96=SURFACE_SIDE_STYLE('',(#111));
#97=SURFACE_SIDE_STYLE('',(#112));
#98=SURFACE_SIDE_STYLE('',(#113));
#99=SURFACE_SIDE_STYLE('',(#114));
#100=SURFACE_SIDE_STYLE('',(#115));
#101=SURFACE_SIDE_STYLE('',(#116));
#102=SURFACE_SIDE_STYLE('',(#117));
#103=SURFACE_SIDE_STYLE('',(#118));
#104=SURFACE_SIDE_STYLE('',(#119));
#105=SURFACE_SIDE_STYLE('',(#120));
#106=SURFACE_SIDE_STYLE('',(#121));
#107=SURFACE_SIDE_STYLE('',(#122));
#108=SURFACE_SIDE_STYLE('',(#123));
#109=SURFACE_SIDE_STYLE('',(#124));
#110=SURFACE_SIDE_STYLE('',(#125));
#111=SURFACE_STYLE_FILL_AREA(#126);
#112=SURFACE_STYLE_FILL_AREA(#127);
#113=SURFACE_STYLE_FILL_AREA(#128);
#114=SURFACE_STYLE_FILL_AREA(#129);
#115=SURFACE_STYLE_FILL_AREA(#130);
#116=SURFACE_STYLE_FILL_AREA(#131);
#117=SURFACE_STYLE_FILL_AREA(#132);
#118=SURFACE_STYLE_FILL_AREA(#133);
#119=SURFACE_STYLE_FILL_AREA(#134);
#120=SURFACE_STYLE_FILL_AREA(#135);
#121=SURFACE_STYLE_FILL_AREA(#136);
#122=SURFACE_STYLE_FILL_AREA(#137);
#123=SURFACE_STYLE_FILL_AREA(#138);
#124=SURFACE_STYLE_FILL_AREA(#139);
#125=SURFACE_STYLE_FILL_AREA(#140);
#126=FILL_AREA_STYLE('',(#141));
#127=FILL_AREA_STYLE('',(#142));
#128=FILL_AREA_STYLE('',(#143));
#129=FILL_AREA_STYLE('',(#144));
#130=FILL_AREA_STYLE('',(#145));
#131=FILL_AREA_STYLE('',(#146));
#132=FILL_AREA_STYLE('',(#147));
#133=FILL_AREA_STYLE('',(#148));
#134=FILL_AREA_STYLE('',(#149));
#135=FILL_AREA_STYLE('',(#150));
#136=FILL_AREA_STYLE('',(#151));
#137=FILL_AREA_STYLE('',(#152));
#138=FILL_AREA_STYLE('',(#153));
#139=FILL_AREA_STYLE('',(#154));
#140=FILL_AREA_STYLE('',(#155));
#141=FILL_AREA_STYLE_COLOUR('',#156);
#142=FILL_AREA_STYLE_COLOUR('',#44);
#143=FILL_AREA_STYLE_COLOUR('',#45);
#144=FILL_AREA_STYLE_COLOUR('',#45);
#145=FILL_AREA_STYLE_COLOUR('',#45);
#146=FILL_AREA_STYLE_COLOUR('',#45);
#147=FILL_AREA_STYLE_COLOUR('',#45);
#148=FILL_AREA_STYLE_COLOUR('',#45);
#149=FILL_AREA_STYLE_COLOUR('',#45);
#150=FILL_AREA_STYLE_COLOUR('',#45);
#151=FILL_AREA_STYLE_COLOUR('',#45);
#152=FILL_AREA_STYLE_COLOUR('',#45);
#153=FILL_AREA_STYLE_COLOUR('',#45);
#154=FILL_AREA_STYLE_COLOUR('',#45);
#155=FILL_AREA_STYLE_COLOUR('',#45);
#156=DRAUGHTING_PRE_DEFINED_COLOUR('yellow');
#157=MANIFOLD_SOLID_BREP('',#159);
#158=MANIFOLD_SOLID_BREP('',#160);
#159=CLOSED_SHELL('',(#161,#162));
#160=CLOSED_SHELL('',(#163,#164,#165,#166,#167,#168,#169,#170,#171,#172,
#173,#174,#175));
#161=ADVANCED_FACE('',(#178,#179),#176,.F.);
#162=ADVANCED_FACE('',(#180,#181),#177,.F.);
#163=ADVANCED_FACE('',(#182,#183),#60,.T.);
#164=ADVANCED_FACE('',(#184,#185),#57,.T.);
#165=ADVANCED_FACE('',(#186,#187),#61,.F.);
#166=ADVANCED_FACE('',(#188,#189),#53,.T.);
#167=ADVANCED_FACE('',(#190,#191),#58,.T.);
#168=ADVANCED_FACE('',(#192,#193),#54,.T.);
#169=ADVANCED_FACE('',(#194,#195),#59,.T.);
#170=ADVANCED_FACE('',(#196,#197),#55,.T.);
#171=ADVANCED_FACE('',(#198,#199),#62,.T.);
#172=ADVANCED_FACE('',(#51),#49,.F.);
#173=ADVANCED_FACE('',(#52),#50,.F.);
#174=ADVANCED_FACE('',(#200,#201),#46,.T.);
#175=ADVANCED_FACE('',(#202,#203),#56,.T.);
#176=(
BOUNDED_SURFACE()
B_SPLINE_SURFACE(3,3,((#389,#390,#391,#392,#393,#394,#395),(#396,#397,#398,
#399,#400,#401,#402),(#403,#404,#405,#406,#407,#408,#409),(#410,#411,#412,
#413,#414,#415,#416),(#417,#418,#419,#420,#421,#422,#423),(#424,#425,#426,
#427,#428,#429,#430),(#431,#432,#433,#434,#435,#436,#437)),
 .UNSPECIFIED.,.T.,.F.,.F.)
B_SPLINE_SURFACE_WITH_KNOTS((1,3,3,3,1),(4,3,4),(-0.5,0.,0.5,1.,1.5),(0.,
0.5,1.),.UNSPECIFIED.)
GEOMETRIC_REPRESENTATION_ITEM()
RATIONAL_B_SPLINE_SURFACE(((1.,0.571214726515393,0.571214726515393,1.,0.571214726515393,
0.571214726515393,1.),(0.333333333333334,0.190404908838465,0.190404908838465,
0.333333333333334,0.190404908838465,0.190404908838465,0.333333333333334),
(0.333333333333334,0.190404908838465,0.190404908838465,0.333333333333334,
0.190404908838465,0.190404908838465,0.333333333333334),(1.,0.571214726515393,
0.571214726515393,1.,0.571214726515393,0.571214726515393,1.),(0.333333333333334,
0.190404908838465,0.190404908838465,0.333333333333334,0.190404908838465,
0.190404908838465,0.333333333333334),(0.333333333333334,0.190404908838465,
0.190404908838465,0.333333333333334,0.190404908838465,0.190404908838465,
0.333333333333334),(1.,0.571214726515393,0.571214726515393,1.,0.571214726515393,
0.571214726515393,1.)))
REPRESENTATION_ITEM('')
SURFACE()
);
#177=(
BOUNDED_SURFACE()
B_SPLINE_SURFACE(3,3,((#438,#439,#440,#441),(#442,#443,#444,#445),(#446,
#447,#448,#449),(#450,#451,#452,#453),(#454,#455,#456,#457),(#458,#459,
#460,#461),(#462,#463,#464,#465)),.UNSPECIFIED.,.T.,.F.,.F.)
B_SPLINE_SURFACE_WITH_KNOTS((1,3,3,3,1),(4,4),(-0.5,0.,0.5,1.,1.5),(0.,
1.),.UNSPECIFIED.)
GEOMETRIC_REPRESENTATION_ITEM()
RATIONAL_B_SPLINE_SURFACE(((1.,0.830237328333287,0.830237328333287,1.),
(0.333333333333334,0.276745776111096,0.276745776111096,0.333333333333334),
(0.333333333333334,0.276745776111096,0.276745776111096,0.333333333333334),
(1.,0.830237328333287,0.830237328333287,1.),(0.333333333333334,0.276745776111096,
0.276745776111096,0.333333333333334),(0.333333333333334,0.276745776111096,
0.276745776111096,0.333333333333334),(1.,0.830237328333287,0.830237328333287,
1.)))
REPRESENTATION_ITEM('')
SURFACE()
);
#178=FACE_BOUND('',#204,.T.);
#179=FACE_BOUND('',#205,.T.);
#180=FACE_BOUND('',#206,.T.);
#181=FACE_BOUND('',#207,.T.);
#182=FACE_BOUND('',#208,.T.);
#183=FACE_BOUND('',#209,.T.);
#184=FACE_BOUND('',#210,.T.);
#185=FACE_BOUND('',#211,.T.);
#186=FACE_BOUND('',#212,.T.);
#187=FACE_BOUND('',#213,.T.);
#188=FACE_BOUND('',#214,.T.);
#189=FACE_BOUND('',#215,.T.);
#190=FACE_BOUND('',#216,.T.);
#191=FACE_BOUND('',#217,.T.);
#192=FACE_BOUND('',#218,.T.);
#193=FACE_BOUND('',#219,.T.);
#194=FACE_BOUND('',#220,.T.);
#195=FACE_BOUND('',#221,.T.);
#196=FACE_BOUND('',#222,.T.);
#197=FACE_BOUND('',#223,.T.);
#198=FACE_BOUND('',#224,.T.);
#199=FACE_BOUND('',#225,.T.);
#200=FACE_BOUND('',#228,.T.);
#201=FACE_BOUND('',#229,.T.);
#202=FACE_BOUND('',#230,.T.);
#203=FACE_BOUND('',#231,.T.);
#204=EDGE_LOOP('',(#232));
#205=EDGE_LOOP('',(#233));
#206=EDGE_LOOP('',(#234));
#207=EDGE_LOOP('',(#235));
#208=EDGE_LOOP('',(#236));
#209=EDGE_LOOP('',(#237));
#210=EDGE_LOOP('',(#238));
#211=EDGE_LOOP('',(#239));
#212=EDGE_LOOP('',(#240));
#213=EDGE_LOOP('',(#241));
#214=EDGE_LOOP('',(#242));
#215=EDGE_LOOP('',(#243));
#216=EDGE_LOOP('',(#244));
#217=EDGE_LOOP('',(#245));
#218=EDGE_LOOP('',(#246));
#219=EDGE_LOOP('',(#247));
#220=EDGE_LOOP('',(#248));
#221=EDGE_LOOP('',(#249));
#222=EDGE_LOOP('',(#250));
#223=EDGE_LOOP('',(#251));
#224=EDGE_LOOP('',(#252));
#225=EDGE_LOOP('',(#253));
#226=EDGE_LOOP('',(#254));
#227=EDGE_LOOP('',(#255));
#228=EDGE_LOOP('',(#256));
#229=EDGE_LOOP('',(#257));
#230=EDGE_LOOP('',(#258));
#231=EDGE_LOOP('',(#259));
#232=ORIENTED_EDGE('',*,*,#274,.T.);
#233=ORIENTED_EDGE('',*,*,#275,.F.);
#234=ORIENTED_EDGE('',*,*,#275,.T.);
#235=ORIENTED_EDGE('',*,*,#274,.F.);
#236=ORIENTED_EDGE('',*,*,#276,.F.);
#237=ORIENTED_EDGE('',*,*,#277,.T.);
#238=ORIENTED_EDGE('',*,*,#277,.F.);
#239=ORIENTED_EDGE('',*,*,#278,.T.);
#240=ORIENTED_EDGE('',*,*,#278,.F.);
#241=ORIENTED_EDGE('',*,*,#279,.T.);
#242=ORIENTED_EDGE('',*,*,#279,.F.);
#243=ORIENTED_EDGE('',*,*,#280,.T.);
#244=ORIENTED_EDGE('',*,*,#280,.F.);
#245=ORIENTED_EDGE('',*,*,#281,.T.);
#246=ORIENTED_EDGE('',*,*,#281,.F.);
#247=ORIENTED_EDGE('',*,*,#282,.T.);
#248=ORIENTED_EDGE('',*,*,#282,.F.);
#249=ORIENTED_EDGE('',*,*,#283,.T.);
#250=ORIENTED_EDGE('',*,*,#283,.F.);
#251=ORIENTED_EDGE('',*,*,#284,.T.);
#252=ORIENTED_EDGE('',*,*,#284,.F.);
#253=ORIENTED_EDGE('',*,*,#285,.T.);
#254=ORIENTED_EDGE('',*,*,#285,.F.);
#255=ORIENTED_EDGE('',*,*,#286,.T.);
#256=ORIENTED_EDGE('',*,*,#286,.F.);
#257=ORIENTED_EDGE('',*,*,#287,.T.);
#258=ORIENTED_EDGE('',*,*,#287,.F.);
#259=ORIENTED_EDGE('',*,*,#276,.T.);
#260=VERTEX_POINT('',#386);
#261=VERTEX_POINT('',#388);
#262=VERTEX_POINT('',#467);
#263=VERTEX_POINT('',#469);
#264=VERTEX_POINT('',#472);
#265=VERTEX_POINT('',#475);
#266=VERTEX_POINT('',#478);
#267=VERTEX_POINT('',#481);
#268=VERTEX_POINT('',#484);
#269=VERTEX_POINT('',#487);
#270=VERTEX_POINT('',#490);
#271=VERTEX_POINT('',#493);
#272=VERTEX_POINT('',#497);
#273=VERTEX_POINT('',#500);
#274=EDGE_CURVE('',#260,#260,#288,.T.);
#275=EDGE_CURVE('',#261,#261,#289,.T.);
#276=EDGE_CURVE('',#262,#262,#290,.T.);
#277=EDGE_CURVE('',#263,#263,#291,.T.);
#278=EDGE_CURVE('',#264,#264,#292,.T.);
#279=EDGE_CURVE('',#265,#265,#293,.T.);
#280=EDGE_CURVE('',#266,#266,#294,.T.);
#281=EDGE_CURVE('',#267,#267,#295,.T.);
#282=EDGE_CURVE('',#268,#268,#296,.T.);
#283=EDGE_CURVE('',#269,#269,#297,.T.);
#284=EDGE_CURVE('',#270,#270,#298,.T.);
#285=EDGE_CURVE('',#271,#271,#299,.T.);
#286=EDGE_CURVE('',#272,#272,#300,.T.);
#287=EDGE_CURVE('',#273,#273,#301,.T.);
#288=CIRCLE('',#303,5.);
#289=CIRCLE('',#304,5.);
#290=CIRCLE('',#305,18.);
#291=CIRCLE('',#306,17.8296291314454);
#292=CIRCLE('',#308,15.9203708685547);
#293=CIRCLE('',#310,15.75);
#294=CIRCLE('',#312,15.75);
#295=CIRCLE('',#314,16.);
#296=CIRCLE('',#316,16.);
#297=CIRCLE('',#318,15.75);
#298=CIRCLE('',#320,15.75);
#299=CIRCLE('',#322,14.75);
#300=CIRCLE('',#325,11.4412615708569);
#301=CIRCLE('',#327,18.);
#302=AXIS2_PLACEMENT_3D('',#384,#329,#330);
#303=AXIS2_PLACEMENT_3D('',#385,#331,#332);
#304=AXIS2_PLACEMENT_3D('',#387,#333,#334);
#305=AXIS2_PLACEMENT_3D('',#466,#335,#336);
#306=AXIS2_PLACEMENT_3D('',#468,#337,#338);
#307=AXIS2_PLACEMENT_3D('',#470,#339,#340);
#308=AXIS2_PLACEMENT_3D('',#471,#341,#342);
#309=AXIS2_PLACEMENT_3D('',#473,#343,#344);
#310=AXIS2_PLACEMENT_3D('',#474,#345,#346);
#311=AXIS2_PLACEMENT_3D('',#476,#347,#348);
#312=AXIS2_PLACEMENT_3D('',#477,#349,#350);
#313=AXIS2_PLACEMENT_3D('',#479,#351,#352);
#314=AXIS2_PLACEMENT_3D('',#480,#353,#354);
#315=AXIS2_PLACEMENT_3D('',#482,#355,#356);
#316=AXIS2_PLACEMENT_3D('',#483,#357,#358);
#317=AXIS2_PLACEMENT_3D('',#485,#359,#360);
#318=AXIS2_PLACEMENT_3D('',#486,#361,#362);
#319=AXIS2_PLACEMENT_3D('',#488,#363,#364);
#320=AXIS2_PLACEMENT_3D('',#489,#365,#366);
#321=AXIS2_PLACEMENT_3D('',#491,#367,#368);
#322=AXIS2_PLACEMENT_3D('',#492,#369,#370);
#323=AXIS2_PLACEMENT_3D('',#494,#371,#372);
#324=AXIS2_PLACEMENT_3D('',#495,#373,#374);
#325=AXIS2_PLACEMENT_3D('',#496,#375,#376);
#326=AXIS2_PLACEMENT_3D('',#498,#377,#378);
#327=AXIS2_PLACEMENT_3D('',#499,#379,#380);
#328=AXIS2_PLACEMENT_3D('',#568,#382,#383);
#329=DIRECTION('',(0.,0.,1.));
#330=DIRECTION('',(1.,0.,0.));
#331=DIRECTION('',(0.,0.993807989999906,0.111111111111111));
#332=DIRECTION('',(1.,0.,0.));
#333=DIRECTION('',(0.,0.,1.));
#334=DIRECTION('',(1.,0.,0.));
#335=DIRECTION('',(-1.,0.,0.));
#336=DIRECTION('',(0.,0.,1.));
#337=DIRECTION('',(-1.,0.,0.));
#338=DIRECTION('',(0.,0.,1.));
#339=DIRECTION('',(-1.,0.,0.));
#340=DIRECTION('',(0.,0.,1.));
#341=DIRECTION('',(-1.,0.,0.));
#342=DIRECTION('',(0.,0.,1.));
#343=DIRECTION('',(-1.,0.,0.));
#344=DIRECTION('',(-1.22219758667507E-17,0.,1.));
#345=DIRECTION('',(-1.,0.,0.));
#346=DIRECTION('',(0.,0.,1.));
#347=DIRECTION('',(-1.,0.,0.));
#348=DIRECTION('',(0.,0.,1.));
#349=DIRECTION('',(-1.,0.,0.));
#350=DIRECTION('',(0.,0.,1.));
#351=DIRECTION('',(-1.,0.,0.));
#352=DIRECTION('',(0.,0.,1.));
#353=DIRECTION('',(-1.,0.,0.));
#354=DIRECTION('',(0.,0.,1.));
#355=DIRECTION('',(1.,0.,0.));
#356=DIRECTION('',(-1.40333174468108E-16,0.,-1.));
#357=DIRECTION('',(-1.,0.,0.));
#358=DIRECTION('',(0.,0.,1.));
#359=DIRECTION('',(-1.,0.,0.));
#360=DIRECTION('',(0.,0.,1.));
#361=DIRECTION('',(-1.,0.,0.));
#362=DIRECTION('',(0.,0.,1.));
#363=DIRECTION('',(-1.,0.,0.));
#364=DIRECTION('',(1.44502352719488E-16,0.,1.));
#365=DIRECTION('',(-1.,0.,0.));
#366=DIRECTION('',(0.,0.,1.));
#367=DIRECTION('',(-1.,0.,0.));
#368=DIRECTION('',(0.,0.,1.));
#369=DIRECTION('',(-1.,0.,0.));
#370=DIRECTION('',(0.,0.,1.));
#371=DIRECTION('',(-1.,0.,0.));
#372=DIRECTION('',(0.,0.,1.));
#373=DIRECTION('',(-1.,0.,0.));
#374=DIRECTION('',(0.,0.,1.));
#375=DIRECTION('',(-1.,0.,0.));
#376=DIRECTION('',(0.,0.,1.));
#377=DIRECTION('',(1.,0.,0.));
#378=DIRECTION('',(0.,0.,-1.));
#379=DIRECTION('',(-1.,0.,0.));
#380=DIRECTION('',(0.,0.,1.));
#381=DIRECTION('',(-1.,0.,0.));
#382=DIRECTION('',(-1.,0.,0.));
#383=DIRECTION('',(0.,0.,1.));
#384=CARTESIAN_POINT('',(0.,0.,0.));
#385=CARTESIAN_POINT('',(5.,0.332102353333145,15.0295862498377));
#386=CARTESIAN_POINT('',(10.,0.332102353333145,15.0295862498377));
#387=CARTESIAN_POINT('',(5.,-14.89962264,2.));
#388=CARTESIAN_POINT('',(10.,-14.89962264,2.));
#389=CARTESIAN_POINT('',(10.,-14.89962264,2.));
#390=CARTESIAN_POINT('',(10.,-17.080174168988,-14.2446974644984));
#391=CARTESIAN_POINT('',(10.,-2.68289577137338,-22.0781753271868));
#392=CARTESIAN_POINT('',(10.,9.77218968737829,-11.4237937449999));
#393=CARTESIAN_POINT('',(10.,22.22727514613,-0.769412162812958));
#394=CARTESIAN_POINT('',(10.,16.7184959919037,14.6675031026672));
#395=CARTESIAN_POINT('',(10.,0.332102353333148,15.0295862498377));
#396=CARTESIAN_POINT('',(10.,-4.89962263999999,2.));
#397=CARTESIAN_POINT('',(10.,-7.08017416898802,-3.34193981955819));
#398=CARTESIAN_POINT('',(10.,-2.86795059974591,-7.28507291508952));
#399=CARTESIAN_POINT('',(10.,2.31862976237899,-4.75712707833319));
#400=CARTESIAN_POINT('',(10.,7.50521012450389,-2.22918124157686));
#401=CARTESIAN_POINT('',(10.,6.99435944244073,3.51800568656364));
#402=CARTESIAN_POINT('',(10.,1.44321346444426,5.09150634983865));
#403=CARTESIAN_POINT('',(-5.10076676829453E-16,-4.89962263999999,2.));
#404=CARTESIAN_POINT('',(-5.10076676829453E-16,-7.08017416898802,-3.34193981955819));
#405=CARTESIAN_POINT('',(-5.10076676829453E-16,-2.86795059974591,-7.28507291508952));
#406=CARTESIAN_POINT('',(-5.10076676829453E-16,2.31862976237899,-4.75712707833319));
#407=CARTESIAN_POINT('',(-5.10076676829453E-16,7.50521012450389,-2.22918124157686));
#408=CARTESIAN_POINT('',(-5.10076676829453E-16,6.99435944244073,3.51800568656364));
#409=CARTESIAN_POINT('',(-5.10076676829453E-16,1.44321346444426,5.09150634983865));
#410=CARTESIAN_POINT('',(-1.7347234759768E-15,-14.89962264,2.));
#411=CARTESIAN_POINT('',(-1.73472347597681E-15,-17.080174168988,-14.2446974644984));
#412=CARTESIAN_POINT('',(-1.73472347597681E-15,-2.68289577137338,-22.0781753271868));
#413=CARTESIAN_POINT('',(-1.7347234759768E-15,9.77218968737829,-11.4237937449999));
#414=CARTESIAN_POINT('',(-1.73472347597681E-15,22.22727514613,-0.769412162812958));
#415=CARTESIAN_POINT('',(-1.73472347597681E-15,16.7184959919037,14.6675031026672));
#416=CARTESIAN_POINT('',(-1.7347234759768E-15,0.332102353333148,15.0295862498377));
#417=CARTESIAN_POINT('',(-2.95937027512416E-15,-24.89962264,2.));
#418=CARTESIAN_POINT('',(-2.95937027512416E-15,-27.080174168988,-25.1474551094385));
#419=CARTESIAN_POINT('',(-2.95937027512416E-15,-2.49784094300085,-36.871277739284));
#420=CARTESIAN_POINT('',(-2.95937027512416E-15,17.2257496123776,-18.0904604116665));
#421=CARTESIAN_POINT('',(-2.95937027512416E-15,36.949340167756,0.690356915950946));
#422=CARTESIAN_POINT('',(-2.95937027512416E-15,26.4426325413667,25.8170005187707));
#423=CARTESIAN_POINT('',(-2.95937027512416E-15,-0.779008757777967,24.9676661498368));
#424=CARTESIAN_POINT('',(10.,-24.89962264,2.));
#425=CARTESIAN_POINT('',(10.,-27.080174168988,-25.1474551094385));
#426=CARTESIAN_POINT('',(10.,-2.49784094300085,-36.871277739284));
#427=CARTESIAN_POINT('',(10.,17.2257496123776,-18.0904604116665));
#428=CARTESIAN_POINT('',(10.,36.949340167756,0.690356915950946));
#429=CARTESIAN_POINT('',(10.,26.4426325413667,25.8170005187707));
#430=CARTESIAN_POINT('',(10.,-0.779008757777967,24.9676661498368));
#431=CARTESIAN_POINT('',(10.,-14.89962264,2.));
#432=CARTESIAN_POINT('',(10.,-17.080174168988,-14.2446974644984));
#433=CARTESIAN_POINT('',(10.,-2.68289577137338,-22.0781753271868));
#434=CARTESIAN_POINT('',(10.,9.77218968737829,-11.4237937449999));
#435=CARTESIAN_POINT('',(10.,22.22727514613,-0.769412162812958));
#436=CARTESIAN_POINT('',(10.,16.7184959919037,14.6675031026672));
#437=CARTESIAN_POINT('',(10.,0.332102353333148,15.0295862498377));
#438=CARTESIAN_POINT('',(10.,0.332102353333145,15.0295862498377));
#439=CARTESIAN_POINT('',(10.,-7.71356830381354,15.2073680007765));
#440=CARTESIAN_POINT('',(10.,-13.8289783090912,9.97609825609809));
#441=CARTESIAN_POINT('',(10.,-14.89962264,2.));
#442=CARTESIAN_POINT('',(10.,1.44321346444426,5.09150634983865));
#443=CARTESIAN_POINT('',(10.,-1.28238274017616,5.86409050683789));
#444=CARTESIAN_POINT('',(10.,-3.82897830909121,4.62287660155417));
#445=CARTESIAN_POINT('',(10.,-4.89962263999999,2.));
#446=CARTESIAN_POINT('',(-5.10076676829453E-16,1.44321346444426,5.09150634983865));
#447=CARTESIAN_POINT('',(-5.10076676829454E-16,-1.28238274017616,5.86409050683789));
#448=CARTESIAN_POINT('',(-5.10076676829454E-16,-3.82897830909121,4.62287660155417));
#449=CARTESIAN_POINT('',(-5.10076676829453E-16,-4.89962263999999,2.));
#450=CARTESIAN_POINT('',(-1.7347234759768E-15,0.332102353333145,15.0295862498377));
#451=CARTESIAN_POINT('',(-1.73472347597681E-15,-7.71356830381354,15.2073680007765));
#452=CARTESIAN_POINT('',(-1.73472347597681E-15,-13.8289783090912,9.97609825609809));
#453=CARTESIAN_POINT('',(-1.7347234759768E-15,-14.89962264,2.));
#454=CARTESIAN_POINT('',(-2.95937027512416E-15,-0.779008757777967,24.9676661498368));
#455=CARTESIAN_POINT('',(-2.95937027512416E-15,-14.1447538674509,24.5506454947152));
#456=CARTESIAN_POINT('',(-2.95937027512416E-15,-23.8289783090912,15.329319910642));
#457=CARTESIAN_POINT('',(-2.95937027512416E-15,-24.89962264,2.));
#458=CARTESIAN_POINT('',(10.,-0.779008757777967,24.9676661498368));
#459=CARTESIAN_POINT('',(10.,-14.1447538674509,24.5506454947152));
#460=CARTESIAN_POINT('',(10.,-23.8289783090912,15.329319910642));
#461=CARTESIAN_POINT('',(10.,-24.89962264,2.));
#462=CARTESIAN_POINT('',(10.,0.332102353333145,15.0295862498377));
#463=CARTESIAN_POINT('',(10.,-7.71356830381354,15.2073680007765));
#464=CARTESIAN_POINT('',(10.,-13.8289783090912,9.97609825609809));
#465=CARTESIAN_POINT('',(10.,-14.89962264,2.));
#466=CARTESIAN_POINT('',(16.8533480052036,0.,0.));
#467=CARTESIAN_POINT('',(16.8533480052036,0.,18.));
#468=CARTESIAN_POINT('',(18.1474432307162,0.,0.));
#469=CARTESIAN_POINT('',(18.1474432307162,0.,17.8296291314454));
#470=CARTESIAN_POINT('',(16.8533480052036,0.,0.));
#471=CARTESIAN_POINT('',(25.2728920725952,0.,0.));
#472=CARTESIAN_POINT('',(25.2728920725952,0.,15.9203708685547));
#473=CARTESIAN_POINT('',(25.2728920725952,0.,0.));
#474=CARTESIAN_POINT('',(26.5669872981078,0.,0.));
#475=CARTESIAN_POINT('',(26.5669872981078,0.,15.75));
#476=CARTESIAN_POINT('',(26.5669872981078,0.,0.));
#477=CARTESIAN_POINT('',(34.5669872981078,0.,0.));
#478=CARTESIAN_POINT('',(34.5669872981078,0.,15.75));
#479=CARTESIAN_POINT('',(0.,0.,0.));
#480=CARTESIAN_POINT('',(35.,0.,0.));
#481=CARTESIAN_POINT('',(35.,0.,16.));
#482=CARTESIAN_POINT('',(35.,0.,0.));
#483=CARTESIAN_POINT('',(144.582179545096,0.,0.));
#484=CARTESIAN_POINT('',(144.582179545096,0.,16.));
#485=CARTESIAN_POINT('',(0.,0.,0.));
#486=CARTESIAN_POINT('',(146.,0.,0.));
#487=CARTESIAN_POINT('',(146.,0.,15.75));
#488=CARTESIAN_POINT('',(146.,0.,0.));
#489=CARTESIAN_POINT('',(149.,0.,0.));
#490=CARTESIAN_POINT('',(149.,0.,15.75));
#491=CARTESIAN_POINT('',(0.,0.,0.));
#492=CARTESIAN_POINT('',(150.,0.,0.));
#493=CARTESIAN_POINT('',(150.,0.,14.75));
#494=CARTESIAN_POINT('',(149.,0.,0.));
#495=CARTESIAN_POINT('',(150.,0.,0.));
#496=CARTESIAN_POINT('',(2.99999999999977,0.,0.));
#497=CARTESIAN_POINT('',(2.99999999999977,0.,11.4412615708569));
#498=CARTESIAN_POINT('',(2.99999999999988,0.,0.));
#499=CARTESIAN_POINT('',(7.64806423341409,0.,0.));
#500=CARTESIAN_POINT('',(7.64806423341409,0.,18.));
#501=CARTESIAN_POINT('',(4.73303607812499,10.9156683787365,0.));
#502=CARTESIAN_POINT('',(5.26696392187501,10.9156683787365,0.));
#503=CARTESIAN_POINT('',(5.53118775330281,10.9416685854319,0.));
#504=CARTESIAN_POINT('',(6.05415966313802,11.0454967434424,0.));
#505=CARTESIAN_POINT('',(6.30779738023761,11.122499613211,0.));
#506=CARTESIAN_POINT('',(6.7944980603351,11.3232949781534,0.));
#507=CARTESIAN_POINT('',(7.03060011800711,11.448752932819,0.));
#508=CARTESIAN_POINT('',(7.47233405964016,11.7428622061102,0.));
#509=CARTESIAN_POINT('',(7.67613570895767,11.9096162975644,0.));
#510=CARTESIAN_POINT('',(8.05007788480552,12.2819813966577,0.));
#511=CARTESIAN_POINT('',(8.22117765194349,12.4897635989698,0.));
#512=CARTESIAN_POINT('',(8.51479144717959,12.9282438345117,0.));
#513=CARTESIAN_POINT('',(8.63924701572781,13.1602886088314,0.));
#514=CARTESIAN_POINT('',(8.84264195232966,13.650453533701,0.));
#515=CARTESIAN_POINT('',(8.9200503573674,13.9063884267364,0.));
#516=CARTESIAN_POINT('',(9.02238806772534,14.4227798766343,0.));
#517=CARTESIAN_POINT('',(9.04837369402212,14.6868693242847,0.));
#518=CARTESIAN_POINT('',(9.04745754151333,15.2195199075993,0.));
#519=CARTESIAN_POINT('',(9.02081678864347,15.4817414605964,0.));
#520=CARTESIAN_POINT('',(8.91692220241443,15.9982517315269,0.));
#521=CARTESIAN_POINT('',(8.83830422691287,16.2552542843511,0.));
#522=CARTESIAN_POINT('',(8.6343775135223,16.7432466977797,0.));
#523=CARTESIAN_POINT('',(8.5096233772431,16.9749782890295,0.));
#524=CARTESIAN_POINT('',(8.21459830949297,17.4139470926446,0.));
#525=CARTESIAN_POINT('',(8.04341847686234,17.6211150226759,0.));
#526=CARTESIAN_POINT('',(7.66972501181317,17.9924958027746,0.));
#527=CARTESIAN_POINT('',(7.4656970058,18.1593335299417,0.));
#528=CARTESIAN_POINT('',(7.02219455388275,18.4541143248037,0.));
#529=CARTESIAN_POINT('',(6.78766004520634,18.5784586862109,0.));
#530=CARTESIAN_POINT('',(6.300938234783,18.7789369637047,0.));
#531=CARTESIAN_POINT('',(6.04523753199834,18.8562261875057,0.));
#532=CARTESIAN_POINT('',(5.52435760079946,18.9589651787754,0.));
#533=CARTESIAN_POINT('',(5.26225526082686,18.9843479709658,0.));
#534=CARTESIAN_POINT('',(4.73479080913297,18.9841558871477,0.));
#535=CARTESIAN_POINT('',(4.46697955964557,18.9577310345737,0.));
#536=CARTESIAN_POINT('',(3.9491993027341,18.8546411604324,0.));
#537=CARTESIAN_POINT('',(3.6972170160453,18.7784406690417,0.));
#538=CARTESIAN_POINT('',(3.20724612631334,18.5760932574185,0.));
#539=CARTESIAN_POINT('',(2.97094951183377,18.4499456767736,0.));
#540=CARTESIAN_POINT('',(2.53279839990783,18.1579377460819,0.));
#541=CARTESIAN_POINT('',(2.32794602025429,17.9907501641029,0.));
#542=CARTESIAN_POINT('',(1.95013422810485,17.6141253518066,0.));
#543=CARTESIAN_POINT('',(1.78270882413183,17.4103365025966,0.));
#544=CARTESIAN_POINT('',(1.48926615692972,16.9729247235843,0.));
#545=CARTESIAN_POINT('',(1.36223707202845,16.7364585025425,0.));
#546=CARTESIAN_POINT('',(1.15905698379384,16.247587261311,0.));
#547=CARTESIAN_POINT('',(1.08235411019033,15.9957853582611,0.));
#548=CARTESIAN_POINT('',(0.97856002724267,15.4774971375248,0.));
#549=CARTESIAN_POINT('',(0.952082556268883,15.2098662141026,0.));
#550=CARTESIAN_POINT('',(0.952074308578135,14.6828109187341,0.));
#551=CARTESIAN_POINT('',(0.977713773955836,14.4205463905024,0.));
#552=CARTESIAN_POINT('',(1.08183650940849,13.8986202472696,0.));
#553=CARTESIAN_POINT('',(1.15957192149815,13.6443902289247,0.));
#554=CARTESIAN_POINT('',(1.36183748664369,13.1584150861719,0.));
#555=CARTESIAN_POINT('',(1.48804550356784,12.9231288729086,0.));
#556=CARTESIAN_POINT('',(1.78435790778439,12.4824003354953,0.));
#557=CARTESIAN_POINT('',(1.95215558015848,12.2794664648919,0.));
#558=CARTESIAN_POINT('',(2.3261284851869,11.9076560597634,0.));
#559=CARTESIAN_POINT('',(2.53471204099759,11.7375962768597,0.));
#560=CARTESIAN_POINT('',(2.97473786351817,11.4457898735673,0.));
#561=CARTESIAN_POINT('',(3.20719724151847,11.322341810861,0.));
#562=CARTESIAN_POINT('',(3.69719748686092,11.1206961440529,0.));
#563=CARTESIAN_POINT('',(3.95389451189936,11.0435734105732,0.));
#564=CARTESIAN_POINT('',(4.47049293562462,10.9416653784087,0.));
#565=CARTESIAN_POINT('',(4.73303607812499,10.9156683787365,0.));
#566=CARTESIAN_POINT('',(5.26696392187501,10.9156683787365,0.));
#567=CARTESIAN_POINT('',(0.,0.,0.));
#568=CARTESIAN_POINT('',(0.,0.,0.));
#569=(
GEOMETRIC_REPRESENTATION_CONTEXT(3)
GLOBAL_UNCERTAINTY_ASSIGNED_CONTEXT((#570))
GLOBAL_UNIT_ASSIGNED_CONTEXT((#576,#572,#571))
REPRESENTATION_CONTEXT('model1','TOP_LEVEL_ASSEMBLY_PART')
);
#570=UNCERTAINTY_MEASURE_WITH_UNIT(LENGTH_MEASURE(2.E-5),#576,
'DISTANCE_ACCURACY_VALUE','Maximum Tolerance applied to model');
#571=(
NAMED_UNIT(*)
SI_UNIT($,.STERADIAN.)
SOLID_ANGLE_UNIT()
);
#572=(
CONVERSION_BASED_UNIT('DEGREE',#574)
NAMED_UNIT(#573)
PLANE_ANGLE_UNIT()
);
#573=DIMENSIONAL_EXPONENTS(0.,0.,0.,0.,0.,0.,0.);
#574=PLANE_ANGLE_MEASURE_WITH_UNIT(PLANE_ANGLE_MEASURE(0.0174532925),#575);
#575=(
NAMED_UNIT(*)
PLANE_ANGLE_UNIT()
SI_UNIT($,.RADIAN.)
);
#576=(
LENGTH_UNIT()
NAMED_UNIT(*)
SI_UNIT(.MILLI.,.METRE.)
);
ENDSEC;
END-ISO-10303-21;
