ISO-10303-21;
HEADER;
/* Generated by software containing ST-Developer
 * from STEP Tools, Inc. (www.steptools.com) 
 */
/* OPTION: using custom schema-name function */

FILE_DESCRIPTION(
/* description */ (''),
/* implementation_level */ '2;1');

FILE_NAME(
/* name */ 'model1.stp',
/* time_stamp */ '2023-11-06T19:30:49+03:00',
/* author */ (''),
/* organization */ (''),
/* preprocessor_version */ 'ST-DEVELOPER v19.4',
/* originating_system */ 'SIEMENS PLM Software NX2306.3001',
/* authorisation */ '');

FILE_SCHEMA (('AUTOMOTIVE_DESIGN { 1 0 10303 214 3 1 1 1 }'));
ENDSEC;

DATA;
#10=PROPERTY_DEFINITION_REPRESENTATION(#14,#12);
#11=PROPERTY_DEFINITION_REPRESENTATION(#15,#13);
#12=REPRESENTATION('',(#16),#486);
#13=REPRESENTATION('',(#17),#486);
#14=PROPERTY_DEFINITION('pmi validation property','',#21);
#15=PROPERTY_DEFINITION('pmi validation property','',#21);
#16=VALUE_REPRESENTATION_ITEM('number of annotations',COUNT_MEASURE(0.));
#17=VALUE_REPRESENTATION_ITEM('number of views',COUNT_MEASURE(0.));
#18=SHAPE_REPRESENTATION_RELATIONSHIP('None',
'relationship between model1_objects-None and model1_objects-None',#30,
#19);
#19=ADVANCED_BREP_SHAPE_REPRESENTATION('model1_objects-None',(#133,#134),
#486);
#20=SHAPE_DEFINITION_REPRESENTATION(#21,#30);
#21=PRODUCT_DEFINITION_SHAPE('','',#22);
#22=PRODUCT_DEFINITION(' ','',#24,#23);
#23=PRODUCT_DEFINITION_CONTEXT('part definition',#29,'design');
#24=PRODUCT_DEFINITION_FORMATION_WITH_SPECIFIED_SOURCE(' ',' ',#26,
 .NOT_KNOWN.);
#25=PRODUCT_RELATED_PRODUCT_CATEGORY('part','',(#26));
#26=PRODUCT('model1_objects','model1_objects',' ',(#27));
#27=PRODUCT_CONTEXT(' ',#29,'mechanical');
#28=APPLICATION_PROTOCOL_DEFINITION('international standard',
'automotive_design',2010,#29);
#29=APPLICATION_CONTEXT(
'core data for automotive mechanical design processes');
#30=SHAPE_REPRESENTATION('model1_objects-None',(#248),#486);
#31=OVER_RIDING_STYLED_ITEM('',(#62),#139,#59);
#32=OVER_RIDING_STYLED_ITEM('',(#63),#140,#59);
#33=OVER_RIDING_STYLED_ITEM('',(#64),#141,#59);
#34=OVER_RIDING_STYLED_ITEM('',(#65),#142,#59);
#35=OVER_RIDING_STYLED_ITEM('',(#66),#143,#59);
#36=OVER_RIDING_STYLED_ITEM('',(#67),#144,#59);
#37=OVER_RIDING_STYLED_ITEM('',(#68),#145,#59);
#38=OVER_RIDING_STYLED_ITEM('',(#69),#146,#59);
#39=OVER_RIDING_STYLED_ITEM('',(#70),#147,#59);
#40=OVER_RIDING_STYLED_ITEM('',(#71),#148,#59);
#41=COLOUR_RGB('Medium Steel',0.611764705882353,0.658823529411765,0.670588235294118);
#42=COLOUR_RGB('silver gray',0.6,0.6,0.6);
#43=TOROIDAL_SURFACE('',#265,11.25,1.);
#44=PLANE('',#261);
#45=PLANE('',#263);
#46=FACE_OUTER_BOUND('',#185,.T.);
#47=FACE_OUTER_BOUND('',#186,.T.);
#48=SURFACE_OF_REVOLUTION('',#50,#49);
#49=AXIS1_PLACEMENT('',#474,#295);
#50=B_SPLINE_CURVE_WITH_KNOTS('',3,(#410,#411,#412,#413,#414,#415,#416,
#417,#418,#419,#420,#421,#422,#423,#424,#425,#426,#427,#428,#429,#430,#431,
#432,#433,#434,#435,#436,#437,#438,#439,#440,#441,#442,#443,#444,#445,#446,
#447,#448,#449,#450,#451,#452,#453,#454,#455,#456,#457,#458,#459,#460,#461,
#462,#463,#464,#465,#466,#467,#468,#469,#470,#471,#472,#473),
 .UNSPECIFIED.,.T.,.F.,(2,2,2,2,2,2,2,2,2,2,2,2,2,2,2,2,2,2,2,2,2,2,2,2,
2,2,2,2,2,2,2,2,2,2),(-0.03125,0.,0.0625,0.09375,0.125,0.15625,0.1875,0.21875,
0.25,0.28125,0.3125,0.34375,0.375,0.40625,0.4375,0.46875,0.5,0.53125,0.5625,
0.59375,0.625,0.65625,0.6875,0.71875,0.75,0.78125,0.8125,0.84375,0.875,
0.90625,0.9375,0.96875,1.,1.0625),.UNSPECIFIED.);
#51=CONICAL_SURFACE('',#255,12.5,45.);
#52=CONICAL_SURFACE('',#257,12.25,3.36646066342978);
#53=CONICAL_SURFACE('',#268,12.25,9.99999999999998);
#54=CYLINDRICAL_SURFACE('',#253,12.5);
#55=CYLINDRICAL_SURFACE('',#259,10.4999999999825);
#56=CYLINDRICAL_SURFACE('',#267,12.25);
#57=PRESENTATION_LAYER_ASSIGNMENT('1','Layer 1',(#133,#134));
#58=STYLED_ITEM('',(#60),#133);
#59=STYLED_ITEM('',(#61),#134);
#60=PRESENTATION_STYLE_ASSIGNMENT((#72));
#61=PRESENTATION_STYLE_ASSIGNMENT((#73));
#62=PRESENTATION_STYLE_ASSIGNMENT((#74));
#63=PRESENTATION_STYLE_ASSIGNMENT((#75));
#64=PRESENTATION_STYLE_ASSIGNMENT((#76));
#65=PRESENTATION_STYLE_ASSIGNMENT((#77));
#66=PRESENTATION_STYLE_ASSIGNMENT((#78));
#67=PRESENTATION_STYLE_ASSIGNMENT((#79));
#68=PRESENTATION_STYLE_ASSIGNMENT((#80));
#69=PRESENTATION_STYLE_ASSIGNMENT((#81));
#70=PRESENTATION_STYLE_ASSIGNMENT((#82));
#71=PRESENTATION_STYLE_ASSIGNMENT((#83));
#72=SURFACE_STYLE_USAGE(.BOTH.,#84);
#73=SURFACE_STYLE_USAGE(.BOTH.,#85);
#74=SURFACE_STYLE_USAGE(.BOTH.,#86);
#75=SURFACE_STYLE_USAGE(.BOTH.,#87);
#76=SURFACE_STYLE_USAGE(.BOTH.,#88);
#77=SURFACE_STYLE_USAGE(.BOTH.,#89);
#78=SURFACE_STYLE_USAGE(.BOTH.,#90);
#79=SURFACE_STYLE_USAGE(.BOTH.,#91);
#80=SURFACE_STYLE_USAGE(.BOTH.,#92);
#81=SURFACE_STYLE_USAGE(.BOTH.,#93);
#82=SURFACE_STYLE_USAGE(.BOTH.,#94);
#83=SURFACE_STYLE_USAGE(.BOTH.,#95);
#84=SURFACE_SIDE_STYLE('',(#96));
#85=SURFACE_SIDE_STYLE('',(#97));
#86=SURFACE_SIDE_STYLE('',(#98));
#87=SURFACE_SIDE_STYLE('',(#99));
#88=SURFACE_SIDE_STYLE('',(#100));
#89=SURFACE_SIDE_STYLE('',(#101));
#90=SURFACE_SIDE_STYLE('',(#102));
#91=SURFACE_SIDE_STYLE('',(#103));
#92=SURFACE_SIDE_STYLE('',(#104));
#93=SURFACE_SIDE_STYLE('',(#105));
#94=SURFACE_SIDE_STYLE('',(#106));
#95=SURFACE_SIDE_STYLE('',(#107));
#96=SURFACE_STYLE_FILL_AREA(#108);
#97=SURFACE_STYLE_FILL_AREA(#109);
#98=SURFACE_STYLE_FILL_AREA(#110);
#99=SURFACE_STYLE_FILL_AREA(#111);
#100=SURFACE_STYLE_FILL_AREA(#112);
#101=SURFACE_STYLE_FILL_AREA(#113);
#102=SURFACE_STYLE_FILL_AREA(#114);
#103=SURFACE_STYLE_FILL_AREA(#115);
#104=SURFACE_STYLE_FILL_AREA(#116);
#105=SURFACE_STYLE_FILL_AREA(#117);
#106=SURFACE_STYLE_FILL_AREA(#118);
#107=SURFACE_STYLE_FILL_AREA(#119);
#108=FILL_AREA_STYLE('',(#120));
#109=FILL_AREA_STYLE('',(#121));
#110=FILL_AREA_STYLE('',(#122));
#111=FILL_AREA_STYLE('',(#123));
#112=FILL_AREA_STYLE('',(#124));
#113=FILL_AREA_STYLE('',(#125));
#114=FILL_AREA_STYLE('',(#126));
#115=FILL_AREA_STYLE('',(#127));
#116=FILL_AREA_STYLE('',(#128));
#117=FILL_AREA_STYLE('',(#129));
#118=FILL_AREA_STYLE('',(#130));
#119=FILL_AREA_STYLE('',(#131));
#120=FILL_AREA_STYLE_COLOUR('',#132);
#121=FILL_AREA_STYLE_COLOUR('',#41);
#122=FILL_AREA_STYLE_COLOUR('',#42);
#123=FILL_AREA_STYLE_COLOUR('',#42);
#124=FILL_AREA_STYLE_COLOUR('',#42);
#125=FILL_AREA_STYLE_COLOUR('',#42);
#126=FILL_AREA_STYLE_COLOUR('',#42);
#127=FILL_AREA_STYLE_COLOUR('',#42);
#128=FILL_AREA_STYLE_COLOUR('',#42);
#129=FILL_AREA_STYLE_COLOUR('',#42);
#130=FILL_AREA_STYLE_COLOUR('',#42);
#131=FILL_AREA_STYLE_COLOUR('',#42);
#132=DRAUGHTING_PRE_DEFINED_COLOUR('yellow');
#133=MANIFOLD_SOLID_BREP('',#135);
#134=MANIFOLD_SOLID_BREP('',#136);
#135=CLOSED_SHELL('',(#137,#138));
#136=CLOSED_SHELL('',(#139,#140,#141,#142,#143,#144,#145,#146,#147,#148));
#137=ADVANCED_FACE('',(#151,#152),#149,.F.);
#138=ADVANCED_FACE('',(#153,#154),#150,.F.);
#139=ADVANCED_FACE('',(#155,#156),#54,.T.);
#140=ADVANCED_FACE('',(#157,#158),#51,.T.);
#141=ADVANCED_FACE('',(#159,#160),#52,.T.);
#142=ADVANCED_FACE('',(#161,#162),#55,.T.);
#143=ADVANCED_FACE('',(#163,#164),#48,.T.);
#144=ADVANCED_FACE('',(#46),#44,.F.);
#145=ADVANCED_FACE('',(#47),#45,.F.);
#146=ADVANCED_FACE('',(#165,#166),#43,.T.);
#147=ADVANCED_FACE('',(#167,#168),#56,.T.);
#148=ADVANCED_FACE('',(#169,#170),#53,.T.);
#149=(
BOUNDED_SURFACE()
B_SPLINE_SURFACE(3,3,((#317,#318,#319,#320,#321,#322,#323),(#324,#325,#326,
#327,#328,#329,#330),(#331,#332,#333,#334,#335,#336,#337),(#338,#339,#340,
#341,#342,#343,#344),(#345,#346,#347,#348,#349,#350,#351),(#352,#353,#354,
#355,#356,#357,#358),(#359,#360,#361,#362,#363,#364,#365)),
 .UNSPECIFIED.,.T.,.F.,.F.)
B_SPLINE_SURFACE_WITH_KNOTS((1,3,3,3,1),(4,3,4),(-0.5,0.,0.5,1.,1.5),(0.,
0.5,1.),.UNSPECIFIED.)
GEOMETRIC_REPRESENTATION_ITEM()
RATIONAL_B_SPLINE_SURFACE(((1.,0.558664324538883,0.558664324538883,1.,0.558664324538883,
0.558664324538883,1.),(0.333333333333334,0.186221441512961,0.186221441512961,
0.333333333333334,0.186221441512961,0.186221441512961,0.333333333333334),
(0.333333333333334,0.186221441512961,0.186221441512961,0.333333333333334,
0.186221441512961,0.186221441512961,0.333333333333334),(1.,0.558664324538883,
0.558664324538883,1.,0.558664324538883,0.558664324538883,1.),(0.333333333333334,
0.186221441512961,0.186221441512961,0.333333333333334,0.186221441512961,
0.186221441512961,0.333333333333334),(0.333333333333334,0.186221441512961,
0.186221441512961,0.333333333333334,0.186221441512961,0.186221441512961,
0.333333333333334),(1.,0.558664324538883,0.558664324538883,1.,0.558664324538883,
0.558664324538883,1.)))
REPRESENTATION_ITEM('')
SURFACE()
);
#150=(
BOUNDED_SURFACE()
B_SPLINE_SURFACE(3,3,((#366,#367,#368,#369),(#370,#371,#372,#373),(#374,
#375,#376,#377),(#378,#379,#380,#381),(#382,#383,#384,#385),(#386,#387,
#388,#389),(#390,#391,#392,#393)),.UNSPECIFIED.,.T.,.F.,.F.)
B_SPLINE_SURFACE_WITH_KNOTS((1,3,3,3,1),(4,4),(-0.5,0.,0.5,1.,1.5),(0.,
1.),.UNSPECIFIED.)
GEOMETRIC_REPRESENTATION_ITEM()
RATIONAL_B_SPLINE_SURFACE(((1.,0.847677833206973,0.847677833206973,1.),
(0.333333333333334,0.282559277735657,0.282559277735657,0.333333333333334),
(0.333333333333334,0.282559277735657,0.282559277735657,0.333333333333334),
(1.,0.847677833206973,0.847677833206973,1.),(0.333333333333334,0.282559277735657,
0.282559277735657,0.333333333333334),(0.333333333333334,0.282559277735657,
0.282559277735657,0.333333333333334),(1.,0.847677833206973,0.847677833206973,
1.)))
REPRESENTATION_ITEM('')
SURFACE()
);
#151=FACE_BOUND('',#171,.T.);
#152=FACE_BOUND('',#172,.T.);
#153=FACE_BOUND('',#173,.T.);
#154=FACE_BOUND('',#174,.T.);
#155=FACE_BOUND('',#175,.T.);
#156=FACE_BOUND('',#176,.T.);
#157=FACE_BOUND('',#177,.T.);
#158=FACE_BOUND('',#178,.T.);
#159=FACE_BOUND('',#179,.T.);
#160=FACE_BOUND('',#180,.T.);
#161=FACE_BOUND('',#181,.T.);
#162=FACE_BOUND('',#182,.T.);
#163=FACE_BOUND('',#183,.T.);
#164=FACE_BOUND('',#184,.T.);
#165=FACE_BOUND('',#187,.T.);
#166=FACE_BOUND('',#188,.T.);
#167=FACE_BOUND('',#189,.T.);
#168=FACE_BOUND('',#190,.T.);
#169=FACE_BOUND('',#191,.T.);
#170=FACE_BOUND('',#192,.T.);
#171=EDGE_LOOP('',(#193));
#172=EDGE_LOOP('',(#194));
#173=EDGE_LOOP('',(#195));
#174=EDGE_LOOP('',(#196));
#175=EDGE_LOOP('',(#197));
#176=EDGE_LOOP('',(#198));
#177=EDGE_LOOP('',(#199));
#178=EDGE_LOOP('',(#200));
#179=EDGE_LOOP('',(#201));
#180=EDGE_LOOP('',(#202));
#181=EDGE_LOOP('',(#203));
#182=EDGE_LOOP('',(#204));
#183=EDGE_LOOP('',(#205));
#184=EDGE_LOOP('',(#206));
#185=EDGE_LOOP('',(#207));
#186=EDGE_LOOP('',(#208));
#187=EDGE_LOOP('',(#209));
#188=EDGE_LOOP('',(#210));
#189=EDGE_LOOP('',(#211));
#190=EDGE_LOOP('',(#212));
#191=EDGE_LOOP('',(#213));
#192=EDGE_LOOP('',(#214));
#193=ORIENTED_EDGE('',*,*,#226,.T.);
#194=ORIENTED_EDGE('',*,*,#227,.F.);
#195=ORIENTED_EDGE('',*,*,#227,.T.);
#196=ORIENTED_EDGE('',*,*,#226,.F.);
#197=ORIENTED_EDGE('',*,*,#228,.F.);
#198=ORIENTED_EDGE('',*,*,#229,.T.);
#199=ORIENTED_EDGE('',*,*,#230,.F.);
#200=ORIENTED_EDGE('',*,*,#228,.T.);
#201=ORIENTED_EDGE('',*,*,#231,.F.);
#202=ORIENTED_EDGE('',*,*,#230,.T.);
#203=ORIENTED_EDGE('',*,*,#232,.F.);
#204=ORIENTED_EDGE('',*,*,#231,.T.);
#205=ORIENTED_EDGE('',*,*,#233,.F.);
#206=ORIENTED_EDGE('',*,*,#232,.T.);
#207=ORIENTED_EDGE('',*,*,#233,.T.);
#208=ORIENTED_EDGE('',*,*,#234,.F.);
#209=ORIENTED_EDGE('',*,*,#235,.F.);
#210=ORIENTED_EDGE('',*,*,#234,.T.);
#211=ORIENTED_EDGE('',*,*,#236,.F.);
#212=ORIENTED_EDGE('',*,*,#235,.T.);
#213=ORIENTED_EDGE('',*,*,#229,.F.);
#214=ORIENTED_EDGE('',*,*,#236,.T.);
#215=VERTEX_POINT('',#314);
#216=VERTEX_POINT('',#316);
#217=VERTEX_POINT('',#395);
#218=VERTEX_POINT('',#397);
#219=VERTEX_POINT('',#400);
#220=VERTEX_POINT('',#403);
#221=VERTEX_POINT('',#406);
#222=VERTEX_POINT('',#409);
#223=VERTEX_POINT('',#477);
#224=VERTEX_POINT('',#480);
#225=VERTEX_POINT('',#483);
#226=EDGE_CURVE('',#215,#215,#237,.T.);
#227=EDGE_CURVE('',#216,#216,#238,.T.);
#228=EDGE_CURVE('',#217,#217,#239,.T.);
#229=EDGE_CURVE('',#218,#218,#240,.T.);
#230=EDGE_CURVE('',#219,#219,#241,.T.);
#231=EDGE_CURVE('',#220,#220,#242,.T.);
#232=EDGE_CURVE('',#221,#221,#243,.T.);
#233=EDGE_CURVE('',#222,#222,#244,.T.);
#234=EDGE_CURVE('',#223,#223,#245,.T.);
#235=EDGE_CURVE('',#224,#224,#246,.T.);
#236=EDGE_CURVE('',#225,#225,#247,.T.);
#237=CIRCLE('',#249,5.);
#238=CIRCLE('',#250,5.);
#239=CIRCLE('',#251,12.5);
#240=CIRCLE('',#252,12.5);
#241=CIRCLE('',#254,12.25);
#242=CIRCLE('',#256,10.5);
#243=CIRCLE('',#258,10.499999999965);
#244=CIRCLE('',#260,4.5171819551236);
#245=CIRCLE('',#262,11.25);
#246=CIRCLE('',#264,12.25);
#247=CIRCLE('',#266,12.25);
#248=AXIS2_PLACEMENT_3D('',#312,#269,#270);
#249=AXIS2_PLACEMENT_3D('',#313,#271,#272);
#250=AXIS2_PLACEMENT_3D('',#315,#273,#274);
#251=AXIS2_PLACEMENT_3D('',#394,#275,#276);
#252=AXIS2_PLACEMENT_3D('',#396,#277,#278);
#253=AXIS2_PLACEMENT_3D('',#398,#279,#280);
#254=AXIS2_PLACEMENT_3D('',#399,#281,#282);
#255=AXIS2_PLACEMENT_3D('',#401,#283,#284);
#256=AXIS2_PLACEMENT_3D('',#402,#285,#286);
#257=AXIS2_PLACEMENT_3D('',#404,#287,#288);
#258=AXIS2_PLACEMENT_3D('',#405,#289,#290);
#259=AXIS2_PLACEMENT_3D('',#407,#291,#292);
#260=AXIS2_PLACEMENT_3D('',#408,#293,#294);
#261=AXIS2_PLACEMENT_3D('',#475,#296,#297);
#262=AXIS2_PLACEMENT_3D('',#476,#298,#299);
#263=AXIS2_PLACEMENT_3D('',#478,#300,#301);
#264=AXIS2_PLACEMENT_3D('',#479,#302,#303);
#265=AXIS2_PLACEMENT_3D('',#481,#304,#305);
#266=AXIS2_PLACEMENT_3D('',#482,#306,#307);
#267=AXIS2_PLACEMENT_3D('',#484,#308,#309);
#268=AXIS2_PLACEMENT_3D('',#485,#310,#311);
#269=DIRECTION('',(0.,0.,1.));
#270=DIRECTION('',(1.,0.,0.));
#271=DIRECTION('',(0.,0.981691815623252,0.19047619047619));
#272=DIRECTION('',(1.,0.,0.));
#273=DIRECTION('',(0.,0.,1.));
#274=DIRECTION('',(1.,0.,0.));
#275=DIRECTION('',(-1.,0.,0.));
#276=DIRECTION('',(0.,0.,1.));
#277=DIRECTION('',(-1.,0.,0.));
#278=DIRECTION('',(0.,0.,1.));
#279=DIRECTION('',(-1.,0.,0.));
#280=DIRECTION('',(0.,0.,1.));
#281=DIRECTION('',(-1.,0.,0.));
#282=DIRECTION('',(0.,0.,1.));
#283=DIRECTION('',(1.,0.,0.));
#284=DIRECTION('',(5.48258283765509E-17,0.,-1.));
#285=DIRECTION('',(-1.,0.,0.));
#286=DIRECTION('',(0.,0.,1.));
#287=DIRECTION('',(1.,0.,0.));
#288=DIRECTION('',(-3.90519168603926E-16,0.,-1.));
#289=DIRECTION('',(-1.,0.,0.));
#290=DIRECTION('',(0.,0.,1.));
#291=DIRECTION('',(-1.,0.,0.));
#292=DIRECTION('',(0.,0.,1.));
#293=DIRECTION('',(-1.,0.,0.));
#294=DIRECTION('',(0.,0.,1.));
#295=DIRECTION('',(-1.,0.,0.));
#296=DIRECTION('',(1.,0.,0.));
#297=DIRECTION('',(0.,0.,-1.));
#298=DIRECTION('',(-1.,0.,0.));
#299=DIRECTION('',(0.,0.,1.));
#300=DIRECTION('',(-1.,0.,0.));
#301=DIRECTION('',(0.,0.,1.));
#302=DIRECTION('',(-1.,0.,0.));
#303=DIRECTION('',(0.,0.,1.));
#304=DIRECTION('',(-1.,0.,0.));
#305=DIRECTION('',(0.,0.,1.));
#306=DIRECTION('',(-1.,0.,0.));
#307=DIRECTION('',(0.,0.,1.));
#308=DIRECTION('',(-1.,0.,0.));
#309=DIRECTION('',(0.,0.,1.));
#310=DIRECTION('',(-1.,0.,0.));
#311=DIRECTION('',(1.47184324997431E-16,0.,1.));
#312=CARTESIAN_POINT('',(0.,0.,0.));
#313=CARTESIAN_POINT('',(5.,0.565548254103648,7.58523101493376));
#314=CARTESIAN_POINT('',(10.,0.565548254103648,7.58523101493376));
#315=CARTESIAN_POINT('',(5.,-7.33863573,2.));
#316=CARTESIAN_POINT('',(10.,-7.33863573,2.));
#317=CARTESIAN_POINT('',(10.,-7.33863573,2.));
#318=CARTESIAN_POINT('',(10.,-9.58482025780686,-6.24196501596829));
#319=CARTESIAN_POINT('',(10.,-2.58711902605076,-11.1417109000406));
#320=CARTESIAN_POINT('',(10.,4.3894623658918,-6.21193967421225));
#321=CARTESIAN_POINT('',(10.,11.3660437578344,-1.28216844838392));
#322=CARTESIAN_POINT('',(10.,9.08446252689611,6.95006814588586));
#323=CARTESIAN_POINT('',(10.,0.565548254103649,7.58523101493375));
#324=CARTESIAN_POINT('',(10.,2.66136427,2.));
#325=CARTESIAN_POINT('',(10.,0.415179742193145,4.988957623066));
#326=CARTESIAN_POINT('',(10.,-3.15707234744015,3.88522413460339));
#327=CARTESIAN_POINT('',(10.,-3.32570513221279,0.150150428591273));
#328=CARTESIAN_POINT('',(10.,-3.49433791698544,-3.58492327742084));
#329=CARTESIAN_POINT('',(10.,-0.0360804049798583,-5.00607337016273));
#330=CARTESIAN_POINT('',(10.,2.47031015886555,-2.23168714129877));
#331=CARTESIAN_POINT('',(-5.10076676829453E-16,2.66136427,2.));
#332=CARTESIAN_POINT('',(-5.10076676829454E-16,0.415179742193145,4.98895762306601));
#333=CARTESIAN_POINT('',(-5.10076676829454E-16,-3.15707234744015,3.88522413460339));
#334=CARTESIAN_POINT('',(-5.10076676829453E-16,-3.32570513221279,0.150150428591274));
#335=CARTESIAN_POINT('',(-5.10076676829454E-16,-3.49433791698544,-3.58492327742084));
#336=CARTESIAN_POINT('',(-5.10076676829454E-16,-0.0360804049798595,-5.00607337016273));
#337=CARTESIAN_POINT('',(-5.10076676829453E-16,2.47031015886555,-2.23168714129877));
#338=CARTESIAN_POINT('',(-1.7347234759768E-15,-7.33863573,2.));
#339=CARTESIAN_POINT('',(-1.73472347597681E-15,-9.58482025780686,-6.24196501596829));
#340=CARTESIAN_POINT('',(-1.73472347597681E-15,-2.58711902605076,-11.1417109000406));
#341=CARTESIAN_POINT('',(-1.7347234759768E-15,4.3894623658918,-6.21193967421225));
#342=CARTESIAN_POINT('',(-1.73472347597681E-15,11.3660437578344,-1.28216844838392));
#343=CARTESIAN_POINT('',(-1.73472347597681E-15,9.08446252689611,6.95006814588586));
#344=CARTESIAN_POINT('',(-1.7347234759768E-15,0.56554825410365,7.58523101493375));
#345=CARTESIAN_POINT('',(-2.95937027512416E-15,-17.33863573,2.));
#346=CARTESIAN_POINT('',(-2.95937027512417E-15,-19.5848202578069,-17.4728876550026));
#347=CARTESIAN_POINT('',(-2.95937027512417E-15,-2.01716570466136,-26.1686459346846));
#348=CARTESIAN_POINT('',(-2.95937027512416E-15,12.1046298639964,-12.5740297770158));
#349=CARTESIAN_POINT('',(-2.95937027512417E-15,26.2264254326542,1.02058638065301));
#350=CARTESIAN_POINT('',(-2.95937027512417E-15,18.2050054587721,18.9062096619345));
#351=CARTESIAN_POINT('',(-2.95937027512416E-15,-1.33921365065825,17.4021491711663));
#352=CARTESIAN_POINT('',(10.,-17.33863573,2.));
#353=CARTESIAN_POINT('',(10.,-19.5848202578069,-17.4728876550026));
#354=CARTESIAN_POINT('',(10.,-2.01716570466136,-26.1686459346846));
#355=CARTESIAN_POINT('',(10.,12.1046298639964,-12.5740297770158));
#356=CARTESIAN_POINT('',(10.,26.2264254326542,1.02058638065301));
#357=CARTESIAN_POINT('',(10.,18.2050054587721,18.9062096619345));
#358=CARTESIAN_POINT('',(10.,-1.33921365065825,17.4021491711663));
#359=CARTESIAN_POINT('',(10.,-7.33863573,2.));
#360=CARTESIAN_POINT('',(10.,-9.58482025780686,-6.24196501596829));
#361=CARTESIAN_POINT('',(10.,-2.58711902605076,-11.1417109000406));
#362=CARTESIAN_POINT('',(10.,4.3894623658918,-6.21193967421225));
#363=CARTESIAN_POINT('',(10.,11.3660437578344,-1.28216844838392));
#364=CARTESIAN_POINT('',(10.,9.08446252689611,6.95006814588586));
#365=CARTESIAN_POINT('',(10.,0.565548254103649,7.58523101493375));
#366=CARTESIAN_POINT('',(10.,0.565548254103648,7.58523101493376));
#367=CARTESIAN_POINT('',(10.,-3.2297555179294,7.86820557666304));
#368=CARTESIAN_POINT('',(10.,-6.33792691452401,5.67191873428903));
#369=CARTESIAN_POINT('',(10.,-7.33863573,2.));
#370=CARTESIAN_POINT('',(10.,2.47031015886555,-2.23168714129877));
#371=CARTESIAN_POINT('',(10.,3.5869446567066,-0.995656564830449));
#372=CARTESIAN_POINT('',(10.,3.66207308547599,0.66837465690909));
#373=CARTESIAN_POINT('',(10.,2.66136427,2.));
#374=CARTESIAN_POINT('',(-5.10076676829453E-16,2.47031015886555,-2.23168714129877));
#375=CARTESIAN_POINT('',(-5.10076676829454E-16,3.5869446567066,-0.995656564830451));
#376=CARTESIAN_POINT('',(-5.10076676829454E-16,3.66207308547599,0.668374656909089));
#377=CARTESIAN_POINT('',(-5.10076676829453E-16,2.66136427,2.));
#378=CARTESIAN_POINT('',(-1.7347234759768E-15,0.565548254103648,7.58523101493375));
#379=CARTESIAN_POINT('',(-1.73472347597681E-15,-3.2297555179294,7.86820557666304));
#380=CARTESIAN_POINT('',(-1.73472347597681E-15,-6.33792691452401,5.67191873428903));
#381=CARTESIAN_POINT('',(-1.7347234759768E-15,-7.33863573,2.));
#382=CARTESIAN_POINT('',(-2.95937027512416E-15,-1.33921365065826,17.4021491711663));
#383=CARTESIAN_POINT('',(-2.95937027512416E-15,-10.0464556925654,16.7320677181565));
#384=CARTESIAN_POINT('',(-2.95937027512416E-15,-16.337926914524,10.675462811669));
#385=CARTESIAN_POINT('',(-2.95937027512416E-15,-17.33863573,2.));
#386=CARTESIAN_POINT('',(10.,-1.33921365065826,17.4021491711663));
#387=CARTESIAN_POINT('',(10.,-10.0464556925654,16.7320677181565));
#388=CARTESIAN_POINT('',(10.,-16.337926914524,10.675462811669));
#389=CARTESIAN_POINT('',(10.,-17.33863573,2.));
#390=CARTESIAN_POINT('',(10.,0.565548254103648,7.58523101493376));
#391=CARTESIAN_POINT('',(10.,-3.2297555179294,7.86820557666304));
#392=CARTESIAN_POINT('',(10.,-6.33792691452401,5.67191873428903));
#393=CARTESIAN_POINT('',(10.,-7.33863573,2.));
#394=CARTESIAN_POINT('',(60.,0.,0.));
#395=CARTESIAN_POINT('',(60.,0.,12.5));
#396=CARTESIAN_POINT('',(144.582179545096,0.,0.));
#397=CARTESIAN_POINT('',(144.582179545096,0.,12.5));
#398=CARTESIAN_POINT('',(0.,0.,0.));
#399=CARTESIAN_POINT('',(59.75,0.,0.));
#400=CARTESIAN_POINT('',(59.75,0.,12.25));
#401=CARTESIAN_POINT('',(60.,0.,0.));
#402=CARTESIAN_POINT('',(30.,0.,0.));
#403=CARTESIAN_POINT('',(30.,0.,10.5));
#404=CARTESIAN_POINT('',(59.75,0.,0.));
#405=CARTESIAN_POINT('',(7.42207535810795,0.,0.));
#406=CARTESIAN_POINT('',(7.42207535810795,0.,10.499999999965));
#407=CARTESIAN_POINT('',(0.,0.,0.));
#408=CARTESIAN_POINT('',(3.,0.,0.));
#409=CARTESIAN_POINT('',(3.,0.,4.5171819551236));
#410=CARTESIAN_POINT('',(4.75225717172466,4.01841559560626,0.));
#411=CARTESIAN_POINT('',(5.49548565655068,4.01841559560626,0.));
#412=CARTESIAN_POINT('',(5.9904686935477,4.10207238449857,0.));
#413=CARTESIAN_POINT('',(6.68226865295666,4.35297832364099,0.));
#414=CARTESIAN_POINT('',(6.90737812317682,4.45883852636159,0.));
#415=CARTESIAN_POINT('',(7.33082888804275,4.7122307683109,0.));
#416=CARTESIAN_POINT('',(7.52768871521299,4.85831482722851,0.));
#417=CARTESIAN_POINT('',(7.89032286300265,5.19102524982676,0.));
#418=CARTESIAN_POINT('',(8.05583498188012,5.37852527114257,0.));
#419=CARTESIAN_POINT('',(8.33907598776312,5.77825463994064,0.));
#420=CARTESIAN_POINT('',(8.45945876255391,5.99300086103452,0.));
#421=CARTESIAN_POINT('',(8.65393622992304,6.44939256987357,0.));
#422=CARTESIAN_POINT('',(8.72516420370365,6.68385826890323,0.));
#423=CARTESIAN_POINT('',(8.81831524260522,7.16467452218992,0.));
#424=CARTESIAN_POINT('',(8.83991813458664,7.41403434174791,0.));
#425=CARTESIAN_POINT('',(8.8315182155715,7.90532290655889,0.));
#426=CARTESIAN_POINT('',(8.80236846239326,8.14814674254325,0.));
#427=CARTESIAN_POINT('',(8.69499335415975,8.6282466690073,0.));
#428=CARTESIAN_POINT('',(8.61606361541006,8.86521257668625,0.));
#429=CARTESIAN_POINT('',(8.41636001695215,9.3121019414769,0.));
#430=CARTESIAN_POINT('',(8.29508519117749,9.52494988574155,0.));
#431=CARTESIAN_POINT('',(8.0088156479682,9.92902006036745,0.));
#432=CARTESIAN_POINT('',(7.84709799396262,10.1152301641059,0.));
#433=CARTESIAN_POINT('',(7.49268767071413,10.4523668333697,0.));
#434=CARTESIAN_POINT('',(7.29768928602784,10.6052307832804,0.));
#435=CARTESIAN_POINT('',(6.88125315118576,10.8710964627195,0.));
#436=CARTESIAN_POINT('',(6.66318656448822,10.9824153289024,0.));
#437=CARTESIAN_POINT('',(6.2079733871151,11.1631792841568,0.));
#438=CARTESIAN_POINT('',(5.96814107835865,11.2329357789709,0.));
#439=CARTESIAN_POINT('',(5.48515089873278,11.3246763755355,0.));
#440=CARTESIAN_POINT('',(5.24157780919884,11.3474471855316,0.));
#441=CARTESIAN_POINT('',(4.75028862537989,11.3469342807087,0.));
#442=CARTESIAN_POINT('',(4.50152423842021,11.3229357983947,0.));
#443=CARTESIAN_POINT('',(4.02032298256929,11.2299123174589,0.));
#444=CARTESIAN_POINT('',(3.78530827560181,11.1611190433591,0.));
#445=CARTESIAN_POINT('',(3.32674695482539,10.9777877190825,0.));
#446=CARTESIAN_POINT('',(3.10632501944964,10.8640475359296,0.));
#447=CARTESIAN_POINT('',(2.69452617850798,10.5993350449516,0.));
#448=CARTESIAN_POINT('',(2.50028303788877,10.446714413316,0.));
#449=CARTESIAN_POINT('',(2.14276729205379,10.1045043405786,0.));
#450=CARTESIAN_POINT('',(1.98296901552025,9.91860897303581,0.));
#451=CARTESIAN_POINT('',(1.70067111424422,9.5177216579829,0.));
#452=CARTESIAN_POINT('',(1.57732326076053,9.30023405156946,0.));
#453=CARTESIAN_POINT('',(1.37851978530992,8.8506868058135,0.));
#454=CARTESIAN_POINT('',(1.30193765364647,8.61796644019353,0.));
#455=CARTESIAN_POINT('',(1.19575775627481,8.13616378455706,0.));
#456=CARTESIAN_POINT('',(1.16716130197027,7.88895119948379,0.));
#457=CARTESIAN_POINT('',(1.1609337478383,7.39896434639376,0.));
#458=CARTESIAN_POINT('',(1.18318646891699,7.15144110262685,0.));
#459=CARTESIAN_POINT('',(1.27922098352435,6.66705600475805,0.));
#460=CARTESIAN_POINT('',(1.35187139845774,6.4331536367536,0.));
#461=CARTESIAN_POINT('',(1.54644025813743,5.98192983963007,0.));
#462=CARTESIAN_POINT('',(1.6697213816586,5.76389308913072,0.));
#463=CARTESIAN_POINT('',(1.95446376457865,5.36607257197298,0.));
#464=CARTESIAN_POINT('',(2.11689530706177,5.18333446324953,0.));
#465=CARTESIAN_POINT('',(2.4821421203728,4.85041459069206,0.));
#466=CARTESIAN_POINT('',(2.68163889365713,4.70387833241242,0.));
#467=CARTESIAN_POINT('',(3.10079908315109,4.45488211768773,0.));
#468=CARTESIAN_POINT('',(3.32207943703552,4.35096188980128,0.));
#469=CARTESIAN_POINT('',(3.78737053829261,4.18309860822132,0.));
#470=CARTESIAN_POINT('',(4.02600381862028,4.12124936992122,0.));
#471=CARTESIAN_POINT('',(4.50792773837757,4.0390936256478,0.));
#472=CARTESIAN_POINT('',(4.75225717172466,4.01841559560626,0.));
#473=CARTESIAN_POINT('',(5.49548565655068,4.01841559560626,0.));
#474=CARTESIAN_POINT('',(0.,0.,0.));
#475=CARTESIAN_POINT('',(3.,4.5171819551236,0.));
#476=CARTESIAN_POINT('',(150.,0.,0.));
#477=CARTESIAN_POINT('',(150.,0.,11.25));
#478=CARTESIAN_POINT('',(150.,0.,0.));
#479=CARTESIAN_POINT('',(149.,0.,0.));
#480=CARTESIAN_POINT('',(149.,0.,12.25));
#481=CARTESIAN_POINT('',(149.,0.,0.));
#482=CARTESIAN_POINT('',(146.,0.,0.));
#483=CARTESIAN_POINT('',(146.,0.,12.25));
#484=CARTESIAN_POINT('',(0.,0.,0.));
#485=CARTESIAN_POINT('',(146.,0.,0.));
#486=(
GEOMETRIC_REPRESENTATION_CONTEXT(3)
GLOBAL_UNCERTAINTY_ASSIGNED_CONTEXT((#487))
GLOBAL_UNIT_ASSIGNED_CONTEXT((#493,#489,#488))
REPRESENTATION_CONTEXT('model1','TOP_LEVEL_ASSEMBLY_PART')
);
#487=UNCERTAINTY_MEASURE_WITH_UNIT(LENGTH_MEASURE(2.E-5),#493,
'DISTANCE_ACCURACY_VALUE','Maximum Tolerance applied to model');
#488=(
NAMED_UNIT(*)
SI_UNIT($,.STERADIAN.)
SOLID_ANGLE_UNIT()
);
#489=(
CONVERSION_BASED_UNIT('DEGREE',#491)
NAMED_UNIT(#490)
PLANE_ANGLE_UNIT()
);
#490=DIMENSIONAL_EXPONENTS(0.,0.,0.,0.,0.,0.,0.);
#491=PLANE_ANGLE_MEASURE_WITH_UNIT(PLANE_ANGLE_MEASURE(0.0174532925),#492);
#492=(
NAMED_UNIT(*)
PLANE_ANGLE_UNIT()
SI_UNIT($,.RADIAN.)
);
#493=(
LENGTH_UNIT()
NAMED_UNIT(*)
SI_UNIT(.MILLI.,.METRE.)
);
ENDSEC;
END-ISO-10303-21;
