ISO-10303-21;
HEADER;
/* Generated by software containing ST-Developer
 * from STEP Tools, Inc. (www.steptools.com) 
 */
/* OPTION: using custom schema-name function */

FILE_DESCRIPTION(
/* description */ (''),
/* implementation_level */ '2;1');

FILE_NAME(
/* name */ 'model1.stp',
/* time_stamp */ '2023-11-07T10:21:07+03:00',
/* author */ (''),
/* organization */ (''),
/* preprocessor_version */ 'ST-DEVELOPER v19.4',
/* originating_system */ 'SIEMENS PLM Software NX2306.3001',
/* authorisation */ '');

FILE_SCHEMA (('AUTOMOTIVE_DESIGN { 1 0 10303 214 3 1 1 1 }'));
ENDSEC;

DATA;
#10=PROPERTY_DEFINITION_REPRESENTATION(#14,#12);
#11=PROPERTY_DEFINITION_REPRESENTATION(#15,#13);
#12=REPRESENTATION('',(#16),#542);
#13=REPRESENTATION('',(#17),#542);
#14=PROPERTY_DEFINITION('pmi validation property','',#21);
#15=PROPERTY_DEFINITION('pmi validation property','',#21);
#16=VALUE_REPRESENTATION_ITEM('number of annotations',COUNT_MEASURE(0.));
#17=VALUE_REPRESENTATION_ITEM('number of views',COUNT_MEASURE(0.));
#18=SHAPE_REPRESENTATION_RELATIONSHIP('None',
'relationship between model1_objects-None and model1_objects-None',#30,
#19);
#19=ADVANCED_BREP_SHAPE_REPRESENTATION('model1_objects-None',(#149,#150),
#542);
#20=SHAPE_DEFINITION_REPRESENTATION(#21,#30);
#21=PRODUCT_DEFINITION_SHAPE('','',#22);
#22=PRODUCT_DEFINITION(' ','',#24,#23);
#23=PRODUCT_DEFINITION_CONTEXT('part definition',#29,'design');
#24=PRODUCT_DEFINITION_FORMATION_WITH_SPECIFIED_SOURCE(' ',' ',#26,
 .NOT_KNOWN.);
#25=PRODUCT_RELATED_PRODUCT_CATEGORY('part','',(#26));
#26=PRODUCT('model1_objects','model1_objects',' ',(#27));
#27=PRODUCT_CONTEXT(' ',#29,'mechanical');
#28=APPLICATION_PROTOCOL_DEFINITION('international standard',
'automotive_design',2010,#29);
#29=APPLICATION_CONTEXT(
'core data for automotive mechanical design processes');
#30=SHAPE_REPRESENTATION('model1_objects-None',(#284),#542);
#31=OVER_RIDING_STYLED_ITEM('',(#66),#155,#63);
#32=OVER_RIDING_STYLED_ITEM('',(#67),#156,#63);
#33=OVER_RIDING_STYLED_ITEM('',(#68),#157,#63);
#34=OVER_RIDING_STYLED_ITEM('',(#69),#158,#63);
#35=OVER_RIDING_STYLED_ITEM('',(#70),#159,#63);
#36=OVER_RIDING_STYLED_ITEM('',(#71),#160,#63);
#37=OVER_RIDING_STYLED_ITEM('',(#72),#161,#63);
#38=OVER_RIDING_STYLED_ITEM('',(#73),#162,#63);
#39=OVER_RIDING_STYLED_ITEM('',(#74),#163,#63);
#40=OVER_RIDING_STYLED_ITEM('',(#75),#164,#63);
#41=OVER_RIDING_STYLED_ITEM('',(#76),#165,#63);
#42=OVER_RIDING_STYLED_ITEM('',(#77),#166,#63);
#43=COLOUR_RGB('Medium Steel',0.611764705882353,0.658823529411765,0.670588235294118);
#44=COLOUR_RGB('silver gray',0.6,0.6,0.6);
#45=SURFACE_OF_REVOLUTION('',#47,#46);
#46=AXIS1_PLACEMENT('',#528,#341);
#47=B_SPLINE_CURVE_WITH_KNOTS('',3,(#462,#463,#464,#465,#466,#467,#468,
#469,#470,#471,#472,#473,#474,#475,#476,#477,#478,#479,#480,#481,#482,#483,
#484,#485,#486,#487,#488,#489,#490,#491,#492,#493,#494,#495,#496,#497,#498,
#499,#500,#501,#502,#503,#504,#505,#506,#507,#508,#509,#510,#511,#512,#513,
#514,#515,#516,#517,#518,#519,#520,#521,#522,#523,#524,#525,#526,#527),
 .UNSPECIFIED.,.T.,.F.,(2,2,2,2,2,2,2,2,2,2,2,2,2,2,2,2,2,2,2,2,2,2,2,2,
2,2,2,2,2,2,2,2,2,2,2),(-0.03125,0.,0.03125,0.0625,0.09375,0.125,0.15625,
0.1875,0.21875,0.25,0.28125,0.3125,0.34375,0.375,0.40625,0.4375,0.46875,
0.5,0.53125,0.5625,0.59375,0.625,0.65625,0.6875,0.71875,0.75,0.78125,0.8125,
0.84375,0.875,0.90625,0.9375,0.96875,1.,1.03125),.UNSPECIFIED.);
#48=PLANE('',#296);
#49=PLANE('',#298);
#50=FACE_OUTER_BOUND('',#205,.T.);
#51=FACE_OUTER_BOUND('',#206,.T.);
#52=TOROIDAL_SURFACE('',#295,11.25,1.);
#53=TOROIDAL_SURFACE('',#303,9.,5.);
#54=CONICAL_SURFACE('',#291,12.25,9.99999999999977);
#55=CONICAL_SURFACE('',#305,12.25,15.);
#56=CONICAL_SURFACE('',#308,12.5,45.);
#57=CYLINDRICAL_SURFACE('',#289,12.5);
#58=CYLINDRICAL_SURFACE('',#293,12.25);
#59=CYLINDRICAL_SURFACE('',#301,14.0000000000204);
#60=CYLINDRICAL_SURFACE('',#307,12.25);
#61=PRESENTATION_LAYER_ASSIGNMENT('1','Layer 1',(#149,#150));
#62=STYLED_ITEM('',(#64),#149);
#63=STYLED_ITEM('',(#65),#150);
#64=PRESENTATION_STYLE_ASSIGNMENT((#78));
#65=PRESENTATION_STYLE_ASSIGNMENT((#79));
#66=PRESENTATION_STYLE_ASSIGNMENT((#80));
#67=PRESENTATION_STYLE_ASSIGNMENT((#81));
#68=PRESENTATION_STYLE_ASSIGNMENT((#82));
#69=PRESENTATION_STYLE_ASSIGNMENT((#83));
#70=PRESENTATION_STYLE_ASSIGNMENT((#84));
#71=PRESENTATION_STYLE_ASSIGNMENT((#85));
#72=PRESENTATION_STYLE_ASSIGNMENT((#86));
#73=PRESENTATION_STYLE_ASSIGNMENT((#87));
#74=PRESENTATION_STYLE_ASSIGNMENT((#88));
#75=PRESENTATION_STYLE_ASSIGNMENT((#89));
#76=PRESENTATION_STYLE_ASSIGNMENT((#90));
#77=PRESENTATION_STYLE_ASSIGNMENT((#91));
#78=SURFACE_STYLE_USAGE(.BOTH.,#92);
#79=SURFACE_STYLE_USAGE(.BOTH.,#93);
#80=SURFACE_STYLE_USAGE(.BOTH.,#94);
#81=SURFACE_STYLE_USAGE(.BOTH.,#95);
#82=SURFACE_STYLE_USAGE(.BOTH.,#96);
#83=SURFACE_STYLE_USAGE(.BOTH.,#97);
#84=SURFACE_STYLE_USAGE(.BOTH.,#98);
#85=SURFACE_STYLE_USAGE(.BOTH.,#99);
#86=SURFACE_STYLE_USAGE(.BOTH.,#100);
#87=SURFACE_STYLE_USAGE(.BOTH.,#101);
#88=SURFACE_STYLE_USAGE(.BOTH.,#102);
#89=SURFACE_STYLE_USAGE(.BOTH.,#103);
#90=SURFACE_STYLE_USAGE(.BOTH.,#104);
#91=SURFACE_STYLE_USAGE(.BOTH.,#105);
#92=SURFACE_SIDE_STYLE('',(#106));
#93=SURFACE_SIDE_STYLE('',(#107));
#94=SURFACE_SIDE_STYLE('',(#108));
#95=SURFACE_SIDE_STYLE('',(#109));
#96=SURFACE_SIDE_STYLE('',(#110));
#97=SURFACE_SIDE_STYLE('',(#111));
#98=SURFACE_SIDE_STYLE('',(#112));
#99=SURFACE_SIDE_STYLE('',(#113));
#100=SURFACE_SIDE_STYLE('',(#114));
#101=SURFACE_SIDE_STYLE('',(#115));
#102=SURFACE_SIDE_STYLE('',(#116));
#103=SURFACE_SIDE_STYLE('',(#117));
#104=SURFACE_SIDE_STYLE('',(#118));
#105=SURFACE_SIDE_STYLE('',(#119));
#106=SURFACE_STYLE_FILL_AREA(#120);
#107=SURFACE_STYLE_FILL_AREA(#121);
#108=SURFACE_STYLE_FILL_AREA(#122);
#109=SURFACE_STYLE_FILL_AREA(#123);
#110=SURFACE_STYLE_FILL_AREA(#124);
#111=SURFACE_STYLE_FILL_AREA(#125);
#112=SURFACE_STYLE_FILL_AREA(#126);
#113=SURFACE_STYLE_FILL_AREA(#127);
#114=SURFACE_STYLE_FILL_AREA(#128);
#115=SURFACE_STYLE_FILL_AREA(#129);
#116=SURFACE_STYLE_FILL_AREA(#130);
#117=SURFACE_STYLE_FILL_AREA(#131);
#118=SURFACE_STYLE_FILL_AREA(#132);
#119=SURFACE_STYLE_FILL_AREA(#133);
#120=FILL_AREA_STYLE('',(#134));
#121=FILL_AREA_STYLE('',(#135));
#122=FILL_AREA_STYLE('',(#136));
#123=FILL_AREA_STYLE('',(#137));
#124=FILL_AREA_STYLE('',(#138));
#125=FILL_AREA_STYLE('',(#139));
#126=FILL_AREA_STYLE('',(#140));
#127=FILL_AREA_STYLE('',(#141));
#128=FILL_AREA_STYLE('',(#142));
#129=FILL_AREA_STYLE('',(#143));
#130=FILL_AREA_STYLE('',(#144));
#131=FILL_AREA_STYLE('',(#145));
#132=FILL_AREA_STYLE('',(#146));
#133=FILL_AREA_STYLE('',(#147));
#134=FILL_AREA_STYLE_COLOUR('',#148);
#135=FILL_AREA_STYLE_COLOUR('',#43);
#136=FILL_AREA_STYLE_COLOUR('',#44);
#137=FILL_AREA_STYLE_COLOUR('',#44);
#138=FILL_AREA_STYLE_COLOUR('',#44);
#139=FILL_AREA_STYLE_COLOUR('',#44);
#140=FILL_AREA_STYLE_COLOUR('',#44);
#141=FILL_AREA_STYLE_COLOUR('',#44);
#142=FILL_AREA_STYLE_COLOUR('',#44);
#143=FILL_AREA_STYLE_COLOUR('',#44);
#144=FILL_AREA_STYLE_COLOUR('',#44);
#145=FILL_AREA_STYLE_COLOUR('',#44);
#146=FILL_AREA_STYLE_COLOUR('',#44);
#147=FILL_AREA_STYLE_COLOUR('',#44);
#148=DRAUGHTING_PRE_DEFINED_COLOUR('yellow');
#149=MANIFOLD_SOLID_BREP('',#151);
#150=MANIFOLD_SOLID_BREP('',#152);
#151=CLOSED_SHELL('',(#153,#154));
#152=CLOSED_SHELL('',(#155,#156,#157,#158,#159,#160,#161,#162,#163,#164,
#165,#166));
#153=ADVANCED_FACE('',(#169,#170),#167,.F.);
#154=ADVANCED_FACE('',(#171,#172),#168,.F.);
#155=ADVANCED_FACE('',(#173,#174),#57,.T.);
#156=ADVANCED_FACE('',(#175,#176),#54,.T.);
#157=ADVANCED_FACE('',(#177,#178),#58,.T.);
#158=ADVANCED_FACE('',(#179,#180),#52,.T.);
#159=ADVANCED_FACE('',(#50),#48,.F.);
#160=ADVANCED_FACE('',(#51),#49,.F.);
#161=ADVANCED_FACE('',(#181,#182),#45,.T.);
#162=ADVANCED_FACE('',(#183,#184),#59,.T.);
#163=ADVANCED_FACE('',(#185,#186),#53,.T.);
#164=ADVANCED_FACE('',(#187,#188),#55,.T.);
#165=ADVANCED_FACE('',(#189,#190),#60,.T.);
#166=ADVANCED_FACE('',(#191,#192),#56,.T.);
#167=(
BOUNDED_SURFACE()
B_SPLINE_SURFACE(3,3,((#365,#366,#367,#368,#369,#370,#371),(#372,#373,#374,
#375,#376,#377,#378),(#379,#380,#381,#382,#383,#384,#385),(#386,#387,#388,
#389,#390,#391,#392),(#393,#394,#395,#396,#397,#398,#399),(#400,#401,#402,
#403,#404,#405,#406),(#407,#408,#409,#410,#411,#412,#413)),
 .UNSPECIFIED.,.T.,.F.,.F.)
B_SPLINE_SURFACE_WITH_KNOTS((1,3,3,3,1),(4,3,4),(-0.5,0.,0.5,1.,1.5),(0.,
0.5,1.),.UNSPECIFIED.)
GEOMETRIC_REPRESENTATION_ITEM()
RATIONAL_B_SPLINE_SURFACE(((1.,0.56622389131261,0.56622389131261,1.,0.56622389131261,
0.56622389131261,1.),(0.333333333333334,0.188741297104204,0.188741297104204,
0.333333333333334,0.188741297104204,0.188741297104204,0.333333333333334),
(0.333333333333334,0.188741297104204,0.188741297104204,0.333333333333334,
0.188741297104204,0.188741297104204,0.333333333333334),(1.,0.56622389131261,
0.56622389131261,1.,0.56622389131261,0.56622389131261,1.),(0.333333333333334,
0.188741297104204,0.188741297104204,0.333333333333334,0.188741297104204,
0.188741297104204,0.333333333333334),(0.333333333333334,0.188741297104204,
0.188741297104204,0.333333333333334,0.188741297104204,0.188741297104204,
0.333333333333334),(1.,0.56622389131261,0.56622389131261,1.,0.56622389131261,
0.56622389131261,1.)))
REPRESENTATION_ITEM('')
SURFACE()
);
#168=(
BOUNDED_SURFACE()
B_SPLINE_SURFACE(3,3,((#414,#415,#416,#417),(#418,#419,#420,#421),(#422,
#423,#424,#425),(#426,#427,#428,#429),(#430,#431,#432,#433),(#434,#435,
#436,#437),(#438,#439,#440,#441)),.UNSPECIFIED.,.T.,.F.,.F.)
B_SPLINE_SURFACE_WITH_KNOTS((1,3,3,3,1),(4,4),(-0.5,0.,0.5,1.,1.5),(0.,
1.),.UNSPECIFIED.)
GEOMETRIC_REPRESENTATION_ITEM()
RATIONAL_B_SPLINE_SURFACE(((1.,0.837285964012303,0.837285964012303,1.),
(0.333333333333334,0.279095321337435,0.279095321337435,0.333333333333334),
(0.333333333333334,0.279095321337435,0.279095321337435,0.333333333333334),
(1.,0.837285964012303,0.837285964012303,1.),(0.333333333333334,0.279095321337435,
0.279095321337435,0.333333333333334),(0.333333333333334,0.279095321337435,
0.279095321337435,0.333333333333334),(1.,0.837285964012303,0.837285964012303,
1.)))
REPRESENTATION_ITEM('')
SURFACE()
);
#169=FACE_BOUND('',#193,.T.);
#170=FACE_BOUND('',#194,.T.);
#171=FACE_BOUND('',#195,.T.);
#172=FACE_BOUND('',#196,.T.);
#173=FACE_BOUND('',#197,.T.);
#174=FACE_BOUND('',#198,.T.);
#175=FACE_BOUND('',#199,.T.);
#176=FACE_BOUND('',#200,.T.);
#177=FACE_BOUND('',#201,.T.);
#178=FACE_BOUND('',#202,.T.);
#179=FACE_BOUND('',#203,.T.);
#180=FACE_BOUND('',#204,.T.);
#181=FACE_BOUND('',#207,.T.);
#182=FACE_BOUND('',#208,.T.);
#183=FACE_BOUND('',#209,.T.);
#184=FACE_BOUND('',#210,.T.);
#185=FACE_BOUND('',#211,.T.);
#186=FACE_BOUND('',#212,.T.);
#187=FACE_BOUND('',#213,.T.);
#188=FACE_BOUND('',#214,.T.);
#189=FACE_BOUND('',#215,.T.);
#190=FACE_BOUND('',#216,.T.);
#191=FACE_BOUND('',#217,.T.);
#192=FACE_BOUND('',#218,.T.);
#193=EDGE_LOOP('',(#219));
#194=EDGE_LOOP('',(#220));
#195=EDGE_LOOP('',(#221));
#196=EDGE_LOOP('',(#222));
#197=EDGE_LOOP('',(#223));
#198=EDGE_LOOP('',(#224));
#199=EDGE_LOOP('',(#225));
#200=EDGE_LOOP('',(#226));
#201=EDGE_LOOP('',(#227));
#202=EDGE_LOOP('',(#228));
#203=EDGE_LOOP('',(#229));
#204=EDGE_LOOP('',(#230));
#205=EDGE_LOOP('',(#231));
#206=EDGE_LOOP('',(#232));
#207=EDGE_LOOP('',(#233));
#208=EDGE_LOOP('',(#234));
#209=EDGE_LOOP('',(#235));
#210=EDGE_LOOP('',(#236));
#211=EDGE_LOOP('',(#237));
#212=EDGE_LOOP('',(#238));
#213=EDGE_LOOP('',(#239));
#214=EDGE_LOOP('',(#240));
#215=EDGE_LOOP('',(#241));
#216=EDGE_LOOP('',(#242));
#217=EDGE_LOOP('',(#243));
#218=EDGE_LOOP('',(#244));
#219=ORIENTED_EDGE('',*,*,#258,.T.);
#220=ORIENTED_EDGE('',*,*,#259,.F.);
#221=ORIENTED_EDGE('',*,*,#259,.T.);
#222=ORIENTED_EDGE('',*,*,#258,.F.);
#223=ORIENTED_EDGE('',*,*,#260,.F.);
#224=ORIENTED_EDGE('',*,*,#261,.T.);
#225=ORIENTED_EDGE('',*,*,#261,.F.);
#226=ORIENTED_EDGE('',*,*,#262,.T.);
#227=ORIENTED_EDGE('',*,*,#262,.F.);
#228=ORIENTED_EDGE('',*,*,#263,.T.);
#229=ORIENTED_EDGE('',*,*,#263,.F.);
#230=ORIENTED_EDGE('',*,*,#264,.T.);
#231=ORIENTED_EDGE('',*,*,#264,.F.);
#232=ORIENTED_EDGE('',*,*,#265,.T.);
#233=ORIENTED_EDGE('',*,*,#265,.F.);
#234=ORIENTED_EDGE('',*,*,#266,.T.);
#235=ORIENTED_EDGE('',*,*,#266,.F.);
#236=ORIENTED_EDGE('',*,*,#267,.T.);
#237=ORIENTED_EDGE('',*,*,#267,.F.);
#238=ORIENTED_EDGE('',*,*,#268,.T.);
#239=ORIENTED_EDGE('',*,*,#268,.F.);
#240=ORIENTED_EDGE('',*,*,#269,.T.);
#241=ORIENTED_EDGE('',*,*,#269,.F.);
#242=ORIENTED_EDGE('',*,*,#270,.T.);
#243=ORIENTED_EDGE('',*,*,#270,.F.);
#244=ORIENTED_EDGE('',*,*,#260,.T.);
#245=VERTEX_POINT('',#362);
#246=VERTEX_POINT('',#364);
#247=VERTEX_POINT('',#443);
#248=VERTEX_POINT('',#445);
#249=VERTEX_POINT('',#448);
#250=VERTEX_POINT('',#451);
#251=VERTEX_POINT('',#454);
#252=VERTEX_POINT('',#458);
#253=VERTEX_POINT('',#461);
#254=VERTEX_POINT('',#530);
#255=VERTEX_POINT('',#533);
#256=VERTEX_POINT('',#536);
#257=VERTEX_POINT('',#539);
#258=EDGE_CURVE('',#245,#245,#271,.T.);
#259=EDGE_CURVE('',#246,#246,#272,.T.);
#260=EDGE_CURVE('',#247,#247,#273,.T.);
#261=EDGE_CURVE('',#248,#248,#274,.T.);
#262=EDGE_CURVE('',#249,#249,#275,.T.);
#263=EDGE_CURVE('',#250,#250,#276,.T.);
#264=EDGE_CURVE('',#251,#251,#277,.T.);
#265=EDGE_CURVE('',#252,#252,#278,.T.);
#266=EDGE_CURVE('',#253,#253,#279,.T.);
#267=EDGE_CURVE('',#254,#254,#280,.T.);
#268=EDGE_CURVE('',#255,#255,#281,.T.);
#269=EDGE_CURVE('',#256,#256,#282,.T.);
#270=EDGE_CURVE('',#257,#257,#283,.T.);
#271=CIRCLE('',#285,5.);
#272=CIRCLE('',#286,5.);
#273=CIRCLE('',#287,12.5);
#274=CIRCLE('',#288,12.5);
#275=CIRCLE('',#290,12.25);
#276=CIRCLE('',#292,12.25);
#277=CIRCLE('',#294,11.25);
#278=CIRCLE('',#297,7.85179739681661);
#279=CIRCLE('',#299,14.0000000000409);
#280=CIRCLE('',#300,14.);
#281=CIRCLE('',#302,13.8296291314453);
#282=CIRCLE('',#304,12.25);
#283=CIRCLE('',#306,12.25);
#284=AXIS2_PLACEMENT_3D('',#360,#309,#310);
#285=AXIS2_PLACEMENT_3D('',#361,#311,#312);
#286=AXIS2_PLACEMENT_3D('',#363,#313,#314);
#287=AXIS2_PLACEMENT_3D('',#442,#315,#316);
#288=AXIS2_PLACEMENT_3D('',#444,#317,#318);
#289=AXIS2_PLACEMENT_3D('',#446,#319,#320);
#290=AXIS2_PLACEMENT_3D('',#447,#321,#322);
#291=AXIS2_PLACEMENT_3D('',#449,#323,#324);
#292=AXIS2_PLACEMENT_3D('',#450,#325,#326);
#293=AXIS2_PLACEMENT_3D('',#452,#327,#328);
#294=AXIS2_PLACEMENT_3D('',#453,#329,#330);
#295=AXIS2_PLACEMENT_3D('',#455,#331,#332);
#296=AXIS2_PLACEMENT_3D('',#456,#333,#334);
#297=AXIS2_PLACEMENT_3D('',#457,#335,#336);
#298=AXIS2_PLACEMENT_3D('',#459,#337,#338);
#299=AXIS2_PLACEMENT_3D('',#460,#339,#340);
#300=AXIS2_PLACEMENT_3D('',#529,#342,#343);
#301=AXIS2_PLACEMENT_3D('',#531,#344,#345);
#302=AXIS2_PLACEMENT_3D('',#532,#346,#347);
#303=AXIS2_PLACEMENT_3D('',#534,#348,#349);
#304=AXIS2_PLACEMENT_3D('',#535,#350,#351);
#305=AXIS2_PLACEMENT_3D('',#537,#352,#353);
#306=AXIS2_PLACEMENT_3D('',#538,#354,#355);
#307=AXIS2_PLACEMENT_3D('',#540,#356,#357);
#308=AXIS2_PLACEMENT_3D('',#541,#358,#359);
#309=DIRECTION('',(0.,0.,1.));
#310=DIRECTION('',(1.,0.,0.));
#311=DIRECTION('',(0.,0.989743318610787,0.142857142857143));
#312=DIRECTION('',(1.,0.,0.));
#313=DIRECTION('',(0.,0.,1.));
#314=DIRECTION('',(1.,0.,0.));
#315=DIRECTION('',(-1.,0.,0.));
#316=DIRECTION('',(0.,0.,1.));
#317=DIRECTION('',(-1.,0.,0.));
#318=DIRECTION('',(0.,0.,1.));
#319=DIRECTION('',(-1.,0.,0.));
#320=DIRECTION('',(0.,0.,1.));
#321=DIRECTION('',(-1.,0.,0.));
#322=DIRECTION('',(0.,0.,1.));
#323=DIRECTION('',(-1.,0.,0.));
#324=DIRECTION('',(0.,0.,1.));
#325=DIRECTION('',(-1.,0.,0.));
#326=DIRECTION('',(0.,0.,1.));
#327=DIRECTION('',(-1.,0.,0.));
#328=DIRECTION('',(0.,0.,1.));
#329=DIRECTION('',(-1.,0.,0.));
#330=DIRECTION('',(0.,0.,1.));
#331=DIRECTION('',(-1.,0.,0.));
#332=DIRECTION('',(0.,0.,1.));
#333=DIRECTION('',(-1.,0.,0.));
#334=DIRECTION('',(0.,0.,1.));
#335=DIRECTION('',(-1.,0.,0.));
#336=DIRECTION('',(0.,0.,1.));
#337=DIRECTION('',(1.,0.,0.));
#338=DIRECTION('',(0.,0.,-1.));
#339=DIRECTION('',(-1.,0.,0.));
#340=DIRECTION('',(0.,0.,1.));
#341=DIRECTION('',(-1.,0.,0.));
#342=DIRECTION('',(-1.,0.,0.));
#343=DIRECTION('',(0.,0.,1.));
#344=DIRECTION('',(-1.,0.,0.));
#345=DIRECTION('',(0.,0.,1.));
#346=DIRECTION('',(-1.,0.,0.));
#347=DIRECTION('',(0.,0.,1.));
#348=DIRECTION('',(-1.,0.,0.));
#349=DIRECTION('',(0.,0.,1.));
#350=DIRECTION('',(-1.,0.,0.));
#351=DIRECTION('',(0.,0.,1.));
#352=DIRECTION('',(-1.,0.,0.));
#353=DIRECTION('',(1.85731100178302E-16,0.,1.));
#354=DIRECTION('',(-1.,0.,0.));
#355=DIRECTION('',(0.,0.,1.));
#356=DIRECTION('',(-1.,0.,0.));
#357=DIRECTION('',(0.,0.,1.));
#358=DIRECTION('',(1.,0.,0.));
#359=DIRECTION('',(-8.22387425648264E-17,0.,-1.));
#360=CARTESIAN_POINT('',(0.,0.,0.));
#361=CARTESIAN_POINT('',(5.,0.426013794364431,11.0484898537424));
#362=CARTESIAN_POINT('',(10.,0.426013794364431,11.0484898537424));
#363=CARTESIAN_POINT('',(5.,-10.8743099,2.));
#364=CARTESIAN_POINT('',(10.,-10.8743099,2.));
#365=CARTESIAN_POINT('',(10.,-10.8743099,2.));
#366=CARTESIAN_POINT('',(10.,-13.0807341282708,-9.99667041454259));
#367=CARTESIAN_POINT('',(10.,-2.61066598453134,-16.2549514865075));
#368=CARTESIAN_POINT('',(10.,6.91089827996909,-8.63076478448801));
#369=CARTESIAN_POINT('',(10.,16.4324625444695,-1.00657808246855));
#370=CARTESIAN_POINT('',(10.,12.6148416439152,10.5785062750108));
#371=CARTESIAN_POINT('',(10.,0.426013794364427,11.0484898537424));
#372=CARTESIAN_POINT('',(10.,-0.874309899999999,2.));
#373=CARTESIAN_POINT('',(10.,-3.08073412827081,1.03545072681149));
#374=CARTESIAN_POINT('',(10.,-2.94773684383336,-1.36891507269599));
#375=CARTESIAN_POINT('',(10.,-0.648391180215454,-2.08422807740823));
#376=CARTESIAN_POINT('',(10.,1.65095448340246,-2.79954108212048));
#377=CARTESIAN_POINT('',(10.,3.12444488272663,-0.894944217004807));
#378=CARTESIAN_POINT('',(10.,1.85458522293586,1.15105666763455));
#379=CARTESIAN_POINT('',(-5.10076676829453E-16,-0.874309899999999,2.));
#380=CARTESIAN_POINT('',(-5.10076676829454E-16,-3.08073412827081,1.03545072681149));
#381=CARTESIAN_POINT('',(-5.10076676829454E-16,-2.94773684383336,-1.36891507269599));
#382=CARTESIAN_POINT('',(-5.10076676829453E-16,-0.648391180215454,-2.08422807740823));
#383=CARTESIAN_POINT('',(-5.10076676829454E-16,1.65095448340246,-2.79954108212048));
#384=CARTESIAN_POINT('',(-5.10076676829454E-16,3.12444488272663,-0.894944217004807));
#385=CARTESIAN_POINT('',(-5.10076676829453E-16,1.85458522293586,1.15105666763455));
#386=CARTESIAN_POINT('',(-1.7347234759768E-15,-10.8743099,2.));
#387=CARTESIAN_POINT('',(-1.73472347597681E-15,-13.0807341282708,-9.99667041454259));
#388=CARTESIAN_POINT('',(-1.73472347597681E-15,-2.61066598453134,-16.2549514865075));
#389=CARTESIAN_POINT('',(-1.7347234759768E-15,6.91089827996909,-8.63076478448801));
#390=CARTESIAN_POINT('',(-1.73472347597681E-15,16.4324625444695,-1.00657808246855));
#391=CARTESIAN_POINT('',(-1.73472347597681E-15,12.6148416439152,10.5785062750108));
#392=CARTESIAN_POINT('',(-1.7347234759768E-15,0.426013794364427,11.0484898537424));
#393=CARTESIAN_POINT('',(-2.95937027512416E-15,-20.8743099,2.));
#394=CARTESIAN_POINT('',(-2.95937027512416E-15,-23.0807341282708,-21.0287915558966));
#395=CARTESIAN_POINT('',(-2.95937027512416E-15,-2.27359512522931,-31.1409879003189));
#396=CARTESIAN_POINT('',(-2.95937027512416E-15,14.4701877401536,-15.1773014915678));
#397=CARTESIAN_POINT('',(-2.95937027512416E-15,31.2139706055366,0.78638491718337));
#398=CARTESIAN_POINT('',(-2.95937027512416E-15,22.1052384051038,22.0519567670264));
#399=CARTESIAN_POINT('',(-2.95937027512416E-15,-1.002557634207,20.9459230398503));
#400=CARTESIAN_POINT('',(10.,-20.8743099,2.));
#401=CARTESIAN_POINT('',(10.,-23.0807341282708,-21.0287915558966));
#402=CARTESIAN_POINT('',(10.,-2.27359512522931,-31.1409879003189));
#403=CARTESIAN_POINT('',(10.,14.4701877401536,-15.1773014915678));
#404=CARTESIAN_POINT('',(10.,31.2139706055366,0.78638491718337));
#405=CARTESIAN_POINT('',(10.,22.1052384051038,22.0519567670264));
#406=CARTESIAN_POINT('',(10.,-1.002557634207,20.9459230398503));
#407=CARTESIAN_POINT('',(10.,-10.8743099,2.));
#408=CARTESIAN_POINT('',(10.,-13.0807341282708,-9.99667041454259));
#409=CARTESIAN_POINT('',(10.,-2.61066598453134,-16.2549514865075));
#410=CARTESIAN_POINT('',(10.,6.91089827996909,-8.63076478448801));
#411=CARTESIAN_POINT('',(10.,16.4324625444695,-1.00657808246855));
#412=CARTESIAN_POINT('',(10.,12.6148416439152,10.5785062750108));
#413=CARTESIAN_POINT('',(10.,0.426013794364427,11.0484898537424));
#414=CARTESIAN_POINT('',(10.,0.426013794364431,11.0484898537424));
#415=CARTESIAN_POINT('',(10.,-5.33301776666628,11.2705497840729));
#416=CARTESIAN_POINT('',(10.,-9.83180877319126,7.66824016200873));
#417=CARTESIAN_POINT('',(10.,-10.8743099,2.));
#418=CARTESIAN_POINT('',(10.,1.85458522293586,1.15105666763455));
#419=CARTESIAN_POINT('',(10.,1.25459628642099,2.11776025997129));
#420=CARTESIAN_POINT('',(10.,0.168191226808743,2.45573452796502));
#421=CARTESIAN_POINT('',(10.,-0.874309899999999,2.));
#422=CARTESIAN_POINT('',(-5.10076676829453E-16,1.85458522293586,1.15105666763455));
#423=CARTESIAN_POINT('',(-5.10076676829453E-16,1.25459628642099,2.11776025997129));
#424=CARTESIAN_POINT('',(-5.10076676829453E-16,0.168191226808743,2.45573452796502));
#425=CARTESIAN_POINT('',(-5.10076676829453E-16,-0.874309899999999,2.));
#426=CARTESIAN_POINT('',(-1.7347234759768E-15,0.426013794364431,11.0484898537424));
#427=CARTESIAN_POINT('',(-1.73472347597681E-15,-5.33301776666628,11.2705497840729));
#428=CARTESIAN_POINT('',(-1.73472347597681E-15,-9.83180877319126,7.66824016200873));
#429=CARTESIAN_POINT('',(-1.7347234759768E-15,-10.8743099,2.));
#430=CARTESIAN_POINT('',(-2.95937027512416E-15,-1.002557634207,20.9459230398503));
#431=CARTESIAN_POINT('',(-2.95937027512416E-15,-11.9206318197536,20.4233393081745));
#432=CARTESIAN_POINT('',(-2.95937027512416E-15,-19.8318087731912,12.8807457960524));
#433=CARTESIAN_POINT('',(-2.95937027512416E-15,-20.8743099,2.));
#434=CARTESIAN_POINT('',(10.,-1.002557634207,20.9459230398503));
#435=CARTESIAN_POINT('',(10.,-11.9206318197536,20.4233393081745));
#436=CARTESIAN_POINT('',(10.,-19.8318087731912,12.8807457960524));
#437=CARTESIAN_POINT('',(10.,-20.8743099,2.));
#438=CARTESIAN_POINT('',(10.,0.426013794364431,11.0484898537424));
#439=CARTESIAN_POINT('',(10.,-5.33301776666628,11.2705497840729));
#440=CARTESIAN_POINT('',(10.,-9.83180877319126,7.66824016200873));
#441=CARTESIAN_POINT('',(10.,-10.8743099,2.));
#442=CARTESIAN_POINT('',(35.,0.,0.));
#443=CARTESIAN_POINT('',(35.,0.,12.5));
#444=CARTESIAN_POINT('',(244.582179545095,0.,0.));
#445=CARTESIAN_POINT('',(244.582179545095,0.,12.5));
#446=CARTESIAN_POINT('',(0.,0.,0.));
#447=CARTESIAN_POINT('',(246.,0.,0.));
#448=CARTESIAN_POINT('',(246.,0.,12.25));
#449=CARTESIAN_POINT('',(246.,0.,0.));
#450=CARTESIAN_POINT('',(249.,0.,0.));
#451=CARTESIAN_POINT('',(249.,0.,12.25));
#452=CARTESIAN_POINT('',(0.,0.,0.));
#453=CARTESIAN_POINT('',(250.,0.,0.));
#454=CARTESIAN_POINT('',(250.,0.,11.25));
#455=CARTESIAN_POINT('',(249.,0.,0.));
#456=CARTESIAN_POINT('',(250.,0.,0.));
#457=CARTESIAN_POINT('',(3.,0.,0.));
#458=CARTESIAN_POINT('',(3.,0.,7.85179739681661));
#459=CARTESIAN_POINT('',(3.,7.85179739681661,0.));
#460=CARTESIAN_POINT('',(7.40801681632375,0.,0.));
#461=CARTESIAN_POINT('',(7.40801681632375,0.,14.0000000000409));
#462=CARTESIAN_POINT('',(4.74890140429823,7.30857741990277,0.));
#463=CARTESIAN_POINT('',(5.25109859570177,7.30857741990277,0.));
#464=CARTESIAN_POINT('',(5.49980586798748,7.33208915014204,0.));
#465=CARTESIAN_POINT('',(5.99224529653992,7.42617321127116,0.));
#466=CARTESIAN_POINT('',(6.23208743536672,7.49622498081852,0.));
#467=CARTESIAN_POINT('',(6.69260892478546,7.67959849657165,0.));
#468=CARTESIAN_POINT('',(6.91626347276945,7.79438225995997,0.));
#469=CARTESIAN_POINT('',(7.33612029381996,8.06518575899111,0.));
#470=CARTESIAN_POINT('',(7.53029127793966,8.21932623382819,0.));
#471=CARTESIAN_POINT('',(7.8870764066886,8.56513456468806,0.));
#472=CARTESIAN_POINT('',(8.05047676588125,8.75871556858367,0.));
#473=CARTESIAN_POINT('',(8.33082435489403,9.16841472508821,0.));
#474=CARTESIAN_POINT('',(8.44974431764304,9.38592758865851,0.));
#475=CARTESIAN_POINT('',(8.64388556248017,9.84698950859235,0.));
#476=CARTESIAN_POINT('',(8.71710518042857,10.0868931258618,0.));
#477=CARTESIAN_POINT('',(8.81359054916721,10.5727016766146,0.));
#478=CARTESIAN_POINT('',(8.83761409842919,10.822641061509,0.));
#479=CARTESIAN_POINT('',(8.83474715725708,11.3225877193853,0.));
#480=CARTESIAN_POINT('',(8.80835467618764,11.5689485434878,0.));
#481=CARTESIAN_POINT('',(8.7071440465374,12.054661181533,0.));
#482=CARTESIAN_POINT('',(8.63100662093817,12.2962458084644,0.));
#483=CARTESIAN_POINT('',(8.435424663883,12.7529145754737,0.));
#484=CARTESIAN_POINT('',(8.31607580250334,12.9698748724216,0.));
#485=CARTESIAN_POINT('',(8.03413876881531,13.3809821098978,0.));
#486=CARTESIAN_POINT('',(7.8715932885348,13.5739123755622,0.));
#487=CARTESIAN_POINT('',(7.51716919508458,13.9200052552845,0.));
#488=CARTESIAN_POINT('',(7.32380481969009,14.0755268308757,0.));
#489=CARTESIAN_POINT('',(6.90362202924832,14.3502732030489,0.));
#490=CARTESIAN_POINT('',(6.68316262846915,14.4652613706145,0.));
#491=CARTESIAN_POINT('',(6.22419670811712,14.651465558469,0.));
#492=CARTESIAN_POINT('',(5.98291210950674,14.7232754706432,0.));
#493=CARTESIAN_POINT('',(5.49299403437975,14.8184534807085,0.));
#494=CARTESIAN_POINT('',(5.24639761721875,14.8419897385304,0.));
#495=CARTESIAN_POINT('',(4.74998454966723,14.8417577342286,0.));
#496=CARTESIAN_POINT('',(4.49800576706649,14.817211932179,0.));
#497=CARTESIAN_POINT('',(4.01063006885942,14.7214976036973,0.));
#498=CARTESIAN_POINT('',(3.77323459898518,14.6507288543457,0.));
#499=CARTESIAN_POINT('',(3.31121977853807,14.4626714091973,0.));
#500=CARTESIAN_POINT('',(3.08817524661103,14.3453873637824,0.));
#501=CARTESIAN_POINT('',(2.67388437759966,14.0735258821917,0.));
#502=CARTESIAN_POINT('',(2.47985963260629,13.9177367531063,0.));
#503=CARTESIAN_POINT('',(2.12137275810978,13.5663930406222,0.));
#504=CARTESIAN_POINT('',(1.96207998445237,13.3760253991295,0.));
#505=CARTESIAN_POINT('',(1.68219390079182,12.9667838459349,0.));
#506=CARTESIAN_POINT('',(1.56063837561346,12.7452415179931,0.));
#507=CARTESIAN_POINT('',(1.36568129053466,12.28693549801,0.));
#508=CARTESIAN_POINT('',(1.29163454613543,12.0504860390941,0.));
#509=CARTESIAN_POINT('',(1.19074159150484,11.5628893040185,0.));
#510=CARTESIAN_POINT('',(1.1645915285883,11.3114049713247,0.));
#511=CARTESIAN_POINT('',(1.16296503338383,10.8155913959578,0.));
#512=CARTESIAN_POINT('',(1.18671929765763,10.5684842091453,0.));
#513=CARTESIAN_POINT('',(1.28561401682364,10.0759423061791,0.));
#514=CARTESIAN_POINT('',(1.35917164768548,9.83861713492113,0.));
#515=CARTESIAN_POINT('',(1.55226337080021,9.38230105736797,0.));
#516=CARTESIAN_POINT('',(1.67364358119347,9.16075342986287,0.));
#517=CARTESIAN_POINT('',(1.95603412334685,8.75037740556416,0.));
#518=CARTESIAN_POINT('',(2.11610419606333,8.56162501202957,0.));
#519=CARTESIAN_POINT('',(2.47324193356782,8.21633663308779,0.));
#520=CARTESIAN_POINT('',(2.67198087028027,8.05934404064583,0.));
#521=CARTESIAN_POINT('',(3.08927937251734,7.79144423581851,0.));
#522=CARTESIAN_POINT('',(3.30957078669298,7.67844797154851,0.));
#523=CARTESIAN_POINT('',(3.77341494002308,7.49432132170812,0.));
#524=CARTESIAN_POINT('',(4.01515927788011,7.42447015484556,0.));
#525=CARTESIAN_POINT('',(4.50176856233444,7.33208207481909,0.));
#526=CARTESIAN_POINT('',(4.74890140429823,7.30857741990277,0.));
#527=CARTESIAN_POINT('',(5.25109859570177,7.30857741990277,0.));
#528=CARTESIAN_POINT('',(0.,0.,0.));
#529=CARTESIAN_POINT('',(19.5606485988173,0.,0.));
#530=CARTESIAN_POINT('',(19.5606485988173,0.,14.));
#531=CARTESIAN_POINT('',(0.,0.,0.));
#532=CARTESIAN_POINT('',(20.85474382433,0.,0.));
#533=CARTESIAN_POINT('',(20.85474382433,0.,13.8296291314453));
#534=CARTESIAN_POINT('',(19.5606485988173,0.,0.));
#535=CARTESIAN_POINT('',(26.75,0.,0.));
#536=CARTESIAN_POINT('',(26.75,0.,12.25));
#537=CARTESIAN_POINT('',(26.75,0.,0.));
#538=CARTESIAN_POINT('',(34.75,0.,0.));
#539=CARTESIAN_POINT('',(34.75,0.,12.25));
#540=CARTESIAN_POINT('',(0.,0.,0.));
#541=CARTESIAN_POINT('',(35.,0.,0.));
#542=(
GEOMETRIC_REPRESENTATION_CONTEXT(3)
GLOBAL_UNCERTAINTY_ASSIGNED_CONTEXT((#543))
GLOBAL_UNIT_ASSIGNED_CONTEXT((#549,#545,#544))
REPRESENTATION_CONTEXT('model1','TOP_LEVEL_ASSEMBLY_PART')
);
#543=UNCERTAINTY_MEASURE_WITH_UNIT(LENGTH_MEASURE(2.E-5),#549,
'DISTANCE_ACCURACY_VALUE','Maximum Tolerance applied to model');
#544=(
NAMED_UNIT(*)
SI_UNIT($,.STERADIAN.)
SOLID_ANGLE_UNIT()
);
#545=(
CONVERSION_BASED_UNIT('DEGREE',#547)
NAMED_UNIT(#546)
PLANE_ANGLE_UNIT()
);
#546=DIMENSIONAL_EXPONENTS(0.,0.,0.,0.,0.,0.,0.);
#547=PLANE_ANGLE_MEASURE_WITH_UNIT(PLANE_ANGLE_MEASURE(0.0174532925),#548);
#548=(
NAMED_UNIT(*)
PLANE_ANGLE_UNIT()
SI_UNIT($,.RADIAN.)
);
#549=(
LENGTH_UNIT()
NAMED_UNIT(*)
SI_UNIT(.MILLI.,.METRE.)
);
ENDSEC;
END-ISO-10303-21;
