ISO-10303-21;
HEADER;
/* Generated by software containing ST-Developer
 * from STEP Tools, Inc. (www.steptools.com) 
 */
/* OPTION: using custom schema-name function */

FILE_DESCRIPTION(
/* description */ (''),
/* implementation_level */ '2;1');

FILE_NAME(
/* name */ 'model1.stp',
/* time_stamp */ '2023-11-07T10:23:35+03:00',
/* author */ (''),
/* organization */ (''),
/* preprocessor_version */ 'ST-DEVELOPER v19.4',
/* originating_system */ 'SIEMENS PLM Software NX2306.3001',
/* authorisation */ '');

FILE_SCHEMA (('AUTOMOTIVE_DESIGN { 1 0 10303 214 3 1 1 1 }'));
ENDSEC;

DATA;
#10=PROPERTY_DEFINITION_REPRESENTATION(#14,#12);
#11=PROPERTY_DEFINITION_REPRESENTATION(#15,#13);
#12=REPRESENTATION('',(#16),#461);
#13=REPRESENTATION('',(#17),#461);
#14=PROPERTY_DEFINITION('pmi validation property','',#21);
#15=PROPERTY_DEFINITION('pmi validation property','',#21);
#16=VALUE_REPRESENTATION_ITEM('number of annotations',COUNT_MEASURE(0.));
#17=VALUE_REPRESENTATION_ITEM('number of views',COUNT_MEASURE(0.));
#18=SHAPE_REPRESENTATION_RELATIONSHIP('None',
'relationship between model1_objects-None and model1_objects-None',#30,
#19);
#19=ADVANCED_BREP_SHAPE_REPRESENTATION('model1_objects-None',(#125,#126),
#461);
#20=SHAPE_DEFINITION_REPRESENTATION(#21,#30);
#21=PRODUCT_DEFINITION_SHAPE('','',#22);
#22=PRODUCT_DEFINITION(' ','',#24,#23);
#23=PRODUCT_DEFINITION_CONTEXT('part definition',#29,'design');
#24=PRODUCT_DEFINITION_FORMATION_WITH_SPECIFIED_SOURCE(' ',' ',#26,
 .NOT_KNOWN.);
#25=PRODUCT_RELATED_PRODUCT_CATEGORY('part','',(#26));
#26=PRODUCT('model1_objects','model1_objects',' ',(#27));
#27=PRODUCT_CONTEXT(' ',#29,'mechanical');
#28=APPLICATION_PROTOCOL_DEFINITION('international standard',
'automotive_design',2010,#29);
#29=APPLICATION_CONTEXT(
'core data for automotive mechanical design processes');
#30=SHAPE_REPRESENTATION('model1_objects-None',(#230),#461);
#31=OVER_RIDING_STYLED_ITEM('',(#60),#131,#57);
#32=OVER_RIDING_STYLED_ITEM('',(#61),#132,#57);
#33=OVER_RIDING_STYLED_ITEM('',(#62),#133,#57);
#34=OVER_RIDING_STYLED_ITEM('',(#63),#134,#57);
#35=OVER_RIDING_STYLED_ITEM('',(#64),#135,#57);
#36=OVER_RIDING_STYLED_ITEM('',(#65),#136,#57);
#37=OVER_RIDING_STYLED_ITEM('',(#66),#137,#57);
#38=OVER_RIDING_STYLED_ITEM('',(#67),#138,#57);
#39=OVER_RIDING_STYLED_ITEM('',(#68),#139,#57);
#40=COLOUR_RGB('Medium Steel',0.611764705882353,0.658823529411765,0.670588235294118);
#41=COLOUR_RGB('silver gray',0.6,0.6,0.6);
#42=TOROIDAL_SURFACE('',#245,14.75,1.);
#43=PLANE('',#241);
#44=PLANE('',#243);
#45=FACE_OUTER_BOUND('',#172,.T.);
#46=FACE_OUTER_BOUND('',#173,.T.);
#47=SURFACE_OF_REVOLUTION('',#49,#48);
#48=AXIS1_PLACEMENT('',#449,#271);
#49=B_SPLINE_CURVE_WITH_KNOTS('',3,(#383,#384,#385,#386,#387,#388,#389,
#390,#391,#392,#393,#394,#395,#396,#397,#398,#399,#400,#401,#402,#403,#404,
#405,#406,#407,#408,#409,#410,#411,#412,#413,#414,#415,#416,#417,#418,#419,
#420,#421,#422,#423,#424,#425,#426,#427,#428,#429,#430,#431,#432,#433,#434,
#435,#436,#437,#438,#439,#440,#441,#442,#443,#444,#445,#446,#447,#448),
 .UNSPECIFIED.,.T.,.F.,(2,2,2,2,2,2,2,2,2,2,2,2,2,2,2,2,2,2,2,2,2,2,2,2,
2,2,2,2,2,2,2,2,2,2,2),(-0.03125,0.,0.03125,0.0625,0.09375,0.125,0.15625,
0.1875,0.21875,0.25,0.28125,0.3125,0.34375,0.375,0.40625,0.4375,0.46875,
0.5,0.53125,0.5625,0.59375,0.625,0.65625,0.6875,0.71875,0.75,0.78125,0.8125,
0.84375,0.875,0.90625,0.9375,0.96875,1.,1.03125),.UNSPECIFIED.);
#50=CONICAL_SURFACE('',#237,16.,11.3099324740202);
#51=CONICAL_SURFACE('',#248,15.75,9.99999999999998);
#52=CYLINDRICAL_SURFACE('',#235,16.);
#53=CYLINDRICAL_SURFACE('',#239,14.0000000000204);
#54=CYLINDRICAL_SURFACE('',#247,15.75);
#55=PRESENTATION_LAYER_ASSIGNMENT('1','Layer 1',(#125,#126));
#56=STYLED_ITEM('',(#58),#125);
#57=STYLED_ITEM('',(#59),#126);
#58=PRESENTATION_STYLE_ASSIGNMENT((#69));
#59=PRESENTATION_STYLE_ASSIGNMENT((#70));
#60=PRESENTATION_STYLE_ASSIGNMENT((#71));
#61=PRESENTATION_STYLE_ASSIGNMENT((#72));
#62=PRESENTATION_STYLE_ASSIGNMENT((#73));
#63=PRESENTATION_STYLE_ASSIGNMENT((#74));
#64=PRESENTATION_STYLE_ASSIGNMENT((#75));
#65=PRESENTATION_STYLE_ASSIGNMENT((#76));
#66=PRESENTATION_STYLE_ASSIGNMENT((#77));
#67=PRESENTATION_STYLE_ASSIGNMENT((#78));
#68=PRESENTATION_STYLE_ASSIGNMENT((#79));
#69=SURFACE_STYLE_USAGE(.BOTH.,#80);
#70=SURFACE_STYLE_USAGE(.BOTH.,#81);
#71=SURFACE_STYLE_USAGE(.BOTH.,#82);
#72=SURFACE_STYLE_USAGE(.BOTH.,#83);
#73=SURFACE_STYLE_USAGE(.BOTH.,#84);
#74=SURFACE_STYLE_USAGE(.BOTH.,#85);
#75=SURFACE_STYLE_USAGE(.BOTH.,#86);
#76=SURFACE_STYLE_USAGE(.BOTH.,#87);
#77=SURFACE_STYLE_USAGE(.BOTH.,#88);
#78=SURFACE_STYLE_USAGE(.BOTH.,#89);
#79=SURFACE_STYLE_USAGE(.BOTH.,#90);
#80=SURFACE_SIDE_STYLE('',(#91));
#81=SURFACE_SIDE_STYLE('',(#92));
#82=SURFACE_SIDE_STYLE('',(#93));
#83=SURFACE_SIDE_STYLE('',(#94));
#84=SURFACE_SIDE_STYLE('',(#95));
#85=SURFACE_SIDE_STYLE('',(#96));
#86=SURFACE_SIDE_STYLE('',(#97));
#87=SURFACE_SIDE_STYLE('',(#98));
#88=SURFACE_SIDE_STYLE('',(#99));
#89=SURFACE_SIDE_STYLE('',(#100));
#90=SURFACE_SIDE_STYLE('',(#101));
#91=SURFACE_STYLE_FILL_AREA(#102);
#92=SURFACE_STYLE_FILL_AREA(#103);
#93=SURFACE_STYLE_FILL_AREA(#104);
#94=SURFACE_STYLE_FILL_AREA(#105);
#95=SURFACE_STYLE_FILL_AREA(#106);
#96=SURFACE_STYLE_FILL_AREA(#107);
#97=SURFACE_STYLE_FILL_AREA(#108);
#98=SURFACE_STYLE_FILL_AREA(#109);
#99=SURFACE_STYLE_FILL_AREA(#110);
#100=SURFACE_STYLE_FILL_AREA(#111);
#101=SURFACE_STYLE_FILL_AREA(#112);
#102=FILL_AREA_STYLE('',(#113));
#103=FILL_AREA_STYLE('',(#114));
#104=FILL_AREA_STYLE('',(#115));
#105=FILL_AREA_STYLE('',(#116));
#106=FILL_AREA_STYLE('',(#117));
#107=FILL_AREA_STYLE('',(#118));
#108=FILL_AREA_STYLE('',(#119));
#109=FILL_AREA_STYLE('',(#120));
#110=FILL_AREA_STYLE('',(#121));
#111=FILL_AREA_STYLE('',(#122));
#112=FILL_AREA_STYLE('',(#123));
#113=FILL_AREA_STYLE_COLOUR('',#124);
#114=FILL_AREA_STYLE_COLOUR('',#40);
#115=FILL_AREA_STYLE_COLOUR('',#41);
#116=FILL_AREA_STYLE_COLOUR('',#41);
#117=FILL_AREA_STYLE_COLOUR('',#41);
#118=FILL_AREA_STYLE_COLOUR('',#41);
#119=FILL_AREA_STYLE_COLOUR('',#41);
#120=FILL_AREA_STYLE_COLOUR('',#41);
#121=FILL_AREA_STYLE_COLOUR('',#41);
#122=FILL_AREA_STYLE_COLOUR('',#41);
#123=FILL_AREA_STYLE_COLOUR('',#41);
#124=DRAUGHTING_PRE_DEFINED_COLOUR('yellow');
#125=MANIFOLD_SOLID_BREP('',#127);
#126=MANIFOLD_SOLID_BREP('',#128);
#127=CLOSED_SHELL('',(#129,#130));
#128=CLOSED_SHELL('',(#131,#132,#133,#134,#135,#136,#137,#138,#139));
#129=ADVANCED_FACE('',(#142,#143),#140,.F.);
#130=ADVANCED_FACE('',(#144,#145),#141,.F.);
#131=ADVANCED_FACE('',(#146,#147),#52,.T.);
#132=ADVANCED_FACE('',(#148,#149),#50,.T.);
#133=ADVANCED_FACE('',(#150,#151),#53,.T.);
#134=ADVANCED_FACE('',(#152,#153),#47,.T.);
#135=ADVANCED_FACE('',(#45),#43,.F.);
#136=ADVANCED_FACE('',(#46),#44,.F.);
#137=ADVANCED_FACE('',(#154,#155),#42,.T.);
#138=ADVANCED_FACE('',(#156,#157),#54,.T.);
#139=ADVANCED_FACE('',(#158,#159),#51,.T.);
#140=(
BOUNDED_SURFACE()
B_SPLINE_SURFACE(3,3,((#293,#294,#295,#296,#297,#298,#299),(#300,#301,#302,
#303,#304,#305,#306),(#307,#308,#309,#310,#311,#312,#313),(#314,#315,#316,
#317,#318,#319,#320),(#321,#322,#323,#324,#325,#326,#327),(#328,#329,#330,
#331,#332,#333,#334),(#335,#336,#337,#338,#339,#340,#341)),
 .UNSPECIFIED.,.T.,.F.,.F.)
B_SPLINE_SURFACE_WITH_KNOTS((1,3,3,3,1),(4,3,4),(-0.5,0.,0.5,1.,1.5),(0.,
0.5,1.),.UNSPECIFIED.)
GEOMETRIC_REPRESENTATION_ITEM()
RATIONAL_B_SPLINE_SURFACE(((1.,0.566223891312676,0.566223891312676,1.,0.566223891312676,
0.566223891312676,1.),(0.333333333333334,0.188741297104226,0.188741297104226,
0.333333333333334,0.188741297104226,0.188741297104226,0.333333333333334),
(0.333333333333334,0.188741297104226,0.188741297104226,0.333333333333334,
0.188741297104226,0.188741297104226,0.333333333333334),(1.,0.566223891312676,
0.566223891312676,1.,0.566223891312676,0.566223891312676,1.),(0.333333333333334,
0.188741297104226,0.188741297104226,0.333333333333334,0.188741297104226,
0.188741297104226,0.333333333333334),(0.333333333333334,0.188741297104226,
0.188741297104226,0.333333333333334,0.188741297104226,0.188741297104226,
0.333333333333334),(1.,0.566223891312676,0.566223891312676,1.,0.566223891312676,
0.566223891312676,1.)))
REPRESENTATION_ITEM('')
SURFACE()
);
#141=(
BOUNDED_SURFACE()
B_SPLINE_SURFACE(3,3,((#342,#343,#344,#345),(#346,#347,#348,#349),(#350,
#351,#352,#353),(#354,#355,#356,#357),(#358,#359,#360,#361),(#362,#363,
#364,#365),(#366,#367,#368,#369)),.UNSPECIFIED.,.T.,.F.,.F.)
B_SPLINE_SURFACE_WITH_KNOTS((1,3,3,3,1),(4,4),(-0.5,0.,0.5,1.,1.5),(0.,
1.),.UNSPECIFIED.)
GEOMETRIC_REPRESENTATION_ITEM()
RATIONAL_B_SPLINE_SURFACE(((1.,0.837285964012211,0.837285964012211,1.),
(0.333333333333334,0.279095321337404,0.279095321337404,0.333333333333334),
(0.333333333333334,0.279095321337404,0.279095321337404,0.333333333333334),
(1.,0.837285964012211,0.837285964012211,1.),(0.333333333333334,0.279095321337404,
0.279095321337404,0.333333333333334),(0.333333333333334,0.279095321337404,
0.279095321337404,0.333333333333334),(1.,0.837285964012211,0.837285964012211,
1.)))
REPRESENTATION_ITEM('')
SURFACE()
);
#142=FACE_BOUND('',#160,.T.);
#143=FACE_BOUND('',#161,.T.);
#144=FACE_BOUND('',#162,.T.);
#145=FACE_BOUND('',#163,.T.);
#146=FACE_BOUND('',#164,.T.);
#147=FACE_BOUND('',#165,.T.);
#148=FACE_BOUND('',#166,.T.);
#149=FACE_BOUND('',#167,.T.);
#150=FACE_BOUND('',#168,.T.);
#151=FACE_BOUND('',#169,.T.);
#152=FACE_BOUND('',#170,.T.);
#153=FACE_BOUND('',#171,.T.);
#154=FACE_BOUND('',#174,.T.);
#155=FACE_BOUND('',#175,.T.);
#156=FACE_BOUND('',#176,.T.);
#157=FACE_BOUND('',#177,.T.);
#158=FACE_BOUND('',#178,.T.);
#159=FACE_BOUND('',#179,.T.);
#160=EDGE_LOOP('',(#180));
#161=EDGE_LOOP('',(#181));
#162=EDGE_LOOP('',(#182));
#163=EDGE_LOOP('',(#183));
#164=EDGE_LOOP('',(#184));
#165=EDGE_LOOP('',(#185));
#166=EDGE_LOOP('',(#186));
#167=EDGE_LOOP('',(#187));
#168=EDGE_LOOP('',(#188));
#169=EDGE_LOOP('',(#189));
#170=EDGE_LOOP('',(#190));
#171=EDGE_LOOP('',(#191));
#172=EDGE_LOOP('',(#192));
#173=EDGE_LOOP('',(#193));
#174=EDGE_LOOP('',(#194));
#175=EDGE_LOOP('',(#195));
#176=EDGE_LOOP('',(#196));
#177=EDGE_LOOP('',(#197));
#178=EDGE_LOOP('',(#198));
#179=EDGE_LOOP('',(#199));
#180=ORIENTED_EDGE('',*,*,#210,.T.);
#181=ORIENTED_EDGE('',*,*,#211,.F.);
#182=ORIENTED_EDGE('',*,*,#211,.T.);
#183=ORIENTED_EDGE('',*,*,#210,.F.);
#184=ORIENTED_EDGE('',*,*,#212,.F.);
#185=ORIENTED_EDGE('',*,*,#213,.T.);
#186=ORIENTED_EDGE('',*,*,#214,.F.);
#187=ORIENTED_EDGE('',*,*,#212,.T.);
#188=ORIENTED_EDGE('',*,*,#215,.F.);
#189=ORIENTED_EDGE('',*,*,#214,.T.);
#190=ORIENTED_EDGE('',*,*,#216,.F.);
#191=ORIENTED_EDGE('',*,*,#215,.T.);
#192=ORIENTED_EDGE('',*,*,#216,.T.);
#193=ORIENTED_EDGE('',*,*,#217,.F.);
#194=ORIENTED_EDGE('',*,*,#218,.F.);
#195=ORIENTED_EDGE('',*,*,#217,.T.);
#196=ORIENTED_EDGE('',*,*,#219,.F.);
#197=ORIENTED_EDGE('',*,*,#218,.T.);
#198=ORIENTED_EDGE('',*,*,#213,.F.);
#199=ORIENTED_EDGE('',*,*,#219,.T.);
#200=VERTEX_POINT('',#290);
#201=VERTEX_POINT('',#292);
#202=VERTEX_POINT('',#371);
#203=VERTEX_POINT('',#373);
#204=VERTEX_POINT('',#376);
#205=VERTEX_POINT('',#379);
#206=VERTEX_POINT('',#382);
#207=VERTEX_POINT('',#452);
#208=VERTEX_POINT('',#455);
#209=VERTEX_POINT('',#458);
#210=EDGE_CURVE('',#200,#200,#220,.T.);
#211=EDGE_CURVE('',#201,#201,#221,.T.);
#212=EDGE_CURVE('',#202,#202,#222,.T.);
#213=EDGE_CURVE('',#203,#203,#223,.T.);
#214=EDGE_CURVE('',#204,#204,#224,.T.);
#215=EDGE_CURVE('',#205,#205,#225,.T.);
#216=EDGE_CURVE('',#206,#206,#226,.T.);
#217=EDGE_CURVE('',#207,#207,#227,.T.);
#218=EDGE_CURVE('',#208,#208,#228,.T.);
#219=EDGE_CURVE('',#209,#209,#229,.T.);
#220=CIRCLE('',#231,5.);
#221=CIRCLE('',#232,5.);
#222=CIRCLE('',#233,16.);
#223=CIRCLE('',#234,16.);
#224=CIRCLE('',#236,14.);
#225=CIRCLE('',#238,14.0000000000409);
#226=CIRCLE('',#240,7.85179741617688);
#227=CIRCLE('',#242,14.75);
#228=CIRCLE('',#244,15.75);
#229=CIRCLE('',#246,15.75);
#230=AXIS2_PLACEMENT_3D('',#288,#249,#250);
#231=AXIS2_PLACEMENT_3D('',#289,#251,#252);
#232=AXIS2_PLACEMENT_3D('',#291,#253,#254);
#233=AXIS2_PLACEMENT_3D('',#370,#255,#256);
#234=AXIS2_PLACEMENT_3D('',#372,#257,#258);
#235=AXIS2_PLACEMENT_3D('',#374,#259,#260);
#236=AXIS2_PLACEMENT_3D('',#375,#261,#262);
#237=AXIS2_PLACEMENT_3D('',#377,#263,#264);
#238=AXIS2_PLACEMENT_3D('',#378,#265,#266);
#239=AXIS2_PLACEMENT_3D('',#380,#267,#268);
#240=AXIS2_PLACEMENT_3D('',#381,#269,#270);
#241=AXIS2_PLACEMENT_3D('',#450,#272,#273);
#242=AXIS2_PLACEMENT_3D('',#451,#274,#275);
#243=AXIS2_PLACEMENT_3D('',#453,#276,#277);
#244=AXIS2_PLACEMENT_3D('',#454,#278,#279);
#245=AXIS2_PLACEMENT_3D('',#456,#280,#281);
#246=AXIS2_PLACEMENT_3D('',#457,#282,#283);
#247=AXIS2_PLACEMENT_3D('',#459,#284,#285);
#248=AXIS2_PLACEMENT_3D('',#460,#286,#287);
#249=DIRECTION('',(0.,0.,1.));
#250=DIRECTION('',(1.,0.,0.));
#251=DIRECTION('',(0.,0.989743318610847,0.142857142856726));
#252=DIRECTION('',(1.,0.,0.));
#253=DIRECTION('',(0.,0.,1.));
#254=DIRECTION('',(1.,0.,0.));
#255=DIRECTION('',(-1.,0.,0.));
#256=DIRECTION('',(0.,0.,1.));
#257=DIRECTION('',(-1.,0.,0.));
#258=DIRECTION('',(0.,0.,1.));
#259=DIRECTION('',(-1.,0.,0.));
#260=DIRECTION('',(0.,0.,1.));
#261=DIRECTION('',(-1.,0.,0.));
#262=DIRECTION('',(0.,0.,1.));
#263=DIRECTION('',(1.,0.,0.));
#264=DIRECTION('',(2.56996070515084E-16,0.,-1.));
#265=DIRECTION('',(-1.,0.,0.));
#266=DIRECTION('',(0.,0.,1.));
#267=DIRECTION('',(-1.,0.,0.));
#268=DIRECTION('',(0.,0.,1.));
#269=DIRECTION('',(-1.,0.,0.));
#270=DIRECTION('',(0.,0.,1.));
#271=DIRECTION('',(-1.,0.,0.));
#272=DIRECTION('',(1.,0.,0.));
#273=DIRECTION('',(0.,0.,-1.));
#274=DIRECTION('',(-1.,0.,0.));
#275=DIRECTION('',(0.,0.,1.));
#276=DIRECTION('',(-1.,0.,0.));
#277=DIRECTION('',(0.,0.,1.));
#278=DIRECTION('',(-1.,0.,0.));
#279=DIRECTION('',(0.,0.,1.));
#280=DIRECTION('',(-1.,0.,0.));
#281=DIRECTION('',(0.,0.,1.));
#282=DIRECTION('',(-1.,0.,0.));
#283=DIRECTION('',(0.,0.,1.));
#284=DIRECTION('',(-1.,0.,0.));
#285=DIRECTION('',(0.,0.,1.));
#286=DIRECTION('',(-1.,0.,0.));
#287=DIRECTION('',(1.44502352719488E-16,0.,1.));
#288=CARTESIAN_POINT('',(0.,0.,0.));
#289=CARTESIAN_POINT('',(5.,0.426013791511944,11.0484898735371));
#290=CARTESIAN_POINT('',(10.,0.426013791511944,11.0484898735371));
#291=CARTESIAN_POINT('',(5.,-10.87430992,2.));
#292=CARTESIAN_POINT('',(10.,-10.87430992,2.));
#293=CARTESIAN_POINT('',(10.,-10.87430992,2.));
#294=CARTESIAN_POINT('',(10.,-13.0807341482705,-9.99667043660496));
#295=CARTESIAN_POINT('',(10.,-2.61066598385914,-16.2549515162778));
#296=CARTESIAN_POINT('',(10.,6.91089829508585,-8.63076479758254));
#297=CARTESIAN_POINT('',(10.,16.4324625740308,-1.00657807888728));
#298=CARTESIAN_POINT('',(10.,12.6148416628986,10.5785062979525));
#299=CARTESIAN_POINT('',(10.,0.426013791511944,11.0484898735371));
#300=CARTESIAN_POINT('',(10.,-0.874309919999998,2.));
#301=CARTESIAN_POINT('',(10.,-3.08073414827047,1.03545070474739));
#302=CARTESIAN_POINT('',(10.,-2.94773684315916,-1.36891510246755));
#303=CARTESIAN_POINT('',(10.,-0.648391165097316,-2.08422809050117));
#304=CARTESIAN_POINT('',(10.,1.65095451296452,-2.79954107853479));
#305=CARTESIAN_POINT('',(10.,3.12444490170685,-0.894944194058903));
#306=CARTESIAN_POINT('',(10.,1.8545852200792,1.15105668742863));
#307=CARTESIAN_POINT('',(-5.10076676829453E-16,-0.874309919999998,2.));
#308=CARTESIAN_POINT('',(-5.10076676829454E-16,-3.08073414827047,1.03545070474739));
#309=CARTESIAN_POINT('',(-5.10076676829454E-16,-2.94773684315916,-1.36891510246755));
#310=CARTESIAN_POINT('',(-5.10076676829453E-16,-0.648391165097316,-2.08422809050117));
#311=CARTESIAN_POINT('',(-5.10076676829454E-16,1.65095451296452,-2.79954107853479));
#312=CARTESIAN_POINT('',(-5.10076676829453E-16,3.12444490170685,-0.894944194058903));
#313=CARTESIAN_POINT('',(-5.10076676829453E-16,1.8545852200792,1.15105668742863));
#314=CARTESIAN_POINT('',(-1.7347234759768E-15,-10.87430992,2.));
#315=CARTESIAN_POINT('',(-1.73472347597681E-15,-13.0807341482705,-9.99667043660496));
#316=CARTESIAN_POINT('',(-1.73472347597681E-15,-2.61066598385914,-16.2549515162778));
#317=CARTESIAN_POINT('',(-1.7347234759768E-15,6.91089829508585,-8.63076479758254));
#318=CARTESIAN_POINT('',(-1.73472347597681E-15,16.4324625740308,-1.00657807888728));
#319=CARTESIAN_POINT('',(-1.73472347597681E-15,12.6148416628986,10.5785062979525));
#320=CARTESIAN_POINT('',(-1.7347234759768E-15,0.426013791511944,11.0484898735371));
#321=CARTESIAN_POINT('',(-2.95937027512416E-15,-20.87430992,2.));
#322=CARTESIAN_POINT('',(-2.95937027512416E-15,-23.0807341482705,-21.0287915779573));
#323=CARTESIAN_POINT('',(-2.95937027512416E-15,-2.27359512455913,-31.140987930088));
#324=CARTESIAN_POINT('',(-2.95937027512416E-15,14.470187755269,-15.1773015046639));
#325=CARTESIAN_POINT('',(-2.95937027512416E-15,31.2139706350971,0.786384920760233));
#326=CARTESIAN_POINT('',(-2.95937027512416E-15,22.1052384240902,22.0519567899638));
#327=CARTESIAN_POINT('',(-2.95937027512416E-15,-1.00255763705531,20.9459230596456));
#328=CARTESIAN_POINT('',(10.,-20.87430992,2.));
#329=CARTESIAN_POINT('',(10.,-23.0807341482705,-21.0287915779573));
#330=CARTESIAN_POINT('',(10.,-2.27359512455913,-31.140987930088));
#331=CARTESIAN_POINT('',(10.,14.470187755269,-15.1773015046639));
#332=CARTESIAN_POINT('',(10.,31.2139706350971,0.786384920760233));
#333=CARTESIAN_POINT('',(10.,22.1052384240902,22.0519567899638));
#334=CARTESIAN_POINT('',(10.,-1.00255763705531,20.9459230596456));
#335=CARTESIAN_POINT('',(10.,-10.87430992,2.));
#336=CARTESIAN_POINT('',(10.,-13.0807341482705,-9.99667043660496));
#337=CARTESIAN_POINT('',(10.,-2.61066598385914,-16.2549515162778));
#338=CARTESIAN_POINT('',(10.,6.91089829508585,-8.63076479758254));
#339=CARTESIAN_POINT('',(10.,16.4324625740308,-1.00657807888728));
#340=CARTESIAN_POINT('',(10.,12.6148416628986,10.5785062979525));
#341=CARTESIAN_POINT('',(10.,0.426013791511944,11.0484898735371));
#342=CARTESIAN_POINT('',(10.,0.426013791511944,11.0484898735371));
#343=CARTESIAN_POINT('',(10.,-5.3330177798388,11.2705498023808));
#344=CARTESIAN_POINT('',(10.,-9.83180879319089,7.66824017243574));
#345=CARTESIAN_POINT('',(10.,-10.87430992,2.));
#346=CARTESIAN_POINT('',(10.,1.8545852200792,1.15105668742863));
#347=CARTESIAN_POINT('',(10.,1.25459627324645,2.11776027827668));
#348=CARTESIAN_POINT('',(10.,0.168191206809112,2.45573453839019));
#349=CARTESIAN_POINT('',(10.,-0.874309919999998,2.));
#350=CARTESIAN_POINT('',(-5.10076676829453E-16,1.8545852200792,1.15105668742863));
#351=CARTESIAN_POINT('',(-5.10076676829454E-16,1.25459627324645,2.11776027827668));
#352=CARTESIAN_POINT('',(-5.10076676829454E-16,0.168191206809112,2.45573453839019));
#353=CARTESIAN_POINT('',(-5.10076676829453E-16,-0.874309919999998,2.));
#354=CARTESIAN_POINT('',(-1.7347234759768E-15,0.426013791511944,11.0484898735371));
#355=CARTESIAN_POINT('',(-1.73472347597681E-15,-5.3330177798388,11.2705498023808));
#356=CARTESIAN_POINT('',(-1.73472347597681E-15,-9.83180879319089,7.66824017243574));
#357=CARTESIAN_POINT('',(-1.7347234759768E-15,-10.87430992,2.));
#358=CARTESIAN_POINT('',(-2.95937027512416E-15,-1.00255763705531,20.9459230596456));
#359=CARTESIAN_POINT('',(-2.95937027512416E-15,-11.9206318329241,20.423339326485));
#360=CARTESIAN_POINT('',(-2.95937027512416E-15,-19.8318087931909,12.8807458064813));
#361=CARTESIAN_POINT('',(-2.95937027512416E-15,-20.87430992,2.));
#362=CARTESIAN_POINT('',(10.,-1.00255763705531,20.9459230596456));
#363=CARTESIAN_POINT('',(10.,-11.9206318329241,20.423339326485));
#364=CARTESIAN_POINT('',(10.,-19.8318087931909,12.8807458064813));
#365=CARTESIAN_POINT('',(10.,-20.87430992,2.));
#366=CARTESIAN_POINT('',(10.,0.426013791511944,11.0484898735371));
#367=CARTESIAN_POINT('',(10.,-5.3330177798388,11.2705498023808));
#368=CARTESIAN_POINT('',(10.,-9.83180879319089,7.66824017243574));
#369=CARTESIAN_POINT('',(10.,-10.87430992,2.));
#370=CARTESIAN_POINT('',(60.,0.,0.));
#371=CARTESIAN_POINT('',(60.,0.,16.));
#372=CARTESIAN_POINT('',(144.582179545096,0.,0.));
#373=CARTESIAN_POINT('',(144.582179545096,0.,16.));
#374=CARTESIAN_POINT('',(0.,0.,0.));
#375=CARTESIAN_POINT('',(50.,0.,0.));
#376=CARTESIAN_POINT('',(50.,0.,14.));
#377=CARTESIAN_POINT('',(60.,0.,0.));
#378=CARTESIAN_POINT('',(7.40801684112814,0.,0.));
#379=CARTESIAN_POINT('',(7.40801684112814,0.,14.0000000000409));
#380=CARTESIAN_POINT('',(0.,0.,0.));
#381=CARTESIAN_POINT('',(3.,0.,0.));
#382=CARTESIAN_POINT('',(3.,0.,7.85179741617688));
#383=CARTESIAN_POINT('',(4.74890140428889,7.30857743916252,0.));
#384=CARTESIAN_POINT('',(5.25109859571111,7.30857743916251,0.));
#385=CARTESIAN_POINT('',(5.49980586800471,7.33208916940839,0.));
#386=CARTESIAN_POINT('',(5.99224529657171,7.42617323056238,0.));
#387=CARTESIAN_POINT('',(6.23208743540035,7.49622500012673,0.));
#388=CARTESIAN_POINT('',(6.69260892481995,7.67959851591895,0.));
#389=CARTESIAN_POINT('',(6.91626347280246,7.79438227932982,0.));
#390=CARTESIAN_POINT('',(7.33612029384457,8.06518577840441,0.));
#391=CARTESIAN_POINT('',(7.53029127795794,8.21932625326225,0.));
#392=CARTESIAN_POINT('',(7.88707640669289,8.56513458415819,0.));
#393=CARTESIAN_POINT('',(8.05047676587909,8.75871558807032,0.));
#394=CARTESIAN_POINT('',(8.33082435488247,9.16841474460351,0.));
#395=CARTESIAN_POINT('',(8.44974431762748,9.38592760818487,0.));
#396=CARTESIAN_POINT('',(8.64388556246005,9.84698952813294,0.));
#397=CARTESIAN_POINT('',(8.71710518041154,10.0868931454163,0.));
#398=CARTESIAN_POINT('',(8.81359054915631,10.5727016961854,0.));
#399=CARTESIAN_POINT('',(8.83761409842321,10.822641081081,0.));
#400=CARTESIAN_POINT('',(8.83474715726416,11.3225877389814,0.));
#401=CARTESIAN_POINT('',(8.80835467620162,11.5689485630944,0.));
#402=CARTESIAN_POINT('',(8.70714404656688,12.0546612011576,0.));
#403=CARTESIAN_POINT('',(8.63100662097595,12.2962458280996,0.));
#404=CARTESIAN_POINT('',(8.4354246639324,12.7529145951371,0.));
#405=CARTESIAN_POINT('',(8.31607580255809,12.9698748920975,0.));
#406=CARTESIAN_POINT('',(8.0341387688812,13.3809821295963,0.));
#407=CARTESIAN_POINT('',(7.87159328860097,13.5739123952776,0.));
#408=CARTESIAN_POINT('',(7.51716919515102,13.9200052750268,0.));
#409=CARTESIAN_POINT('',(7.32380481975615,14.0755268506296,0.));
#410=CARTESIAN_POINT('',(6.90362202931359,14.3502732228231,0.));
#411=CARTESIAN_POINT('',(6.68316262852411,14.4652613904022,0.));
#412=CARTESIAN_POINT('',(6.22419670816065,14.6514655782734,0.));
#413=CARTESIAN_POINT('',(5.98291210954565,14.7232754904538,0.));
#414=CARTESIAN_POINT('',(5.49299403439988,14.818453500529,0.));
#415=CARTESIAN_POINT('',(5.24639761723013,14.8419897583532,0.));
#416=CARTESIAN_POINT('',(4.74998454966242,14.8417577540518,0.));
#417=CARTESIAN_POINT('',(4.49800576705294,14.8172119520002,0.));
#418=CARTESIAN_POINT('',(4.01063006882902,14.72149762351,0.));
#419=CARTESIAN_POINT('',(3.77323459894782,14.6507288741521,0.));
#420=CARTESIAN_POINT('',(3.31121977848951,14.4626714289879,0.));
#421=CARTESIAN_POINT('',(3.08817524655698,14.3453873835628,0.));
#422=CARTESIAN_POINT('',(2.67388437753958,14.0735259019502,0.));
#423=CARTESIAN_POINT('',(2.47985963254571,13.9177367728534,0.));
#424=CARTESIAN_POINT('',(2.1213727580492,13.5663930603431,0.));
#425=CARTESIAN_POINT('',(1.96207998439404,13.3760254188374,0.));
#426=CARTESIAN_POINT('',(1.68219390074123,12.9667838656177,0.));
#427=CARTESIAN_POINT('',(1.56063837556832,12.7452415376638,0.));
#428=CARTESIAN_POINT('',(1.36568129050131,12.2869355176562,0.));
#429=CARTESIAN_POINT('',(1.29163454610916,12.0504860587296,0.));
#430=CARTESIAN_POINT('',(1.19074159149266,11.5628893236365,0.));
#431=CARTESIAN_POINT('',(1.16459152858254,11.3114049909318,0.));
#432=CARTESIAN_POINT('',(1.16296503338905,10.8155914155476,0.));
#433=CARTESIAN_POINT('',(1.18671929766727,10.5684842287287,0.));
#434=CARTESIAN_POINT('',(1.28561401683534,10.0759423257543,0.));
#435=CARTESIAN_POINT('',(1.35917164769981,9.83861715447774,0.));
#436=CARTESIAN_POINT('',(1.55226337080952,9.38230107690613,0.));
#437=CARTESIAN_POINT('',(1.67364358119489,9.16075344939409,0.));
#438=CARTESIAN_POINT('',(1.95603412334121,8.75037742505929,0.));
#439=CARTESIAN_POINT('',(2.11610419605208,8.56162503150703,0.));
#440=CARTESIAN_POINT('',(2.47324193354003,8.21633665252953,0.));
#441=CARTESIAN_POINT('',(2.6719808702467,8.05934406006448,0.));
#442=CARTESIAN_POINT('',(3.08927937248027,7.7914442551898,0.));
#443=CARTESIAN_POINT('',(3.3095707866546,7.67844799089745,0.));
#444=CARTESIAN_POINT('',(3.77341493998446,7.49432134101756,0.));
#445=CARTESIAN_POINT('',(4.01515927784895,7.42447017413623,0.));
#446=CARTESIAN_POINT('',(4.50176856231707,7.33208209408548,0.));
#447=CARTESIAN_POINT('',(4.74890140428889,7.30857743916252,0.));
#448=CARTESIAN_POINT('',(5.25109859571111,7.30857743916251,0.));
#449=CARTESIAN_POINT('',(0.,0.,0.));
#450=CARTESIAN_POINT('',(3.,7.85179741617688,0.));
#451=CARTESIAN_POINT('',(150.,0.,0.));
#452=CARTESIAN_POINT('',(150.,0.,14.75));
#453=CARTESIAN_POINT('',(150.,0.,0.));
#454=CARTESIAN_POINT('',(149.,0.,0.));
#455=CARTESIAN_POINT('',(149.,0.,15.75));
#456=CARTESIAN_POINT('',(149.,0.,0.));
#457=CARTESIAN_POINT('',(146.,0.,0.));
#458=CARTESIAN_POINT('',(146.,0.,15.75));
#459=CARTESIAN_POINT('',(0.,0.,0.));
#460=CARTESIAN_POINT('',(146.,0.,0.));
#461=(
GEOMETRIC_REPRESENTATION_CONTEXT(3)
GLOBAL_UNCERTAINTY_ASSIGNED_CONTEXT((#462))
GLOBAL_UNIT_ASSIGNED_CONTEXT((#468,#464,#463))
REPRESENTATION_CONTEXT('model1','TOP_LEVEL_ASSEMBLY_PART')
);
#462=UNCERTAINTY_MEASURE_WITH_UNIT(LENGTH_MEASURE(2.E-5),#468,
'DISTANCE_ACCURACY_VALUE','Maximum Tolerance applied to model');
#463=(
NAMED_UNIT(*)
SI_UNIT($,.STERADIAN.)
SOLID_ANGLE_UNIT()
);
#464=(
CONVERSION_BASED_UNIT('DEGREE',#466)
NAMED_UNIT(#465)
PLANE_ANGLE_UNIT()
);
#465=DIMENSIONAL_EXPONENTS(0.,0.,0.,0.,0.,0.,0.);
#466=PLANE_ANGLE_MEASURE_WITH_UNIT(PLANE_ANGLE_MEASURE(0.0174532925),#467);
#467=(
NAMED_UNIT(*)
PLANE_ANGLE_UNIT()
SI_UNIT($,.RADIAN.)
);
#468=(
LENGTH_UNIT()
NAMED_UNIT(*)
SI_UNIT(.MILLI.,.METRE.)
);
ENDSEC;
END-ISO-10303-21;
