ISO-10303-21;
HEADER;
/* Generated by software containing ST-Developer
 * from STEP Tools, Inc. (www.steptools.com) 
 */
/* OPTION: using custom schema-name function */

FILE_DESCRIPTION(
/* description */ (''),
/* implementation_level */ '2;1');

FILE_NAME(
/* name */ 'model1.stp',
/* time_stamp */ '2023-11-06T19:19:43+03:00',
/* author */ (''),
/* organization */ (''),
/* preprocessor_version */ 'ST-DEVELOPER v19.4',
/* originating_system */ 'SIEMENS PLM Software NX2306.3001',
/* authorisation */ '');

FILE_SCHEMA (('AUTOMOTIVE_DESIGN { 1 0 10303 214 3 1 1 1 }'));
ENDSEC;

DATA;
#10=PROPERTY_DEFINITION_REPRESENTATION(#14,#12);
#11=PROPERTY_DEFINITION_REPRESENTATION(#15,#13);
#12=REPRESENTATION('',(#16),#494);
#13=REPRESENTATION('',(#17),#494);
#14=PROPERTY_DEFINITION('pmi validation property','',#21);
#15=PROPERTY_DEFINITION('pmi validation property','',#21);
#16=VALUE_REPRESENTATION_ITEM('number of annotations',COUNT_MEASURE(0.));
#17=VALUE_REPRESENTATION_ITEM('number of views',COUNT_MEASURE(0.));
#18=SHAPE_REPRESENTATION_RELATIONSHIP('None',
'relationship between model1_objects-None and model1_objects-None',#30,
#19);
#19=ADVANCED_BREP_SHAPE_REPRESENTATION('model1_objects-None',(#133,#134),
#494);
#20=SHAPE_DEFINITION_REPRESENTATION(#21,#30);
#21=PRODUCT_DEFINITION_SHAPE('','',#22);
#22=PRODUCT_DEFINITION(' ','',#24,#23);
#23=PRODUCT_DEFINITION_CONTEXT('part definition',#29,'design');
#24=PRODUCT_DEFINITION_FORMATION_WITH_SPECIFIED_SOURCE(' ',' ',#26,
 .NOT_KNOWN.);
#25=PRODUCT_RELATED_PRODUCT_CATEGORY('part','',(#26));
#26=PRODUCT('model1_objects','model1_objects',' ',(#27));
#27=PRODUCT_CONTEXT(' ',#29,'mechanical');
#28=APPLICATION_PROTOCOL_DEFINITION('international standard',
'automotive_design',2010,#29);
#29=APPLICATION_CONTEXT(
'core data for automotive mechanical design processes');
#30=SHAPE_REPRESENTATION('model1_objects-None',(#248),#494);
#31=OVER_RIDING_STYLED_ITEM('',(#62),#139,#59);
#32=OVER_RIDING_STYLED_ITEM('',(#63),#140,#59);
#33=OVER_RIDING_STYLED_ITEM('',(#64),#141,#59);
#34=OVER_RIDING_STYLED_ITEM('',(#65),#142,#59);
#35=OVER_RIDING_STYLED_ITEM('',(#66),#143,#59);
#36=OVER_RIDING_STYLED_ITEM('',(#67),#144,#59);
#37=OVER_RIDING_STYLED_ITEM('',(#68),#145,#59);
#38=OVER_RIDING_STYLED_ITEM('',(#69),#146,#59);
#39=OVER_RIDING_STYLED_ITEM('',(#70),#147,#59);
#40=OVER_RIDING_STYLED_ITEM('',(#71),#148,#59);
#41=COLOUR_RGB('Medium Steel',0.611764705882353,0.658823529411765,0.670588235294118);
#42=COLOUR_RGB('silver gray',0.6,0.6,0.6);
#43=TOROIDAL_SURFACE('',#265,11.25,1.);
#44=PLANE('',#261);
#45=PLANE('',#263);
#46=FACE_OUTER_BOUND('',#185,.T.);
#47=FACE_OUTER_BOUND('',#186,.T.);
#48=SURFACE_OF_REVOLUTION('',#50,#49);
#49=AXIS1_PLACEMENT('',#482,#295);
#50=B_SPLINE_CURVE_WITH_KNOTS('',3,(#410,#411,#412,#413,#414,#415,#416,
#417,#418,#419,#420,#421,#422,#423,#424,#425,#426,#427,#428,#429,#430,#431,
#432,#433,#434,#435,#436,#437,#438,#439,#440,#441,#442,#443,#444,#445,#446,
#447,#448,#449,#450,#451,#452,#453,#454,#455,#456,#457,#458,#459,#460,#461,
#462,#463,#464,#465,#466,#467,#468,#469,#470,#471,#472,#473,#474,#475,#476,
#477,#478,#479,#480,#481),.UNSPECIFIED.,.T.,.F.,(2,2,2,2,2,2,2,2,2,2,2,
2,2,2,2,2,2,2,2,2,2,2,2,2,2,2,2,2,2,2,2,2,2,2,2,2,2,2),(-0.03125,0.,0.0312500000000003,
0.0625000000000008,0.093750000000001,0.125000000000001,0.140625000000001,
0.15625,0.1875,0.21875,0.25,0.28125,0.3125,0.34375,0.375,0.40625,0.4375,
0.46875,0.5,0.53125,0.5625,0.59375,0.625,0.65625,0.6875,0.71875,0.75,0.78125,
0.8125,0.828125,0.84375,0.875,0.890625,0.90625,0.9375,0.96875,1.,1.03125),
 .UNSPECIFIED.);
#51=CONICAL_SURFACE('',#255,12.5,45.0000000000018);
#52=CONICAL_SURFACE('',#257,12.25,0.590657214646671);
#53=CONICAL_SURFACE('',#268,12.25,9.99999999999995);
#54=CYLINDRICAL_SURFACE('',#253,12.5);
#55=CYLINDRICAL_SURFACE('',#259,10.5000000000083);
#56=CYLINDRICAL_SURFACE('',#267,12.25);
#57=PRESENTATION_LAYER_ASSIGNMENT('1','Layer 1',(#133,#134));
#58=STYLED_ITEM('',(#60),#133);
#59=STYLED_ITEM('',(#61),#134);
#60=PRESENTATION_STYLE_ASSIGNMENT((#72));
#61=PRESENTATION_STYLE_ASSIGNMENT((#73));
#62=PRESENTATION_STYLE_ASSIGNMENT((#74));
#63=PRESENTATION_STYLE_ASSIGNMENT((#75));
#64=PRESENTATION_STYLE_ASSIGNMENT((#76));
#65=PRESENTATION_STYLE_ASSIGNMENT((#77));
#66=PRESENTATION_STYLE_ASSIGNMENT((#78));
#67=PRESENTATION_STYLE_ASSIGNMENT((#79));
#68=PRESENTATION_STYLE_ASSIGNMENT((#80));
#69=PRESENTATION_STYLE_ASSIGNMENT((#81));
#70=PRESENTATION_STYLE_ASSIGNMENT((#82));
#71=PRESENTATION_STYLE_ASSIGNMENT((#83));
#72=SURFACE_STYLE_USAGE(.BOTH.,#84);
#73=SURFACE_STYLE_USAGE(.BOTH.,#85);
#74=SURFACE_STYLE_USAGE(.BOTH.,#86);
#75=SURFACE_STYLE_USAGE(.BOTH.,#87);
#76=SURFACE_STYLE_USAGE(.BOTH.,#88);
#77=SURFACE_STYLE_USAGE(.BOTH.,#89);
#78=SURFACE_STYLE_USAGE(.BOTH.,#90);
#79=SURFACE_STYLE_USAGE(.BOTH.,#91);
#80=SURFACE_STYLE_USAGE(.BOTH.,#92);
#81=SURFACE_STYLE_USAGE(.BOTH.,#93);
#82=SURFACE_STYLE_USAGE(.BOTH.,#94);
#83=SURFACE_STYLE_USAGE(.BOTH.,#95);
#84=SURFACE_SIDE_STYLE('',(#96));
#85=SURFACE_SIDE_STYLE('',(#97));
#86=SURFACE_SIDE_STYLE('',(#98));
#87=SURFACE_SIDE_STYLE('',(#99));
#88=SURFACE_SIDE_STYLE('',(#100));
#89=SURFACE_SIDE_STYLE('',(#101));
#90=SURFACE_SIDE_STYLE('',(#102));
#91=SURFACE_SIDE_STYLE('',(#103));
#92=SURFACE_SIDE_STYLE('',(#104));
#93=SURFACE_SIDE_STYLE('',(#105));
#94=SURFACE_SIDE_STYLE('',(#106));
#95=SURFACE_SIDE_STYLE('',(#107));
#96=SURFACE_STYLE_FILL_AREA(#108);
#97=SURFACE_STYLE_FILL_AREA(#109);
#98=SURFACE_STYLE_FILL_AREA(#110);
#99=SURFACE_STYLE_FILL_AREA(#111);
#100=SURFACE_STYLE_FILL_AREA(#112);
#101=SURFACE_STYLE_FILL_AREA(#113);
#102=SURFACE_STYLE_FILL_AREA(#114);
#103=SURFACE_STYLE_FILL_AREA(#115);
#104=SURFACE_STYLE_FILL_AREA(#116);
#105=SURFACE_STYLE_FILL_AREA(#117);
#106=SURFACE_STYLE_FILL_AREA(#118);
#107=SURFACE_STYLE_FILL_AREA(#119);
#108=FILL_AREA_STYLE('',(#120));
#109=FILL_AREA_STYLE('',(#121));
#110=FILL_AREA_STYLE('',(#122));
#111=FILL_AREA_STYLE('',(#123));
#112=FILL_AREA_STYLE('',(#124));
#113=FILL_AREA_STYLE('',(#125));
#114=FILL_AREA_STYLE('',(#126));
#115=FILL_AREA_STYLE('',(#127));
#116=FILL_AREA_STYLE('',(#128));
#117=FILL_AREA_STYLE('',(#129));
#118=FILL_AREA_STYLE('',(#130));
#119=FILL_AREA_STYLE('',(#131));
#120=FILL_AREA_STYLE_COLOUR('',#132);
#121=FILL_AREA_STYLE_COLOUR('',#41);
#122=FILL_AREA_STYLE_COLOUR('',#42);
#123=FILL_AREA_STYLE_COLOUR('',#42);
#124=FILL_AREA_STYLE_COLOUR('',#42);
#125=FILL_AREA_STYLE_COLOUR('',#42);
#126=FILL_AREA_STYLE_COLOUR('',#42);
#127=FILL_AREA_STYLE_COLOUR('',#42);
#128=FILL_AREA_STYLE_COLOUR('',#42);
#129=FILL_AREA_STYLE_COLOUR('',#42);
#130=FILL_AREA_STYLE_COLOUR('',#42);
#131=FILL_AREA_STYLE_COLOUR('',#42);
#132=DRAUGHTING_PRE_DEFINED_COLOUR('yellow');
#133=MANIFOLD_SOLID_BREP('',#135);
#134=MANIFOLD_SOLID_BREP('',#136);
#135=CLOSED_SHELL('',(#137,#138));
#136=CLOSED_SHELL('',(#139,#140,#141,#142,#143,#144,#145,#146,#147,#148));
#137=ADVANCED_FACE('',(#151,#152),#149,.F.);
#138=ADVANCED_FACE('',(#153,#154),#150,.F.);
#139=ADVANCED_FACE('',(#155,#156),#54,.T.);
#140=ADVANCED_FACE('',(#157,#158),#51,.T.);
#141=ADVANCED_FACE('',(#159,#160),#52,.T.);
#142=ADVANCED_FACE('',(#161,#162),#55,.T.);
#143=ADVANCED_FACE('',(#163,#164),#48,.T.);
#144=ADVANCED_FACE('',(#46),#44,.F.);
#145=ADVANCED_FACE('',(#47),#45,.F.);
#146=ADVANCED_FACE('',(#165,#166),#43,.T.);
#147=ADVANCED_FACE('',(#167,#168),#56,.T.);
#148=ADVANCED_FACE('',(#169,#170),#53,.T.);
#149=(
BOUNDED_SURFACE()
B_SPLINE_SURFACE(3,3,((#317,#318,#319,#320,#321,#322,#323),(#324,#325,#326,
#327,#328,#329,#330),(#331,#332,#333,#334,#335,#336,#337),(#338,#339,#340,
#341,#342,#343,#344),(#345,#346,#347,#348,#349,#350,#351),(#352,#353,#354,
#355,#356,#357,#358),(#359,#360,#361,#362,#363,#364,#365)),
 .UNSPECIFIED.,.T.,.F.,.F.)
B_SPLINE_SURFACE_WITH_KNOTS((1,3,3,3,1),(4,3,4),(-0.5,0.,0.5,1.,1.5),(0.,
0.5,1.),.UNSPECIFIED.)
GEOMETRIC_REPRESENTATION_ITEM()
RATIONAL_B_SPLINE_SURFACE(((1.,0.558664324538932,0.558664324538932,1.,0.558664324538932,
0.558664324538932,1.),(0.333333333333334,0.186221441512977,0.186221441512977,
0.333333333333334,0.186221441512977,0.186221441512977,0.333333333333334),
(0.333333333333334,0.186221441512977,0.186221441512977,0.333333333333334,
0.186221441512977,0.186221441512977,0.333333333333334),(1.,0.558664324538932,
0.558664324538932,1.,0.558664324538932,0.558664324538932,1.),(0.333333333333334,
0.186221441512977,0.186221441512977,0.333333333333334,0.186221441512977,
0.186221441512977,0.333333333333334),(0.333333333333334,0.186221441512977,
0.186221441512977,0.333333333333334,0.186221441512977,0.186221441512977,
0.333333333333334),(1.,0.558664324538932,0.558664324538932,1.,0.558664324538932,
0.558664324538932,1.)))
REPRESENTATION_ITEM('')
SURFACE()
);
#150=(
BOUNDED_SURFACE()
B_SPLINE_SURFACE(3,3,((#366,#367,#368,#369),(#370,#371,#372,#373),(#374,
#375,#376,#377),(#378,#379,#380,#381),(#382,#383,#384,#385),(#386,#387,
#388,#389),(#390,#391,#392,#393)),.UNSPECIFIED.,.T.,.F.,.F.)
B_SPLINE_SURFACE_WITH_KNOTS((1,3,3,3,1),(4,4),(-0.5,0.,0.5,1.,1.5),(0.,
1.),.UNSPECIFIED.)
GEOMETRIC_REPRESENTATION_ITEM()
RATIONAL_B_SPLINE_SURFACE(((1.,0.847677833206908,0.847677833206908,1.),
(0.333333333333334,0.282559277735636,0.282559277735636,0.333333333333334),
(0.333333333333334,0.282559277735636,0.282559277735636,0.333333333333334),
(1.,0.847677833206908,0.847677833206908,1.),(0.333333333333334,0.282559277735636,
0.282559277735636,0.333333333333334),(0.333333333333334,0.282559277735636,
0.282559277735636,0.333333333333334),(1.,0.847677833206908,0.847677833206908,
1.)))
REPRESENTATION_ITEM('')
SURFACE()
);
#151=FACE_BOUND('',#171,.T.);
#152=FACE_BOUND('',#172,.T.);
#153=FACE_BOUND('',#173,.T.);
#154=FACE_BOUND('',#174,.T.);
#155=FACE_BOUND('',#175,.T.);
#156=FACE_BOUND('',#176,.T.);
#157=FACE_BOUND('',#177,.T.);
#158=FACE_BOUND('',#178,.T.);
#159=FACE_BOUND('',#179,.T.);
#160=FACE_BOUND('',#180,.T.);
#161=FACE_BOUND('',#181,.T.);
#162=FACE_BOUND('',#182,.T.);
#163=FACE_BOUND('',#183,.T.);
#164=FACE_BOUND('',#184,.T.);
#165=FACE_BOUND('',#187,.T.);
#166=FACE_BOUND('',#188,.T.);
#167=FACE_BOUND('',#189,.T.);
#168=FACE_BOUND('',#190,.T.);
#169=FACE_BOUND('',#191,.T.);
#170=FACE_BOUND('',#192,.T.);
#171=EDGE_LOOP('',(#193));
#172=EDGE_LOOP('',(#194));
#173=EDGE_LOOP('',(#195));
#174=EDGE_LOOP('',(#196));
#175=EDGE_LOOP('',(#197));
#176=EDGE_LOOP('',(#198));
#177=EDGE_LOOP('',(#199));
#178=EDGE_LOOP('',(#200));
#179=EDGE_LOOP('',(#201));
#180=EDGE_LOOP('',(#202));
#181=EDGE_LOOP('',(#203));
#182=EDGE_LOOP('',(#204));
#183=EDGE_LOOP('',(#205));
#184=EDGE_LOOP('',(#206));
#185=EDGE_LOOP('',(#207));
#186=EDGE_LOOP('',(#208));
#187=EDGE_LOOP('',(#209));
#188=EDGE_LOOP('',(#210));
#189=EDGE_LOOP('',(#211));
#190=EDGE_LOOP('',(#212));
#191=EDGE_LOOP('',(#213));
#192=EDGE_LOOP('',(#214));
#193=ORIENTED_EDGE('',*,*,#226,.T.);
#194=ORIENTED_EDGE('',*,*,#227,.F.);
#195=ORIENTED_EDGE('',*,*,#227,.T.);
#196=ORIENTED_EDGE('',*,*,#226,.F.);
#197=ORIENTED_EDGE('',*,*,#228,.F.);
#198=ORIENTED_EDGE('',*,*,#229,.T.);
#199=ORIENTED_EDGE('',*,*,#230,.F.);
#200=ORIENTED_EDGE('',*,*,#228,.T.);
#201=ORIENTED_EDGE('',*,*,#231,.F.);
#202=ORIENTED_EDGE('',*,*,#230,.T.);
#203=ORIENTED_EDGE('',*,*,#232,.F.);
#204=ORIENTED_EDGE('',*,*,#231,.T.);
#205=ORIENTED_EDGE('',*,*,#233,.F.);
#206=ORIENTED_EDGE('',*,*,#232,.T.);
#207=ORIENTED_EDGE('',*,*,#233,.T.);
#208=ORIENTED_EDGE('',*,*,#234,.F.);
#209=ORIENTED_EDGE('',*,*,#235,.F.);
#210=ORIENTED_EDGE('',*,*,#234,.T.);
#211=ORIENTED_EDGE('',*,*,#236,.F.);
#212=ORIENTED_EDGE('',*,*,#235,.T.);
#213=ORIENTED_EDGE('',*,*,#229,.F.);
#214=ORIENTED_EDGE('',*,*,#236,.T.);
#215=VERTEX_POINT('',#314);
#216=VERTEX_POINT('',#316);
#217=VERTEX_POINT('',#395);
#218=VERTEX_POINT('',#397);
#219=VERTEX_POINT('',#400);
#220=VERTEX_POINT('',#403);
#221=VERTEX_POINT('',#406);
#222=VERTEX_POINT('',#409);
#223=VERTEX_POINT('',#485);
#224=VERTEX_POINT('',#488);
#225=VERTEX_POINT('',#491);
#226=EDGE_CURVE('',#215,#215,#237,.T.);
#227=EDGE_CURVE('',#216,#216,#238,.T.);
#228=EDGE_CURVE('',#217,#217,#239,.T.);
#229=EDGE_CURVE('',#218,#218,#240,.T.);
#230=EDGE_CURVE('',#219,#219,#241,.T.);
#231=EDGE_CURVE('',#220,#220,#242,.T.);
#232=EDGE_CURVE('',#221,#221,#243,.T.);
#233=EDGE_CURVE('',#222,#222,#244,.T.);
#234=EDGE_CURVE('',#223,#223,#245,.T.);
#235=EDGE_CURVE('',#224,#224,#246,.T.);
#236=EDGE_CURVE('',#225,#225,#247,.T.);
#237=CIRCLE('',#249,6.);
#238=CIRCLE('',#250,6.);
#239=CIRCLE('',#251,12.5);
#240=CIRCLE('',#252,12.5);
#241=CIRCLE('',#254,12.25);
#242=CIRCLE('',#256,10.5);
#243=CIRCLE('',#258,10.5000000000167);
#244=CIRCLE('',#260,3.21862658046624);
#245=CIRCLE('',#262,11.25);
#246=CIRCLE('',#264,12.25);
#247=CIRCLE('',#266,12.25);
#248=AXIS2_PLACEMENT_3D('',#312,#269,#270);
#249=AXIS2_PLACEMENT_3D('',#313,#271,#272);
#250=AXIS2_PLACEMENT_3D('',#315,#273,#274);
#251=AXIS2_PLACEMENT_3D('',#394,#275,#276);
#252=AXIS2_PLACEMENT_3D('',#396,#277,#278);
#253=AXIS2_PLACEMENT_3D('',#398,#279,#280);
#254=AXIS2_PLACEMENT_3D('',#399,#281,#282);
#255=AXIS2_PLACEMENT_3D('',#401,#283,#284);
#256=AXIS2_PLACEMENT_3D('',#402,#285,#286);
#257=AXIS2_PLACEMENT_3D('',#404,#287,#288);
#258=AXIS2_PLACEMENT_3D('',#405,#289,#290);
#259=AXIS2_PLACEMENT_3D('',#407,#291,#292);
#260=AXIS2_PLACEMENT_3D('',#408,#293,#294);
#261=AXIS2_PLACEMENT_3D('',#483,#296,#297);
#262=AXIS2_PLACEMENT_3D('',#484,#298,#299);
#263=AXIS2_PLACEMENT_3D('',#486,#300,#301);
#264=AXIS2_PLACEMENT_3D('',#487,#302,#303);
#265=AXIS2_PLACEMENT_3D('',#489,#304,#305);
#266=AXIS2_PLACEMENT_3D('',#490,#306,#307);
#267=AXIS2_PLACEMENT_3D('',#492,#308,#309);
#268=AXIS2_PLACEMENT_3D('',#493,#310,#311);
#269=DIRECTION('',(0.,0.,1.));
#270=DIRECTION('',(1.,0.,0.));
#271=DIRECTION('',(0.,0.981691815623311,0.190476190475888));
#272=DIRECTION('',(1.,0.,0.));
#273=DIRECTION('',(0.,0.,1.));
#274=DIRECTION('',(1.,0.,0.));
#275=DIRECTION('',(-1.,0.,0.));
#276=DIRECTION('',(0.,0.,1.));
#277=DIRECTION('',(-1.,0.,0.));
#278=DIRECTION('',(0.,0.,1.));
#279=DIRECTION('',(-1.,0.,0.));
#280=DIRECTION('',(0.,0.,1.));
#281=DIRECTION('',(-1.,0.,0.));
#282=DIRECTION('',(0.,0.,1.));
#283=DIRECTION('',(1.,0.,0.));
#284=DIRECTION('',(-5.48258283765475E-17,0.,-1.));
#285=DIRECTION('',(-1.,0.,0.));
#286=DIRECTION('',(0.,0.,1.));
#287=DIRECTION('',(1.,0.,0.));
#288=DIRECTION('',(3.69101908106844E-15,0.,-1.));
#289=DIRECTION('',(-1.,0.,0.));
#290=DIRECTION('',(0.,0.,1.));
#291=DIRECTION('',(-1.,0.,0.));
#292=DIRECTION('',(0.,0.,1.));
#293=DIRECTION('',(-1.,0.,0.));
#294=DIRECTION('',(0.,0.,1.));
#295=DIRECTION('',(-1.,0.,0.));
#296=DIRECTION('',(1.,0.,0.));
#297=DIRECTION('',(0.,0.,-1.));
#298=DIRECTION('',(-1.,0.,0.));
#299=DIRECTION('',(0.,0.,1.));
#300=DIRECTION('',(-1.,0.,0.));
#301=DIRECTION('',(0.,0.,1.));
#302=DIRECTION('',(-1.,0.,0.));
#303=DIRECTION('',(0.,0.,1.));
#304=DIRECTION('',(-1.,0.,0.));
#305=DIRECTION('',(0.,0.,1.));
#306=DIRECTION('',(-1.,0.,0.));
#307=DIRECTION('',(0.,0.,1.));
#308=DIRECTION('',(-1.,0.,0.));
#309=DIRECTION('',(0.,0.,1.));
#310=DIRECTION('',(-1.,0.,0.));
#311=DIRECTION('',(2.94368649994863E-16,0.,1.));
#312=CARTESIAN_POINT('',(0.,0.,0.));
#313=CARTESIAN_POINT('',(6.,0.756024442677109,6.60353920912719));
#314=CARTESIAN_POINT('',(12.,0.756024442677109,6.60353920912719));
#315=CARTESIAN_POINT('',(6.,-6.33863574,2.));
#316=CARTESIAN_POINT('',(12.,-6.33863574,2.));
#317=CARTESIAN_POINT('',(12.,-6.33863574,2.));
#318=CARTESIAN_POINT('',(12.,-8.5848202678066,-5.11887276329497));
#319=CARTESIAN_POINT('',(12.,-2.64411435762051,-9.63901741160224));
#320=CARTESIAN_POINT('',(12.,3.61794562379566,-5.57573067029454));
#321=CARTESIAN_POINT('',(12.,9.88000560521181,-1.51244392898684));
#322=CARTESIAN_POINT('',(12.,8.17240824282998,5.75445400623472));
#323=CARTESIAN_POINT('',(12.,0.756024442677109,6.60353920912719));
#324=CARTESIAN_POINT('',(12.,5.66136426000001,2.));
#325=CARTESIAN_POINT('',(12.,3.41517973219341,8.35823440354466));
#326=CARTESIAN_POINT('',(12.,-3.32805834328599,8.39330462996945));
#327=CARTESIAN_POINT('',(12.,-5.64025537392868,2.05877745307111));
#328=CARTESIAN_POINT('',(12.,-7.9524524045714,-4.27574972382722));
#329=CARTESIAN_POINT('',(12.,-2.77224327542409,-8.59291581301992));
#330=CARTESIAN_POINT('',(12.,3.04173872838777,-5.17676257835256));
#331=CARTESIAN_POINT('',(6.02214420988422E-16,5.66136426000001,2.));
#332=CARTESIAN_POINT('',(6.02214420988422E-16,3.41517973219341,8.35823440354466));
#333=CARTESIAN_POINT('',(6.02214420988422E-16,-3.32805834328599,8.39330462996945));
#334=CARTESIAN_POINT('',(6.02214420988422E-16,-5.64025537392868,2.05877745307111));
#335=CARTESIAN_POINT('',(6.02214420988422E-16,-7.9524524045714,-4.27574972382722));
#336=CARTESIAN_POINT('',(6.02214420988422E-16,-2.77224327542409,-8.59291581301992));
#337=CARTESIAN_POINT('',(6.02214420988422E-16,3.04173872838777,-5.17676257835256));
#338=CARTESIAN_POINT('',(-8.67361737988404E-16,-6.33863574,2.));
#339=CARTESIAN_POINT('',(-8.67361737988402E-16,-8.5848202678066,-5.11887276329497));
#340=CARTESIAN_POINT('',(-8.67361737988402E-16,-2.64411435762051,-9.63901741160224));
#341=CARTESIAN_POINT('',(-8.67361737988404E-16,3.61794562379566,-5.57573067029454));
#342=CARTESIAN_POINT('',(-8.67361737988402E-16,9.88000560521181,-1.51244392898684));
#343=CARTESIAN_POINT('',(-8.67361737988402E-16,8.17240824282996,5.75445400623472));
#344=CARTESIAN_POINT('',(-8.67361737988404E-16,0.756024442677109,6.60353920912719));
#345=CARTESIAN_POINT('',(-2.33693789696523E-15,-18.33863574,2.));
#346=CARTESIAN_POINT('',(-2.33693789696523E-15,-20.5848202678066,-18.5959799301346));
#347=CARTESIAN_POINT('',(-2.33693789696523E-15,-1.96017037195503,-27.671339453174));
#348=CARTESIAN_POINT('',(-2.33693789696523E-15,12.87614662152,-13.2102387936602));
#349=CARTESIAN_POINT('',(-2.33693789696523E-15,27.7124636149951,1.25086186585355));
#350=CARTESIAN_POINT('',(-2.33693789696523E-15,19.1170597610841,20.1018238254894));
#351=CARTESIAN_POINT('',(-2.33693789696523E-15,-1.52968984303355,18.3838409966069));
#352=CARTESIAN_POINT('',(12.,-18.33863574,2.));
#353=CARTESIAN_POINT('',(12.,-20.5848202678066,-18.5959799301346));
#354=CARTESIAN_POINT('',(12.,-1.96017037195504,-27.671339453174));
#355=CARTESIAN_POINT('',(12.,12.87614662152,-13.2102387936602));
#356=CARTESIAN_POINT('',(12.,27.7124636149951,1.25086186585355));
#357=CARTESIAN_POINT('',(12.,19.1170597610841,20.1018238254894));
#358=CARTESIAN_POINT('',(12.,-1.52968984303355,18.3838409966069));
#359=CARTESIAN_POINT('',(12.,-6.33863574,2.));
#360=CARTESIAN_POINT('',(12.,-8.5848202678066,-5.11887276329497));
#361=CARTESIAN_POINT('',(12.,-2.64411435762051,-9.63901741160224));
#362=CARTESIAN_POINT('',(12.,3.61794562379566,-5.57573067029454));
#363=CARTESIAN_POINT('',(12.,9.88000560521181,-1.51244392898684));
#364=CARTESIAN_POINT('',(12.,8.17240824282998,5.75445400623472));
#365=CARTESIAN_POINT('',(12.,0.756024442677109,6.60353920912719));
#366=CARTESIAN_POINT('',(12.,0.756024442677109,6.60353920912719));
#367=CARTESIAN_POINT('',(12.,-2.54808550728121,6.98181937137844));
#368=CARTESIAN_POINT('',(12.,-5.33792692452374,5.17156433155541));
#369=CARTESIAN_POINT('',(12.,-6.33863574,2.));
#370=CARTESIAN_POINT('',(12.,3.04173872838777,-5.17676257835256));
#371=CARTESIAN_POINT('',(12.,5.63195470228026,-3.65481519841597));
#372=CARTESIAN_POINT('',(12.,6.66207307547626,-0.832688561302097));
#373=CARTESIAN_POINT('',(12.,5.66136426000001,2.));
#374=CARTESIAN_POINT('',(6.02214420988422E-16,3.04173872838777,-5.17676257835256));
#375=CARTESIAN_POINT('',(6.02214420988421E-16,5.63195470228026,-3.65481519841597));
#376=CARTESIAN_POINT('',(6.02214420988421E-16,6.66207307547626,-0.832688561302097));
#377=CARTESIAN_POINT('',(6.02214420988422E-16,5.66136426000001,2.));
#378=CARTESIAN_POINT('',(-8.67361737988404E-16,0.756024442677109,6.60353920912719));
#379=CARTESIAN_POINT('',(-8.67361737988404E-16,-2.54808550728121,6.98181937137844));
#380=CARTESIAN_POINT('',(-8.67361737988404E-16,-5.33792692452374,5.17156433155541));
#381=CARTESIAN_POINT('',(-8.67361737988404E-16,-6.33863574,2.));
#382=CARTESIAN_POINT('',(-2.33693789696523E-15,-1.52968984303355,18.3838409966069));
#383=CARTESIAN_POINT('',(-2.33693789696523E-15,-10.7281257168427,17.6184539411728));
#384=CARTESIAN_POINT('',(-2.33693789696523E-15,-17.3379269245238,11.1758172244129));
#385=CARTESIAN_POINT('',(-2.33693789696523E-15,-18.33863574,2.));
#386=CARTESIAN_POINT('',(12.,-1.52968984303355,18.3838409966069));
#387=CARTESIAN_POINT('',(12.,-10.7281257168427,17.6184539411728));
#388=CARTESIAN_POINT('',(12.,-17.3379269245238,11.1758172244129));
#389=CARTESIAN_POINT('',(12.,-18.33863574,2.));
#390=CARTESIAN_POINT('',(12.,0.756024442677109,6.60353920912719));
#391=CARTESIAN_POINT('',(12.,-2.54808550728121,6.98181937137844));
#392=CARTESIAN_POINT('',(12.,-5.33792692452374,5.17156433155541));
#393=CARTESIAN_POINT('',(12.,-6.33863574,2.));
#394=CARTESIAN_POINT('',(200.,0.,0.));
#395=CARTESIAN_POINT('',(200.,0.,12.5));
#396=CARTESIAN_POINT('',(294.582179545096,0.,0.));
#397=CARTESIAN_POINT('',(294.582179545096,0.,12.5));
#398=CARTESIAN_POINT('',(0.,0.,0.));
#399=CARTESIAN_POINT('',(199.75,0.,0.));
#400=CARTESIAN_POINT('',(199.75,0.,12.25));
#401=CARTESIAN_POINT('',(200.,0.,0.));
#402=CARTESIAN_POINT('',(30.,0.,0.));
#403=CARTESIAN_POINT('',(30.,0.,10.5));
#404=CARTESIAN_POINT('',(199.75,0.,0.));
#405=CARTESIAN_POINT('',(8.75491507218305,0.,0.));
#406=CARTESIAN_POINT('',(8.75491507218305,0.,10.5000000000167));
#407=CARTESIAN_POINT('',(0.,0.,0.));
#408=CARTESIAN_POINT('',(3.00000000000305,0.,0.));
#409=CARTESIAN_POINT('',(3.00000000000305,0.,3.21862658046624));
#410=CARTESIAN_POINT('',(5.69298510977134,2.47751646477944,0.));
#411=CARTESIAN_POINT('',(6.30701489022867,2.47751646477944,0.));
#412=CARTESIAN_POINT('',(6.61321083188748,2.49486230967567,0.));
#413=CARTESIAN_POINT('',(7.21942161870784,2.56833071715647,0.));
#414=CARTESIAN_POINT('',(7.52041501983971,2.62457547392804,0.));
#415=CARTESIAN_POINT('',(8.11451291088162,2.78982561855324,0.));
#416=CARTESIAN_POINT('',(8.40098820652175,2.89724657213544,0.));
#417=CARTESIAN_POINT('',(8.94781437483311,3.17335191221793,0.));
#418=CARTESIAN_POINT('',(9.20853891120384,3.34361192059594,0.));
#419=CARTESIAN_POINT('',(9.55811902775837,3.63779868191897,0.));
#420=CARTESIAN_POINT('',(9.66860409179283,3.74267481470458,0.));
#421=CARTESIAN_POINT('',(9.87725822818936,3.966317291634,0.));
#422=CARTESIAN_POINT('',(9.97606960067155,4.08603211812316,0.));
#423=CARTESIAN_POINT('',(10.2473263881814,4.45842699703951,0.));
#424=CARTESIAN_POINT('',(10.3955449289847,4.72381461728742,0.));
#425=CARTESIAN_POINT('',(10.6311798186776,5.28650956567721,0.));
#426=CARTESIAN_POINT('',(10.7180485128178,5.5859791148772,0.));
#427=CARTESIAN_POINT('',(10.8236946438912,6.1853059093578,0.));
#428=CARTESIAN_POINT('',(10.8444100948232,6.48881469800196,0.));
#429=CARTESIAN_POINT('',(10.8223944007316,7.10343100218725,0.));
#430=CARTESIAN_POINT('',(10.7794555605453,7.40775600505386,0.));
#431=CARTESIAN_POINT('',(10.6356634737987,7.99825966150912,0.));
#432=CARTESIAN_POINT('',(10.533693920761,8.28863948346789,0.));
#433=CARTESIAN_POINT('',(10.2740125035666,8.84544240827715,0.));
#434=CARTESIAN_POINT('',(10.11898036168,9.1072551603231,0.));
#435=CARTESIAN_POINT('',(9.76075645269305,9.59916726151031,0.));
#436=CARTESIAN_POINT('',(9.55489055574714,9.83143613519559,0.));
#437=CARTESIAN_POINT('',(9.10769832237285,10.2480898382507,0.));
#438=CARTESIAN_POINT('',(8.86669849271484,10.4333429090747,0.));
#439=CARTESIAN_POINT('',(8.35035182875454,10.7583119142327,0.));
#440=CARTESIAN_POINT('',(8.07289130704789,10.8982819333539,0.));
#441=CARTESIAN_POINT('',(7.50554253943406,11.1205620596872,0.));
#442=CARTESIAN_POINT('',(7.21332608044101,11.2047526385672,0.));
#443=CARTESIAN_POINT('',(6.61159992894811,11.3185751891386,0.));
#444=CARTESIAN_POINT('',(6.30350054121485,11.3472349699222,0.));
#445=CARTESIAN_POINT('',(5.69513844681078,11.3471506674257,0.));
#446=CARTESIAN_POINT('',(5.39179911068036,11.3191011149459,0.));
#447=CARTESIAN_POINT('',(4.78686642556263,11.2049053968945,0.));
#448=CARTESIAN_POINT('',(4.49262708144134,11.1199378244985,0.));
#449=CARTESIAN_POINT('',(3.92634268562445,10.8978885100934,0.));
#450=CARTESIAN_POINT('',(3.65123562793597,10.7593175605903,0.));
#451=CARTESIAN_POINT('',(3.13156501856078,10.4322434657258,0.));
#452=CARTESIAN_POINT('',(2.89036159362345,10.246422576545,0.));
#453=CARTESIAN_POINT('',(2.44466225275659,9.83087839366593,0.));
#454=CARTESIAN_POINT('',(2.23855306648734,9.59845377367283,0.));
#455=CARTESIAN_POINT('',(1.87916001869817,9.10446518656794,0.));
#456=CARTESIAN_POINT('',(1.72434000475163,8.84231788851157,0.));
#457=CARTESIAN_POINT('',(1.46571064201286,8.28695121514822,0.));
#458=CARTESIAN_POINT('',(1.36317238026594,7.9947391410969,0.));
#459=CARTESIAN_POINT('',(1.21957321766819,7.40248847810946,0.));
#460=CARTESIAN_POINT('',(1.17697553114916,7.09728072759618,0.));
#461=CARTESIAN_POINT('',(1.15580030885134,6.48302457300882,0.));
#462=CARTESIAN_POINT('',(1.17685758384839,6.17872621923052,0.));
#463=CARTESIAN_POINT('',(1.2843395556299,5.5759747446041,0.));
#464=CARTESIAN_POINT('',(1.371721622681,5.27782460241147,0.));
#465=CARTESIAN_POINT('',(1.54937787287807,4.85625672282275,0.));
#466=CARTESIAN_POINT('',(1.61653338811538,4.71913712608836,0.));
#467=CARTESIAN_POINT('',(1.76744500888404,4.45201573214706,0.));
#468=CARTESIAN_POINT('',(1.85165733552512,4.32158738549606,0.));
#469=CARTESIAN_POINT('',(2.12329118607466,3.95166829553221,0.));
#470=CARTESIAN_POINT('',(2.33116628053707,3.72993831932495,0.));
#471=CARTESIAN_POINT('',(2.68351233103173,3.4349969030715,0.));
#472=CARTESIAN_POINT('',(2.80842380413968,3.34269667635733,0.));
#473=CARTESIAN_POINT('',(3.0650688096229,3.17535025581588,0.));
#474=CARTESIAN_POINT('',(3.19745658008361,3.09965075388444,0.));
#475=CARTESIAN_POINT('',(3.6058286106703,2.89453728424754,0.));
#476=CARTESIAN_POINT('',(3.89583162894349,2.78643244472105,0.));
#477=CARTESIAN_POINT('',(4.48612960907682,2.62328585613692,0.));
#478=CARTESIAN_POINT('',(4.78505202800077,2.56765336856525,0.));
#479=CARTESIAN_POINT('',(5.38848339631721,2.49479354497042,0.));
#480=CARTESIAN_POINT('',(5.69298510977134,2.47751646477944,0.));
#481=CARTESIAN_POINT('',(6.30701489022867,2.47751646477944,0.));
#482=CARTESIAN_POINT('',(0.,0.,0.));
#483=CARTESIAN_POINT('',(3.00000000000153,3.21862658046624,0.));
#484=CARTESIAN_POINT('',(300.,0.,0.));
#485=CARTESIAN_POINT('',(300.,0.,11.25));
#486=CARTESIAN_POINT('',(300.,0.,0.));
#487=CARTESIAN_POINT('',(299.,0.,0.));
#488=CARTESIAN_POINT('',(299.,0.,12.25));
#489=CARTESIAN_POINT('',(299.,0.,0.));
#490=CARTESIAN_POINT('',(296.,0.,0.));
#491=CARTESIAN_POINT('',(296.,0.,12.25));
#492=CARTESIAN_POINT('',(0.,0.,0.));
#493=CARTESIAN_POINT('',(296.,0.,0.));
#494=(
GEOMETRIC_REPRESENTATION_CONTEXT(3)
GLOBAL_UNCERTAINTY_ASSIGNED_CONTEXT((#495))
GLOBAL_UNIT_ASSIGNED_CONTEXT((#501,#497,#496))
REPRESENTATION_CONTEXT('model1','TOP_LEVEL_ASSEMBLY_PART')
);
#495=UNCERTAINTY_MEASURE_WITH_UNIT(LENGTH_MEASURE(2.E-5),#501,
'DISTANCE_ACCURACY_VALUE','Maximum Tolerance applied to model');
#496=(
NAMED_UNIT(*)
SI_UNIT($,.STERADIAN.)
SOLID_ANGLE_UNIT()
);
#497=(
CONVERSION_BASED_UNIT('DEGREE',#499)
NAMED_UNIT(#498)
PLANE_ANGLE_UNIT()
);
#498=DIMENSIONAL_EXPONENTS(0.,0.,0.,0.,0.,0.,0.);
#499=PLANE_ANGLE_MEASURE_WITH_UNIT(PLANE_ANGLE_MEASURE(0.0174532925),#500);
#500=(
NAMED_UNIT(*)
PLANE_ANGLE_UNIT()
SI_UNIT($,.RADIAN.)
);
#501=(
LENGTH_UNIT()
NAMED_UNIT(*)
SI_UNIT(.MILLI.,.METRE.)
);
ENDSEC;
END-ISO-10303-21;
