ISO-10303-21;
HEADER;
/* Generated by software containing ST-Developer
 * from STEP Tools, Inc. (www.steptools.com) 
 */
/* OPTION: using custom schema-name function */

FILE_DESCRIPTION(
/* description */ (''),
/* implementation_level */ '2;1');

FILE_NAME(
/* name */ 'AFM90C-TP16-D080-A27-Z07.stp',
/* time_stamp */ '2023-10-31T09:35:29+03:00',
/* author */ (''),
/* organization */ (''),
/* preprocessor_version */ 'ST-DEVELOPER v19.4',
/* originating_system */ 'SIEMENS PLM Software NX2306.3001',
/* authorisation */ '');

FILE_SCHEMA (('AP203_CONFIGURATION_CONTROLLED_3D_DESIGN_OF_MECHANICAL_PARTS_AND_ASSEMBLIES_MIM_LF { 1 0 10303 403 2 1 2}'));
ENDSEC;

DATA;
#10=SHAPE_REPRESENTATION_RELATIONSHIP('None',
'relationship between model1-None and model1-None',#76,#11);
#11=ADVANCED_BREP_SHAPE_REPRESENTATION('model1-None',(#243,#244),#732);
#12=APPLIED_APPROVAL_ASSIGNMENT(#24,(#66));
#13=APPLIED_APPROVAL_ASSIGNMENT(#25,(#68));
#14=APPLIED_APPROVAL_ASSIGNMENT(#26,(#38));
#15=APPROVAL_PERSON_ORGANIZATION(#30,#24,#18);
#16=APPROVAL_PERSON_ORGANIZATION(#31,#25,#19);
#17=APPROVAL_PERSON_ORGANIZATION(#32,#26,#20);
#18=APPROVAL_ROLE('approver');
#19=APPROVAL_ROLE('approver');
#20=APPROVAL_ROLE('approver');
#21=APPROVAL_DATE_TIME(#46,#24);
#22=APPROVAL_DATE_TIME(#47,#25);
#23=APPROVAL_DATE_TIME(#48,#26);
#24=APPROVAL(#27,' ');
#25=APPROVAL(#28,' ');
#26=APPROVAL(#29,' ');
#27=APPROVAL_STATUS('not_yet_approved');
#28=APPROVAL_STATUS('not_yet_approved');
#29=APPROVAL_STATUS('not_yet_approved');
#30=PERSON_AND_ORGANIZATION(#36,#33);
#31=PERSON_AND_ORGANIZATION(#36,#34);
#32=PERSON_AND_ORGANIZATION(#36,#35);
#33=ORGANIZATION(' ',' ',' ');
#34=ORGANIZATION(' ',' ',' ');
#35=ORGANIZATION(' ',' ',' ');
#36=PERSON(' ',' ',' ',(' '),$,$);
#37=APPLIED_SECURITY_CLASSIFICATION_ASSIGNMENT(#38,(#68));
#38=SECURITY_CLASSIFICATION(' ',' ',#39);
#39=SECURITY_CLASSIFICATION_LEVEL('confidential');
#40=APPLIED_DATE_AND_TIME_ASSIGNMENT(#44,#42,(#66));
#41=APPLIED_DATE_AND_TIME_ASSIGNMENT(#45,#43,(#38));
#42=DATE_TIME_ROLE('creation_date');
#43=DATE_TIME_ROLE('classification_date');
#44=DATE_AND_TIME(#59,#49);
#45=DATE_AND_TIME(#60,#50);
#46=DATE_AND_TIME(#61,#51);
#47=DATE_AND_TIME(#62,#52);
#48=DATE_AND_TIME(#63,#53);
#49=LOCAL_TIME(0,0,0.,#54);
#50=LOCAL_TIME(0,0,0.,#55);
#51=LOCAL_TIME(0,0,0.,#56);
#52=LOCAL_TIME(0,0,0.,#57);
#53=LOCAL_TIME(0,0,0.,#58);
#54=COORDINATED_UNIVERSAL_TIME_OFFSET(0,0,.BEHIND.);
#55=COORDINATED_UNIVERSAL_TIME_OFFSET(0,0,.BEHIND.);
#56=COORDINATED_UNIVERSAL_TIME_OFFSET(0,0,.BEHIND.);
#57=COORDINATED_UNIVERSAL_TIME_OFFSET(0,0,.BEHIND.);
#58=COORDINATED_UNIVERSAL_TIME_OFFSET(0,0,.BEHIND.);
#59=CALENDAR_DATE(0,1,1);
#60=CALENDAR_DATE(0,1,1);
#61=CALENDAR_DATE(0,1,1);
#62=CALENDAR_DATE(0,1,1);
#63=CALENDAR_DATE(0,1,1);
#64=SHAPE_DEFINITION_REPRESENTATION(#65,#76);
#65=PRODUCT_DEFINITION_SHAPE('','',#66);
#66=PRODUCT_DEFINITION(' ','',#68,#67);
#67=PRODUCT_DEFINITION_CONTEXT('part definition',#75,'design');
#68=PRODUCT_DEFINITION_FORMATION_WITH_SPECIFIED_SOURCE(' ',' ',#70,
 .NOT_KNOWN.);
#69=PRODUCT_RELATED_PRODUCT_CATEGORY('detail','',(#70));
#70=PRODUCT('model1','model1',' ',(#73));
#71=PRODUCT_CATEGORY('part',' ');
#72=PRODUCT_CATEGORY(' ','');
#73=PRODUCT_CONTEXT(' ',#75,'mechanical');
#74=APPLICATION_PROTOCOL_DEFINITION('international standard',
'config_control_design',2010,#75);
#75=APPLICATION_CONTEXT(
'configuration controlled 3D designs of mechanical parts and assemblie
s');
#76=SHAPE_REPRESENTATION('model1-None',(#507),#732);
#77=DRAUGHTING_PRE_DEFINED_COLOUR('yellow');
#78=SURFACE_OF_REVOLUTION('',#96,#87);
#79=SURFACE_OF_REVOLUTION('',#97,#88);
#80=SURFACE_OF_REVOLUTION('',#98,#89);
#81=SURFACE_OF_REVOLUTION('',#99,#90);
#82=SURFACE_OF_REVOLUTION('',#100,#91);
#83=SURFACE_OF_REVOLUTION('',#101,#92);
#84=SURFACE_OF_REVOLUTION('',#102,#93);
#85=SURFACE_OF_REVOLUTION('',#103,#94);
#86=SURFACE_OF_REVOLUTION('',#104,#95);
#87=AXIS1_PLACEMENT('',#701,#617);
#88=AXIS1_PLACEMENT('',#705,#621);
#89=AXIS1_PLACEMENT('',#709,#625);
#90=AXIS1_PLACEMENT('',#713,#629);
#91=AXIS1_PLACEMENT('',#717,#633);
#92=AXIS1_PLACEMENT('',#721,#637);
#93=AXIS1_PLACEMENT('',#725,#641);
#94=AXIS1_PLACEMENT('',#729,#645);
#95=AXIS1_PLACEMENT('',#731,#647);
#96=LINE('',#700,#105);
#97=LINE('',#704,#106);
#98=LINE('',#708,#107);
#99=LINE('',#712,#108);
#100=LINE('',#716,#109);
#101=LINE('',#720,#110);
#102=LINE('',#724,#111);
#103=LINE('',#728,#112);
#104=LINE('',#730,#113);
#105=VECTOR('',#616,12.7496235934979);
#106=VECTOR('',#620,1.4);
#107=VECTOR('',#624,0.700000000000023);
#108=VECTOR('',#628,12.7496235934978);
#109=VECTOR('',#632,1.40000000000002);
#110=VECTOR('',#636,0.7);
#111=VECTOR('',#640,12.7496235934979);
#112=VECTOR('',#644,1.4);
#113=VECTOR('',#646,0.699999999999994);
#114=OVER_RIDING_STYLED_ITEM('',(#134),#260,#131);
#115=OVER_RIDING_STYLED_ITEM('',(#135),#261,#131);
#116=OVER_RIDING_STYLED_ITEM('',(#136),#262,#131);
#117=OVER_RIDING_STYLED_ITEM('',(#137),#263,#131);
#118=OVER_RIDING_STYLED_ITEM('',(#138),#264,#131);
#119=OVER_RIDING_STYLED_ITEM('',(#139),#265,#131);
#120=OVER_RIDING_STYLED_ITEM('',(#140),#266,#131);
#121=OVER_RIDING_STYLED_ITEM('',(#141),#267,#131);
#122=OVER_RIDING_STYLED_ITEM('',(#142),#268,#131);
#123=OVER_RIDING_STYLED_ITEM('',(#143),#269,#131);
#124=OVER_RIDING_STYLED_ITEM('',(#144),#270,#131);
#125=OVER_RIDING_STYLED_ITEM('',(#145),#271,#131);
#126=OVER_RIDING_STYLED_ITEM('',(#146),#272,#131);
#127=OVER_RIDING_STYLED_ITEM('',(#147),#273,#131);
#128=OVER_RIDING_STYLED_ITEM('',(#148),#274,#131);
#129=OVER_RIDING_STYLED_ITEM('',(#149),#275,#131);
#130=PRESENTATION_LAYER_ASSIGNMENT('1','Layer 1',(#243,#244));
#131=STYLED_ITEM('',(#133),#243);
#132=STYLED_ITEM('',(#150),#244);
#133=PRESENTATION_STYLE_ASSIGNMENT((#151));
#134=PRESENTATION_STYLE_ASSIGNMENT((#152));
#135=PRESENTATION_STYLE_ASSIGNMENT((#153));
#136=PRESENTATION_STYLE_ASSIGNMENT((#154));
#137=PRESENTATION_STYLE_ASSIGNMENT((#155));
#138=PRESENTATION_STYLE_ASSIGNMENT((#156));
#139=PRESENTATION_STYLE_ASSIGNMENT((#157));
#140=PRESENTATION_STYLE_ASSIGNMENT((#158));
#141=PRESENTATION_STYLE_ASSIGNMENT((#159));
#142=PRESENTATION_STYLE_ASSIGNMENT((#160));
#143=PRESENTATION_STYLE_ASSIGNMENT((#161));
#144=PRESENTATION_STYLE_ASSIGNMENT((#162));
#145=PRESENTATION_STYLE_ASSIGNMENT((#163));
#146=PRESENTATION_STYLE_ASSIGNMENT((#164));
#147=PRESENTATION_STYLE_ASSIGNMENT((#165));
#148=PRESENTATION_STYLE_ASSIGNMENT((#166));
#149=PRESENTATION_STYLE_ASSIGNMENT((#167));
#150=PRESENTATION_STYLE_ASSIGNMENT((#168));
#151=SURFACE_STYLE_USAGE(.BOTH.,#169);
#152=SURFACE_STYLE_USAGE(.BOTH.,#170);
#153=SURFACE_STYLE_USAGE(.BOTH.,#171);
#154=SURFACE_STYLE_USAGE(.BOTH.,#172);
#155=SURFACE_STYLE_USAGE(.BOTH.,#173);
#156=SURFACE_STYLE_USAGE(.BOTH.,#174);
#157=SURFACE_STYLE_USAGE(.BOTH.,#175);
#158=SURFACE_STYLE_USAGE(.BOTH.,#176);
#159=SURFACE_STYLE_USAGE(.BOTH.,#177);
#160=SURFACE_STYLE_USAGE(.BOTH.,#178);
#161=SURFACE_STYLE_USAGE(.BOTH.,#179);
#162=SURFACE_STYLE_USAGE(.BOTH.,#180);
#163=SURFACE_STYLE_USAGE(.BOTH.,#181);
#164=SURFACE_STYLE_USAGE(.BOTH.,#182);
#165=SURFACE_STYLE_USAGE(.BOTH.,#183);
#166=SURFACE_STYLE_USAGE(.BOTH.,#184);
#167=SURFACE_STYLE_USAGE(.BOTH.,#185);
#168=SURFACE_STYLE_USAGE(.BOTH.,#186);
#169=SURFACE_SIDE_STYLE('',(#187));
#170=SURFACE_SIDE_STYLE('',(#188));
#171=SURFACE_SIDE_STYLE('',(#189));
#172=SURFACE_SIDE_STYLE('',(#190));
#173=SURFACE_SIDE_STYLE('',(#191));
#174=SURFACE_SIDE_STYLE('',(#192));
#175=SURFACE_SIDE_STYLE('',(#193));
#176=SURFACE_SIDE_STYLE('',(#194));
#177=SURFACE_SIDE_STYLE('',(#195));
#178=SURFACE_SIDE_STYLE('',(#196));
#179=SURFACE_SIDE_STYLE('',(#197));
#180=SURFACE_SIDE_STYLE('',(#198));
#181=SURFACE_SIDE_STYLE('',(#199));
#182=SURFACE_SIDE_STYLE('',(#200));
#183=SURFACE_SIDE_STYLE('',(#201));
#184=SURFACE_SIDE_STYLE('',(#202));
#185=SURFACE_SIDE_STYLE('',(#203));
#186=SURFACE_SIDE_STYLE('',(#204));
#187=SURFACE_STYLE_FILL_AREA(#205);
#188=SURFACE_STYLE_FILL_AREA(#206);
#189=SURFACE_STYLE_FILL_AREA(#207);
#190=SURFACE_STYLE_FILL_AREA(#208);
#191=SURFACE_STYLE_FILL_AREA(#209);
#192=SURFACE_STYLE_FILL_AREA(#210);
#193=SURFACE_STYLE_FILL_AREA(#211);
#194=SURFACE_STYLE_FILL_AREA(#212);
#195=SURFACE_STYLE_FILL_AREA(#213);
#196=SURFACE_STYLE_FILL_AREA(#214);
#197=SURFACE_STYLE_FILL_AREA(#215);
#198=SURFACE_STYLE_FILL_AREA(#216);
#199=SURFACE_STYLE_FILL_AREA(#217);
#200=SURFACE_STYLE_FILL_AREA(#218);
#201=SURFACE_STYLE_FILL_AREA(#219);
#202=SURFACE_STYLE_FILL_AREA(#220);
#203=SURFACE_STYLE_FILL_AREA(#221);
#204=SURFACE_STYLE_FILL_AREA(#222);
#205=FILL_AREA_STYLE('',(#223));
#206=FILL_AREA_STYLE('',(#224));
#207=FILL_AREA_STYLE('',(#225));
#208=FILL_AREA_STYLE('',(#226));
#209=FILL_AREA_STYLE('',(#227));
#210=FILL_AREA_STYLE('',(#228));
#211=FILL_AREA_STYLE('',(#229));
#212=FILL_AREA_STYLE('',(#230));
#213=FILL_AREA_STYLE('',(#231));
#214=FILL_AREA_STYLE('',(#232));
#215=FILL_AREA_STYLE('',(#233));
#216=FILL_AREA_STYLE('',(#234));
#217=FILL_AREA_STYLE('',(#235));
#218=FILL_AREA_STYLE('',(#236));
#219=FILL_AREA_STYLE('',(#237));
#220=FILL_AREA_STYLE('',(#238));
#221=FILL_AREA_STYLE('',(#239));
#222=FILL_AREA_STYLE('',(#240));
#223=FILL_AREA_STYLE_COLOUR('',#241);
#224=FILL_AREA_STYLE_COLOUR('',#242);
#225=FILL_AREA_STYLE_COLOUR('',#242);
#226=FILL_AREA_STYLE_COLOUR('',#242);
#227=FILL_AREA_STYLE_COLOUR('',#242);
#228=FILL_AREA_STYLE_COLOUR('',#242);
#229=FILL_AREA_STYLE_COLOUR('',#242);
#230=FILL_AREA_STYLE_COLOUR('',#242);
#231=FILL_AREA_STYLE_COLOUR('',#242);
#232=FILL_AREA_STYLE_COLOUR('',#242);
#233=FILL_AREA_STYLE_COLOUR('',#242);
#234=FILL_AREA_STYLE_COLOUR('',#242);
#235=FILL_AREA_STYLE_COLOUR('',#242);
#236=FILL_AREA_STYLE_COLOUR('',#242);
#237=FILL_AREA_STYLE_COLOUR('',#242);
#238=FILL_AREA_STYLE_COLOUR('',#242);
#239=FILL_AREA_STYLE_COLOUR('',#242);
#240=FILL_AREA_STYLE_COLOUR('',#77);
#241=COLOUR_RGB('Medium Steel',0.611764705882353,0.658823529411765,0.670588235294118);
#242=COLOUR_RGB('silver gray',0.6,0.6,0.6);
#243=MANIFOLD_SOLID_BREP('',#245);
#244=MANIFOLD_SOLID_BREP('',#246);
#245=CLOSED_SHELL('',(#260,#261,#262,#263,#264,#265,#266,#267,#268,#269,
#270,#271,#272,#273,#274,#275));
#246=CLOSED_SHELL('',(#276,#277,#278,#279,#280,#281,#282,#283,#284));
#247=CYLINDRICAL_SURFACE('',#523,29.);
#248=CYLINDRICAL_SURFACE('',#527,28.8);
#249=CYLINDRICAL_SURFACE('',#535,39.4);
#250=PLANE('',#519);
#251=PLANE('',#538);
#252=FACE_OUTER_BOUND('',#347,.T.);
#253=VERTEX_LOOP('',#439);
#254=TOROIDAL_SURFACE('',#512,35.7847994161234,0.79999999999988);
#255=TOROIDAL_SURFACE('',#516,34.1381786672261,1.0000000000002);
#256=TOROIDAL_SURFACE('',#521,27.,2.);
#257=TOROIDAL_SURFACE('',#529,48.8,20.);
#258=TOROIDAL_SURFACE('',#533,35.4,4.);
#259=TOROIDAL_SURFACE('',#537,38.6,0.8);
#260=ADVANCED_FACE('',(#290,#291),#285,.F.);
#261=ADVANCED_FACE('',(#292,#293),#254,.F.);
#262=ADVANCED_FACE('',(#294,#295),#286,.T.);
#263=ADVANCED_FACE('',(#296,#297),#255,.T.);
#264=ADVANCED_FACE('',(#298,#299),#287,.F.);
#265=ADVANCED_FACE('',(#252),#250,.F.);
#266=ADVANCED_FACE('',(#300,#301),#256,.T.);
#267=ADVANCED_FACE('',(#302,#303),#247,.T.);
#268=ADVANCED_FACE('',(#304,#305),#288,.T.);
#269=ADVANCED_FACE('',(#306,#307),#248,.T.);
#270=ADVANCED_FACE('',(#308,#309),#257,.F.);
#271=ADVANCED_FACE('',(#310,#311),#289,.T.);
#272=ADVANCED_FACE('',(#312,#313),#258,.T.);
#273=ADVANCED_FACE('',(#314,#315),#249,.T.);
#274=ADVANCED_FACE('',(#316,#317),#259,.T.);
#275=ADVANCED_FACE('',(#318,#319),#251,.F.);
#276=ADVANCED_FACE('',(#320,#321),#78,.F.);
#277=ADVANCED_FACE('',(#322,#323),#79,.F.);
#278=ADVANCED_FACE('',(#324,#325),#80,.F.);
#279=ADVANCED_FACE('',(#326,#327),#81,.F.);
#280=ADVANCED_FACE('',(#328,#329),#82,.F.);
#281=ADVANCED_FACE('',(#330,#331),#83,.F.);
#282=ADVANCED_FACE('',(#332,#333),#84,.F.);
#283=ADVANCED_FACE('',(#334,#335),#85,.F.);
#284=ADVANCED_FACE('',(#336,#337),#86,.F.);
#285=CONICAL_SURFACE('',#510,38.2,60.0000000000028);
#286=CONICAL_SURFACE('',#514,35.0597531864943,25.0000000003145);
#287=CONICAL_SURFACE('',#517,34.0858427109832,87.);
#288=CONICAL_SURFACE('',#525,29.,29.9999999999996);
#289=CONICAL_SURFACE('',#531,31.4794919243113,30.0000000000005);
#290=FACE_BOUND('',#338,.T.);
#291=FACE_BOUND('',#339,.T.);
#292=FACE_BOUND('',#340,.T.);
#293=FACE_BOUND('',#341,.T.);
#294=FACE_BOUND('',#342,.T.);
#295=FACE_BOUND('',#343,.T.);
#296=FACE_BOUND('',#344,.T.);
#297=FACE_BOUND('',#345,.T.);
#298=FACE_BOUND('',#346,.T.);
#299=FACE_BOUND('',#253,.T.);
#300=FACE_BOUND('',#348,.T.);
#301=FACE_BOUND('',#349,.T.);
#302=FACE_BOUND('',#350,.T.);
#303=FACE_BOUND('',#351,.T.);
#304=FACE_BOUND('',#352,.T.);
#305=FACE_BOUND('',#353,.T.);
#306=FACE_BOUND('',#354,.T.);
#307=FACE_BOUND('',#355,.T.);
#308=FACE_BOUND('',#356,.T.);
#309=FACE_BOUND('',#357,.T.);
#310=FACE_BOUND('',#358,.T.);
#311=FACE_BOUND('',#359,.T.);
#312=FACE_BOUND('',#360,.T.);
#313=FACE_BOUND('',#361,.T.);
#314=FACE_BOUND('',#362,.T.);
#315=FACE_BOUND('',#363,.T.);
#316=FACE_BOUND('',#364,.T.);
#317=FACE_BOUND('',#365,.T.);
#318=FACE_BOUND('',#366,.T.);
#319=FACE_BOUND('',#367,.T.);
#320=FACE_BOUND('',#368,.T.);
#321=FACE_BOUND('',#369,.T.);
#322=FACE_BOUND('',#370,.T.);
#323=FACE_BOUND('',#371,.T.);
#324=FACE_BOUND('',#372,.T.);
#325=FACE_BOUND('',#373,.T.);
#326=FACE_BOUND('',#374,.T.);
#327=FACE_BOUND('',#375,.T.);
#328=FACE_BOUND('',#376,.T.);
#329=FACE_BOUND('',#377,.T.);
#330=FACE_BOUND('',#378,.T.);
#331=FACE_BOUND('',#379,.T.);
#332=FACE_BOUND('',#380,.T.);
#333=FACE_BOUND('',#381,.T.);
#334=FACE_BOUND('',#382,.T.);
#335=FACE_BOUND('',#383,.T.);
#336=FACE_BOUND('',#384,.T.);
#337=FACE_BOUND('',#385,.T.);
#338=EDGE_LOOP('',(#386));
#339=EDGE_LOOP('',(#387));
#340=EDGE_LOOP('',(#388));
#341=EDGE_LOOP('',(#389));
#342=EDGE_LOOP('',(#390));
#343=EDGE_LOOP('',(#391));
#344=EDGE_LOOP('',(#392));
#345=EDGE_LOOP('',(#393));
#346=EDGE_LOOP('',(#394));
#347=EDGE_LOOP('',(#395));
#348=EDGE_LOOP('',(#396));
#349=EDGE_LOOP('',(#397));
#350=EDGE_LOOP('',(#398));
#351=EDGE_LOOP('',(#399));
#352=EDGE_LOOP('',(#400));
#353=EDGE_LOOP('',(#401));
#354=EDGE_LOOP('',(#402));
#355=EDGE_LOOP('',(#403));
#356=EDGE_LOOP('',(#404));
#357=EDGE_LOOP('',(#405));
#358=EDGE_LOOP('',(#406));
#359=EDGE_LOOP('',(#407));
#360=EDGE_LOOP('',(#408));
#361=EDGE_LOOP('',(#409));
#362=EDGE_LOOP('',(#410));
#363=EDGE_LOOP('',(#411));
#364=EDGE_LOOP('',(#412));
#365=EDGE_LOOP('',(#413));
#366=EDGE_LOOP('',(#414));
#367=EDGE_LOOP('',(#415));
#368=EDGE_LOOP('',(#416));
#369=EDGE_LOOP('',(#417));
#370=EDGE_LOOP('',(#418));
#371=EDGE_LOOP('',(#419));
#372=EDGE_LOOP('',(#420));
#373=EDGE_LOOP('',(#421));
#374=EDGE_LOOP('',(#422));
#375=EDGE_LOOP('',(#423));
#376=EDGE_LOOP('',(#424));
#377=EDGE_LOOP('',(#425));
#378=EDGE_LOOP('',(#426));
#379=EDGE_LOOP('',(#427));
#380=EDGE_LOOP('',(#428));
#381=EDGE_LOOP('',(#429));
#382=EDGE_LOOP('',(#430));
#383=EDGE_LOOP('',(#431));
#384=EDGE_LOOP('',(#432));
#385=EDGE_LOOP('',(#433));
#386=ORIENTED_EDGE('',*,*,#459,.F.);
#387=ORIENTED_EDGE('',*,*,#460,.T.);
#388=ORIENTED_EDGE('',*,*,#461,.F.);
#389=ORIENTED_EDGE('',*,*,#459,.T.);
#390=ORIENTED_EDGE('',*,*,#462,.F.);
#391=ORIENTED_EDGE('',*,*,#461,.T.);
#392=ORIENTED_EDGE('',*,*,#463,.F.);
#393=ORIENTED_EDGE('',*,*,#462,.T.);
#394=ORIENTED_EDGE('',*,*,#463,.T.);
#395=ORIENTED_EDGE('',*,*,#464,.F.);
#396=ORIENTED_EDGE('',*,*,#465,.F.);
#397=ORIENTED_EDGE('',*,*,#464,.T.);
#398=ORIENTED_EDGE('',*,*,#466,.F.);
#399=ORIENTED_EDGE('',*,*,#465,.T.);
#400=ORIENTED_EDGE('',*,*,#467,.F.);
#401=ORIENTED_EDGE('',*,*,#466,.T.);
#402=ORIENTED_EDGE('',*,*,#468,.F.);
#403=ORIENTED_EDGE('',*,*,#467,.T.);
#404=ORIENTED_EDGE('',*,*,#469,.F.);
#405=ORIENTED_EDGE('',*,*,#468,.T.);
#406=ORIENTED_EDGE('',*,*,#470,.F.);
#407=ORIENTED_EDGE('',*,*,#469,.T.);
#408=ORIENTED_EDGE('',*,*,#471,.F.);
#409=ORIENTED_EDGE('',*,*,#470,.T.);
#410=ORIENTED_EDGE('',*,*,#472,.F.);
#411=ORIENTED_EDGE('',*,*,#471,.T.);
#412=ORIENTED_EDGE('',*,*,#473,.F.);
#413=ORIENTED_EDGE('',*,*,#472,.T.);
#414=ORIENTED_EDGE('',*,*,#460,.F.);
#415=ORIENTED_EDGE('',*,*,#473,.T.);
#416=ORIENTED_EDGE('',*,*,#474,.T.);
#417=ORIENTED_EDGE('',*,*,#475,.F.);
#418=ORIENTED_EDGE('',*,*,#476,.T.);
#419=ORIENTED_EDGE('',*,*,#474,.F.);
#420=ORIENTED_EDGE('',*,*,#477,.T.);
#421=ORIENTED_EDGE('',*,*,#476,.F.);
#422=ORIENTED_EDGE('',*,*,#478,.T.);
#423=ORIENTED_EDGE('',*,*,#477,.F.);
#424=ORIENTED_EDGE('',*,*,#479,.T.);
#425=ORIENTED_EDGE('',*,*,#478,.F.);
#426=ORIENTED_EDGE('',*,*,#480,.T.);
#427=ORIENTED_EDGE('',*,*,#479,.F.);
#428=ORIENTED_EDGE('',*,*,#481,.T.);
#429=ORIENTED_EDGE('',*,*,#480,.F.);
#430=ORIENTED_EDGE('',*,*,#482,.T.);
#431=ORIENTED_EDGE('',*,*,#481,.F.);
#432=ORIENTED_EDGE('',*,*,#475,.T.);
#433=ORIENTED_EDGE('',*,*,#482,.F.);
#434=VERTEX_POINT('',#650);
#435=VERTEX_POINT('',#652);
#436=VERTEX_POINT('',#655);
#437=VERTEX_POINT('',#658);
#438=VERTEX_POINT('',#661);
#439=VERTEX_POINT('',#663);
#440=VERTEX_POINT('',#666);
#441=VERTEX_POINT('',#669);
#442=VERTEX_POINT('',#672);
#443=VERTEX_POINT('',#675);
#444=VERTEX_POINT('',#678);
#445=VERTEX_POINT('',#681);
#446=VERTEX_POINT('',#684);
#447=VERTEX_POINT('',#687);
#448=VERTEX_POINT('',#690);
#449=VERTEX_POINT('',#693);
#450=VERTEX_POINT('',#697);
#451=VERTEX_POINT('',#699);
#452=VERTEX_POINT('',#703);
#453=VERTEX_POINT('',#707);
#454=VERTEX_POINT('',#711);
#455=VERTEX_POINT('',#715);
#456=VERTEX_POINT('',#719);
#457=VERTEX_POINT('',#723);
#458=VERTEX_POINT('',#727);
#459=EDGE_CURVE('',#434,#434,#483,.T.);
#460=EDGE_CURVE('',#435,#435,#484,.T.);
#461=EDGE_CURVE('',#436,#436,#485,.T.);
#462=EDGE_CURVE('',#437,#437,#486,.T.);
#463=EDGE_CURVE('',#438,#438,#487,.T.);
#464=EDGE_CURVE('',#440,#440,#488,.T.);
#465=EDGE_CURVE('',#441,#441,#489,.T.);
#466=EDGE_CURVE('',#442,#442,#490,.T.);
#467=EDGE_CURVE('',#443,#443,#491,.T.);
#468=EDGE_CURVE('',#444,#444,#492,.T.);
#469=EDGE_CURVE('',#445,#445,#493,.T.);
#470=EDGE_CURVE('',#446,#446,#494,.T.);
#471=EDGE_CURVE('',#447,#447,#495,.T.);
#472=EDGE_CURVE('',#448,#448,#496,.T.);
#473=EDGE_CURVE('',#449,#449,#497,.T.);
#474=EDGE_CURVE('',#450,#450,#498,.T.);
#475=EDGE_CURVE('',#451,#451,#499,.T.);
#476=EDGE_CURVE('',#452,#452,#500,.T.);
#477=EDGE_CURVE('',#453,#453,#501,.T.);
#478=EDGE_CURVE('',#454,#454,#502,.T.);
#479=EDGE_CURVE('',#455,#455,#503,.T.);
#480=EDGE_CURVE('',#456,#456,#504,.T.);
#481=EDGE_CURVE('',#457,#457,#505,.T.);
#482=EDGE_CURVE('',#458,#458,#506,.T.);
#483=CIRCLE('',#508,36.1847994161235);
#484=CIRCLE('',#509,38.2);
#485=CIRCLE('',#511,35.0597531864943);
#486=CIRCLE('',#513,35.0444864542629);
#487=CIRCLE('',#515,34.0858427109832);
#488=CIRCLE('',#518,27.);
#489=CIRCLE('',#520,29.);
#490=CIRCLE('',#522,29.);
#491=CIRCLE('',#524,28.8);
#492=CIRCLE('',#526,28.8);
#493=CIRCLE('',#528,31.4794919243113);
#494=CIRCLE('',#530,38.8641016151377);
#495=CIRCLE('',#532,39.4);
#496=CIRCLE('',#534,39.4);
#497=CIRCLE('',#536,38.6);
#498=CIRCLE('',#539,37.9593340320405);
#499=CIRCLE('',#540,26.8894799723171);
#500=CIRCLE('',#541,39.3579846396354);
#501=CIRCLE('',#542,40.0000959426113);
#502=CIRCLE('',#543,39.9599632766572);
#503=CIRCLE('',#544,39.3157520332032);
#504=CIRCLE('',#545,38.7559195186638);
#505=CIRCLE('',#546,27.723102784003);
#506=CIRCLE('',#547,26.9712203223721);
#507=AXIS2_PLACEMENT_3D('',#648,#548,#549);
#508=AXIS2_PLACEMENT_3D('',#649,#550,#551);
#509=AXIS2_PLACEMENT_3D('',#651,#552,#553);
#510=AXIS2_PLACEMENT_3D('',#653,#554,#555);
#511=AXIS2_PLACEMENT_3D('',#654,#556,#557);
#512=AXIS2_PLACEMENT_3D('',#656,#558,#559);
#513=AXIS2_PLACEMENT_3D('',#657,#560,#561);
#514=AXIS2_PLACEMENT_3D('',#659,#562,#563);
#515=AXIS2_PLACEMENT_3D('',#660,#564,#565);
#516=AXIS2_PLACEMENT_3D('',#662,#566,#567);
#517=AXIS2_PLACEMENT_3D('',#664,#568,#569);
#518=AXIS2_PLACEMENT_3D('',#665,#570,#571);
#519=AXIS2_PLACEMENT_3D('',#667,#572,#573);
#520=AXIS2_PLACEMENT_3D('',#668,#574,#575);
#521=AXIS2_PLACEMENT_3D('',#670,#576,#577);
#522=AXIS2_PLACEMENT_3D('',#671,#578,#579);
#523=AXIS2_PLACEMENT_3D('',#673,#580,#581);
#524=AXIS2_PLACEMENT_3D('',#674,#582,#583);
#525=AXIS2_PLACEMENT_3D('',#676,#584,#585);
#526=AXIS2_PLACEMENT_3D('',#677,#586,#587);
#527=AXIS2_PLACEMENT_3D('',#679,#588,#589);
#528=AXIS2_PLACEMENT_3D('',#680,#590,#591);
#529=AXIS2_PLACEMENT_3D('',#682,#592,#593);
#530=AXIS2_PLACEMENT_3D('',#683,#594,#595);
#531=AXIS2_PLACEMENT_3D('',#685,#596,#597);
#532=AXIS2_PLACEMENT_3D('',#686,#598,#599);
#533=AXIS2_PLACEMENT_3D('',#688,#600,#601);
#534=AXIS2_PLACEMENT_3D('',#689,#602,#603);
#535=AXIS2_PLACEMENT_3D('',#691,#604,#605);
#536=AXIS2_PLACEMENT_3D('',#692,#606,#607);
#537=AXIS2_PLACEMENT_3D('',#694,#608,#609);
#538=AXIS2_PLACEMENT_3D('',#695,#610,#611);
#539=AXIS2_PLACEMENT_3D('',#696,#612,#613);
#540=AXIS2_PLACEMENT_3D('',#698,#614,#615);
#541=AXIS2_PLACEMENT_3D('',#702,#618,#619);
#542=AXIS2_PLACEMENT_3D('',#706,#622,#623);
#543=AXIS2_PLACEMENT_3D('',#710,#626,#627);
#544=AXIS2_PLACEMENT_3D('',#714,#630,#631);
#545=AXIS2_PLACEMENT_3D('',#718,#634,#635);
#546=AXIS2_PLACEMENT_3D('',#722,#638,#639);
#547=AXIS2_PLACEMENT_3D('',#726,#642,#643);
#548=DIRECTION('',(0.,0.,1.));
#549=DIRECTION('',(1.,0.,0.));
#550=DIRECTION('',(-1.,0.,0.));
#551=DIRECTION('',(0.,0.,1.));
#552=DIRECTION('',(-1.,0.,0.));
#553=DIRECTION('',(0.,0.,1.));
#554=DIRECTION('',(-1.,0.,0.));
#555=DIRECTION('',(-3.11128062344434E-17,0.,1.));
#556=DIRECTION('',(-1.,0.,0.));
#557=DIRECTION('',(0.,0.,1.));
#558=DIRECTION('',(-1.,0.,0.));
#559=DIRECTION('',(0.,0.,1.));
#560=DIRECTION('',(-1.,0.,0.));
#561=DIRECTION('',(0.,0.,1.));
#562=DIRECTION('',(1.,0.,0.));
#563=DIRECTION('',(-1.17206975201477E-16,0.,-1.));
#564=DIRECTION('',(-1.,0.,0.));
#565=DIRECTION('',(0.,0.,1.));
#566=DIRECTION('',(-1.,0.,0.));
#567=DIRECTION('',(0.,0.,1.));
#568=DIRECTION('',(-1.,0.,0.));
#569=DIRECTION('',(1.7753143048561E-18,0.,0.999999999999999));
#570=DIRECTION('',(-1.,0.,0.));
#571=DIRECTION('',(0.,0.,1.));
#572=DIRECTION('',(-1.,0.,0.));
#573=DIRECTION('',(0.,0.,1.));
#574=DIRECTION('',(-1.,0.,0.));
#575=DIRECTION('',(0.,0.,1.));
#576=DIRECTION('',(-1.,0.,0.));
#577=DIRECTION('',(0.,0.,1.));
#578=DIRECTION('',(-1.,0.,0.));
#579=DIRECTION('',(0.,0.,1.));
#580=DIRECTION('',(-1.,0.,0.));
#581=DIRECTION('',(0.,0.,1.));
#582=DIRECTION('',(-1.,0.,0.));
#583=DIRECTION('',(0.,0.,1.));
#584=DIRECTION('',(1.,0.,0.));
#585=DIRECTION('',(5.72185274460339E-17,0.,-1.));
#586=DIRECTION('',(-1.,0.,0.));
#587=DIRECTION('',(0.,0.,1.));
#588=DIRECTION('',(-1.,0.,0.));
#589=DIRECTION('',(0.,0.,1.));
#590=DIRECTION('',(-1.,0.,0.));
#591=DIRECTION('',(0.,0.,1.));
#592=DIRECTION('',(-1.,0.,0.));
#593=DIRECTION('',(0.,0.,1.));
#594=DIRECTION('',(-1.,0.,0.));
#595=DIRECTION('',(0.,0.,1.));
#596=DIRECTION('',(-1.,0.,0.));
#597=DIRECTION('',(3.98898513424181E-17,0.,1.));
#598=DIRECTION('',(-1.,0.,0.));
#599=DIRECTION('',(0.,0.,1.));
#600=DIRECTION('',(-1.,0.,0.));
#601=DIRECTION('',(0.,0.,1.));
#602=DIRECTION('',(-1.,0.,0.));
#603=DIRECTION('',(0.,0.,1.));
#604=DIRECTION('',(-1.,0.,0.));
#605=DIRECTION('',(0.,0.,1.));
#606=DIRECTION('',(-1.,0.,0.));
#607=DIRECTION('',(0.,0.,1.));
#608=DIRECTION('',(-1.,0.,0.));
#609=DIRECTION('',(0.,0.,1.));
#610=DIRECTION('',(1.,0.,0.));
#611=DIRECTION('',(0.,0.,-1.));
#612=DIRECTION('',(-1.,0.,0.));
#613=DIRECTION('',(0.,0.,1.));
#614=DIRECTION('',(-1.,0.,0.));
#615=DIRECTION('',(0.,0.,1.));
#616=DIRECTION('',(-0.493269592483848,-0.86869030902136,0.0454120704570028));
#617=DIRECTION('',(-1.,0.,0.));
#618=DIRECTION('',(-1.,0.,0.));
#619=DIRECTION('',(0.,0.,1.));
#620=DIRECTION('',(-0.0419860863243364,-0.999042698289678,-0.0122823267032346));
#621=DIRECTION('',(-1.,0.,0.));
#622=DIRECTION('',(-1.,0.,0.));
#623=DIRECTION('',(0.,0.,1.));
#624=DIRECTION('',(0.393011977199722,-0.917284244942901,-0.0642744098152454));
#625=DIRECTION('',(-1.,0.,0.));
#626=DIRECTION('',(-1.,0.,0.));
#627=DIRECTION('',(0.,0.,1.));
#628=DIRECTION('',(0.992540104710507,0.00561702012756685,-0.121789119489967));
#629=DIRECTION('',(-1.,0.,0.));
#630=DIRECTION('',(-1.,0.,0.));
#631=DIRECTION('',(0.,0.,1.));
#632=DIRECTION('',(0.879793819692954,0.464733158650029,-0.0999296056294034));
#633=DIRECTION('',(-1.,0.,0.));
#634=DIRECTION('',(-1.,0.,0.));
#635=DIRECTION('',(0.,0.,1.));
#636=DIRECTION('',(0.592808325654401,0.803195693686423,-0.0587789645911801));
#637=DIRECTION('',(-1.,0.,0.));
#638=DIRECTION('',(-1.,0.,0.));
#639=DIRECTION('',(0.,0.,1.));
#640=DIRECTION('',(-0.499270512226655,0.863073288893794,0.0763770490329639));
#641=DIRECTION('',(-1.,0.,0.));
#642=DIRECTION('',(-1.,0.,0.));
#643=DIRECTION('',(0.,0.,1.));
#644=DIRECTION('',(-0.837807733368611,0.534309539639642,0.112211932332637));
#645=DIRECTION('',(-1.,0.,0.));
#646=DIRECTION('',(-0.985820302854121,0.114088551256475,0.123053374406425));
#647=DIRECTION('',(-1.,0.,0.));
#648=CARTESIAN_POINT('',(0.,0.,0.));
#649=CARTESIAN_POINT('',(1.66347659957202,0.,0.));
#650=CARTESIAN_POINT('',(1.66347659957202,0.,36.1847994161235));
#651=CARTESIAN_POINT('',(0.5,0.,0.));
#652=CARTESIAN_POINT('',(0.5,0.,38.2));
#653=CARTESIAN_POINT('',(0.5,0.,0.));
#654=CARTESIAN_POINT('',(1.30875088593713,0.,0.));
#655=CARTESIAN_POINT('',(1.30875088593713,0.,35.0597531864943));
#656=CARTESIAN_POINT('',(0.970656276544689,0.,0.));
#657=CARTESIAN_POINT('',(1.27601127301379,0.,0.));
#658=CARTESIAN_POINT('',(1.27601127301379,0.,35.0444864542629));
#659=CARTESIAN_POINT('',(1.30875088593713,0.,0.));
#660=CARTESIAN_POINT('',(0.7,0.,0.));
#661=CARTESIAN_POINT('',(0.7,0.,34.0858427109832));
#662=CARTESIAN_POINT('',(1.69862953475458,0.,0.));
#663=CARTESIAN_POINT('',(2.48636332147367,0.,0.));
#664=CARTESIAN_POINT('',(0.7,0.,0.));
#665=CARTESIAN_POINT('',(50.,0.,0.));
#666=CARTESIAN_POINT('',(50.,0.,27.));
#667=CARTESIAN_POINT('',(50.,14.5,0.));
#668=CARTESIAN_POINT('',(48.,0.,0.));
#669=CARTESIAN_POINT('',(48.,0.,29.));
#670=CARTESIAN_POINT('',(48.,0.,0.));
#671=CARTESIAN_POINT('',(40.,0.,0.));
#672=CARTESIAN_POINT('',(40.,0.,29.));
#673=CARTESIAN_POINT('',(0.,0.,0.));
#674=CARTESIAN_POINT('',(39.6535898384862,0.,0.));
#675=CARTESIAN_POINT('',(39.6535898384862,0.,28.8));
#676=CARTESIAN_POINT('',(40.,0.,0.));
#677=CARTESIAN_POINT('',(39.,0.,0.));
#678=CARTESIAN_POINT('',(39.,0.,28.8));
#679=CARTESIAN_POINT('',(0.,0.,0.));
#680=CARTESIAN_POINT('',(29.,0.,0.));
#681=CARTESIAN_POINT('',(29.,0.,31.4794919243113));
#682=CARTESIAN_POINT('',(39.,0.,0.));
#683=CARTESIAN_POINT('',(16.2094808214233,0.,0.));
#684=CARTESIAN_POINT('',(16.2094808214233,0.,38.8641016151377));
#685=CARTESIAN_POINT('',(29.,0.,0.));
#686=CARTESIAN_POINT('',(14.2094808214232,0.,0.));
#687=CARTESIAN_POINT('',(14.2094808214232,0.,39.4));
#688=CARTESIAN_POINT('',(14.2094808214232,0.,0.));
#689=CARTESIAN_POINT('',(1.3,0.,0.));
#690=CARTESIAN_POINT('',(1.3,0.,39.4));
#691=CARTESIAN_POINT('',(0.,0.,0.));
#692=CARTESIAN_POINT('',(0.5,0.,0.));
#693=CARTESIAN_POINT('',(0.5,0.,38.6));
#694=CARTESIAN_POINT('',(1.3,0.,0.));
#695=CARTESIAN_POINT('',(0.5,38.6,0.));
#696=CARTESIAN_POINT('',(0.0565501635992151,0.,0.));
#697=CARTESIAN_POINT('',(0.0565501635992151,0.,37.9593340320405));
#698=CARTESIAN_POINT('',(6.34555179788639,0.,0.));
#699=CARTESIAN_POINT('',(6.34555179788639,0.,26.8894799723171));
#700=CARTESIAN_POINT('',(6.34555179788641,-26.8838487200452,-0.550282817620058));
#701=CARTESIAN_POINT('',(0.7,0.,0.));
#702=CARTESIAN_POINT('',(-0.00223035725485567,0.,0.));
#703=CARTESIAN_POINT('',(-0.00223035725485567,0.,39.3579846396354));
#704=CARTESIAN_POINT('',(0.0565501635992151,-37.959323179387,0.0287039873081356));
#705=CARTESIAN_POINT('',(0.7,0.,0.));
#706=CARTESIAN_POINT('',(0.272878026784959,0.,0.));
#707=CARTESIAN_POINT('',(0.272878026784959,0.,40.0000959426113));
#708=CARTESIAN_POINT('',(-0.00223035725485593,-39.3579829569925,0.0115087299236074));
#709=CARTESIAN_POINT('',(0.7,0.,0.));
#710=CARTESIAN_POINT('',(12.9273907632949,0.,0.));
#711=CARTESIAN_POINT('',(12.9273907632949,0.,39.9599632766572));
#712=CARTESIAN_POINT('',(0.272878026784959,-40.0000819284526,-0.0334833569470657));
#713=CARTESIAN_POINT('',(0.7,0.,0.));
#714=CARTESIAN_POINT('',(14.159102110865,0.,0.));
#715=CARTESIAN_POINT('',(14.159102110865,0.,39.3157520332032));
#716=CARTESIAN_POINT('',(12.9273907632948,-39.928467036109,-1.58624878822768));
#717=CARTESIAN_POINT('',(0.7,0.,0.));
#718=CARTESIAN_POINT('',(14.5740679388231,0.,0.));
#719=CARTESIAN_POINT('',(14.5740679388231,0.,38.7559195186638));
#720=CARTESIAN_POINT('',(14.159102110865,-39.2778406139989,-1.72615023610885));
#721=CARTESIAN_POINT('',(0.7,0.,0.));
#722=CARTESIAN_POINT('',(8.20855683660033,0.,0.));
#723=CARTESIAN_POINT('',(8.20855683660033,0.,27.723102784003));
#724=CARTESIAN_POINT('',(14.5740679388231,-38.7156036284184,-1.76729551132267));
#725=CARTESIAN_POINT('',(0.7,0.,0.));
#726=CARTESIAN_POINT('',(7.03562600988427,0.,0.));
#727=CARTESIAN_POINT('',(7.03562600988427,0.,26.9712203223721));
#728=CARTESIAN_POINT('',(8.20855683660033,-27.7117440614203,-0.793516884970246));
#729=CARTESIAN_POINT('',(0.7,0.,0.));
#730=CARTESIAN_POINT('',(7.03562600988427,-26.9637107059248,-0.636420179704555));
#731=CARTESIAN_POINT('',(0.7,0.,0.));
#732=(
GEOMETRIC_REPRESENTATION_CONTEXT(3)
GLOBAL_UNCERTAINTY_ASSIGNED_CONTEXT((#733))
GLOBAL_UNIT_ASSIGNED_CONTEXT((#739,#735,#734))
REPRESENTATION_CONTEXT('AFM90C-TP16-D080-A27-Z07',
'TOP_LEVEL_ASSEMBLY_PART')
);
#733=UNCERTAINTY_MEASURE_WITH_UNIT(LENGTH_MEASURE(2.E-5),#739,
'DISTANCE_ACCURACY_VALUE','Maximum Tolerance applied to model');
#734=(
NAMED_UNIT(*)
SI_UNIT($,.STERADIAN.)
SOLID_ANGLE_UNIT()
);
#735=(
CONVERSION_BASED_UNIT('DEGREE',#737)
NAMED_UNIT(#736)
PLANE_ANGLE_UNIT()
);
#736=DIMENSIONAL_EXPONENTS(0.,0.,0.,0.,0.,0.,0.);
#737=PLANE_ANGLE_MEASURE_WITH_UNIT(PLANE_ANGLE_MEASURE(0.0174532925),#738);
#738=(
NAMED_UNIT(*)
PLANE_ANGLE_UNIT()
SI_UNIT($,.RADIAN.)
);
#739=(
LENGTH_UNIT()
NAMED_UNIT(*)
SI_UNIT(.MILLI.,.METRE.)
);
ENDSEC;
END-ISO-10303-21;
