ISO-10303-21;
HEADER;
/* Generated by software containing ST-Developer
 * from STEP Tools, Inc. (www.steptools.com) 
 */
/* OPTION: using custom schema-name function */

FILE_DESCRIPTION(
/* description */ (''),
/* implementation_level */ '2;1');

FILE_NAME(
/* name */ 'model1.stp',
/* time_stamp */ '2023-11-02T17:20:51+03:00',
/* author */ (''),
/* organization */ (''),
/* preprocessor_version */ 'ST-DEVELOPER v19.4',
/* originating_system */ 'SIEMENS PLM Software NX2306.3001',
/* authorisation */ '');

FILE_SCHEMA (('AUTOMOTIVE_DESIGN { 1 0 10303 214 3 1 1 1 }'));
ENDSEC;

DATA;
#10=PROPERTY_DEFINITION_REPRESENTATION(#14,#12);
#11=PROPERTY_DEFINITION_REPRESENTATION(#15,#13);
#12=REPRESENTATION('',(#16),#465);
#13=REPRESENTATION('',(#17),#465);
#14=PROPERTY_DEFINITION('pmi validation property','',#21);
#15=PROPERTY_DEFINITION('pmi validation property','',#21);
#16=VALUE_REPRESENTATION_ITEM('number of annotations',COUNT_MEASURE(0.));
#17=VALUE_REPRESENTATION_ITEM('number of views',COUNT_MEASURE(0.));
#18=SHAPE_REPRESENTATION_RELATIONSHIP('None',
'relationship between model1_objects-None and model1_objects-None',#30,
#19);
#19=ADVANCED_BREP_SHAPE_REPRESENTATION('model1_objects-None',(#125,#126),
#465);
#20=SHAPE_DEFINITION_REPRESENTATION(#21,#30);
#21=PRODUCT_DEFINITION_SHAPE('','',#22);
#22=PRODUCT_DEFINITION(' ','',#24,#23);
#23=PRODUCT_DEFINITION_CONTEXT('part definition',#29,'design');
#24=PRODUCT_DEFINITION_FORMATION_WITH_SPECIFIED_SOURCE(' ',' ',#26,
 .NOT_KNOWN.);
#25=PRODUCT_RELATED_PRODUCT_CATEGORY('part','',(#26));
#26=PRODUCT('model1_objects','model1_objects',' ',(#27));
#27=PRODUCT_CONTEXT(' ',#29,'mechanical');
#28=APPLICATION_PROTOCOL_DEFINITION('international standard',
'automotive_design',2010,#29);
#29=APPLICATION_CONTEXT(
'core data for automotive mechanical design processes');
#30=SHAPE_REPRESENTATION('model1_objects-None',(#233),#465);
#31=OVER_RIDING_STYLED_ITEM('',(#60),#131,#57);
#32=OVER_RIDING_STYLED_ITEM('',(#61),#132,#57);
#33=OVER_RIDING_STYLED_ITEM('',(#62),#133,#57);
#34=OVER_RIDING_STYLED_ITEM('',(#63),#134,#57);
#35=OVER_RIDING_STYLED_ITEM('',(#64),#135,#57);
#36=OVER_RIDING_STYLED_ITEM('',(#65),#136,#57);
#37=OVER_RIDING_STYLED_ITEM('',(#66),#137,#57);
#38=OVER_RIDING_STYLED_ITEM('',(#67),#138,#57);
#39=OVER_RIDING_STYLED_ITEM('',(#68),#139,#57);
#40=COLOUR_RGB('Medium Steel',0.611764705882353,0.658823529411765,0.670588235294118);
#41=COLOUR_RGB('silver gray',0.6,0.6,0.6);
#42=SURFACE_OF_REVOLUTION('',#44,#43);
#43=AXIS1_PLACEMENT('',#457,#280);
#44=B_SPLINE_CURVE_WITH_KNOTS('',3,(#391,#392,#393,#394,#395,#396,#397,
#398,#399,#400,#401,#402,#403,#404,#405,#406,#407,#408,#409,#410,#411,#412,
#413,#414,#415,#416,#417,#418,#419,#420,#421,#422,#423,#424,#425,#426,#427,
#428,#429,#430,#431,#432,#433,#434,#435,#436,#437,#438,#439,#440,#441,#442,
#443,#444,#445,#446,#447,#448,#449,#450,#451,#452,#453,#454,#455,#456),
 .UNSPECIFIED.,.T.,.F.,(2,2,2,2,2,2,2,2,2,2,2,2,2,2,2,2,2,2,2,2,2,2,2,2,
2,2,2,2,2,2,2,2,2,2,2),(-0.03125,0.,0.03125,0.0625,0.09375,0.125,0.15625,
0.1875,0.21875,0.25,0.28125,0.3125,0.34375,0.375,0.40625,0.4375,0.46875,
0.5,0.53125,0.5625,0.59375,0.625,0.65625,0.6875,0.71875,0.75,0.78125,0.8125,
0.84375,0.875,0.90625,0.9375,0.96875,1.,1.03125),.UNSPECIFIED.);
#45=CONICAL_SURFACE('',#245,16.25637117442,74.9999999999989);
#46=VERTEX_LOOP('',#209);
#47=PLANE('',#241);
#48=FACE_OUTER_BOUND('',#170,.T.);
#49=TOROIDAL_SURFACE('',#240,19.5,1.5);
#50=TOROIDAL_SURFACE('',#243,16.,5.);
#51=TOROIDAL_SURFACE('',#250,18.5,5.);
#52=TOROIDAL_SURFACE('',#251,70.2,50.);
#53=CYLINDRICAL_SURFACE('',#238,21.);
#54=CYLINDRICAL_SURFACE('',#248,23.5);
#55=PRESENTATION_LAYER_ASSIGNMENT('1','Layer 1',(#125,#126));
#56=STYLED_ITEM('',(#58),#125);
#57=STYLED_ITEM('',(#59),#126);
#58=PRESENTATION_STYLE_ASSIGNMENT((#69));
#59=PRESENTATION_STYLE_ASSIGNMENT((#70));
#60=PRESENTATION_STYLE_ASSIGNMENT((#71));
#61=PRESENTATION_STYLE_ASSIGNMENT((#72));
#62=PRESENTATION_STYLE_ASSIGNMENT((#73));
#63=PRESENTATION_STYLE_ASSIGNMENT((#74));
#64=PRESENTATION_STYLE_ASSIGNMENT((#75));
#65=PRESENTATION_STYLE_ASSIGNMENT((#76));
#66=PRESENTATION_STYLE_ASSIGNMENT((#77));
#67=PRESENTATION_STYLE_ASSIGNMENT((#78));
#68=PRESENTATION_STYLE_ASSIGNMENT((#79));
#69=SURFACE_STYLE_USAGE(.BOTH.,#80);
#70=SURFACE_STYLE_USAGE(.BOTH.,#81);
#71=SURFACE_STYLE_USAGE(.BOTH.,#82);
#72=SURFACE_STYLE_USAGE(.BOTH.,#83);
#73=SURFACE_STYLE_USAGE(.BOTH.,#84);
#74=SURFACE_STYLE_USAGE(.BOTH.,#85);
#75=SURFACE_STYLE_USAGE(.BOTH.,#86);
#76=SURFACE_STYLE_USAGE(.BOTH.,#87);
#77=SURFACE_STYLE_USAGE(.BOTH.,#88);
#78=SURFACE_STYLE_USAGE(.BOTH.,#89);
#79=SURFACE_STYLE_USAGE(.BOTH.,#90);
#80=SURFACE_SIDE_STYLE('',(#91));
#81=SURFACE_SIDE_STYLE('',(#92));
#82=SURFACE_SIDE_STYLE('',(#93));
#83=SURFACE_SIDE_STYLE('',(#94));
#84=SURFACE_SIDE_STYLE('',(#95));
#85=SURFACE_SIDE_STYLE('',(#96));
#86=SURFACE_SIDE_STYLE('',(#97));
#87=SURFACE_SIDE_STYLE('',(#98));
#88=SURFACE_SIDE_STYLE('',(#99));
#89=SURFACE_SIDE_STYLE('',(#100));
#90=SURFACE_SIDE_STYLE('',(#101));
#91=SURFACE_STYLE_FILL_AREA(#102);
#92=SURFACE_STYLE_FILL_AREA(#103);
#93=SURFACE_STYLE_FILL_AREA(#104);
#94=SURFACE_STYLE_FILL_AREA(#105);
#95=SURFACE_STYLE_FILL_AREA(#106);
#96=SURFACE_STYLE_FILL_AREA(#107);
#97=SURFACE_STYLE_FILL_AREA(#108);
#98=SURFACE_STYLE_FILL_AREA(#109);
#99=SURFACE_STYLE_FILL_AREA(#110);
#100=SURFACE_STYLE_FILL_AREA(#111);
#101=SURFACE_STYLE_FILL_AREA(#112);
#102=FILL_AREA_STYLE('',(#113));
#103=FILL_AREA_STYLE('',(#114));
#104=FILL_AREA_STYLE('',(#115));
#105=FILL_AREA_STYLE('',(#116));
#106=FILL_AREA_STYLE('',(#117));
#107=FILL_AREA_STYLE('',(#118));
#108=FILL_AREA_STYLE('',(#119));
#109=FILL_AREA_STYLE('',(#120));
#110=FILL_AREA_STYLE('',(#121));
#111=FILL_AREA_STYLE('',(#122));
#112=FILL_AREA_STYLE('',(#123));
#113=FILL_AREA_STYLE_COLOUR('',#124);
#114=FILL_AREA_STYLE_COLOUR('',#40);
#115=FILL_AREA_STYLE_COLOUR('',#41);
#116=FILL_AREA_STYLE_COLOUR('',#41);
#117=FILL_AREA_STYLE_COLOUR('',#41);
#118=FILL_AREA_STYLE_COLOUR('',#41);
#119=FILL_AREA_STYLE_COLOUR('',#41);
#120=FILL_AREA_STYLE_COLOUR('',#41);
#121=FILL_AREA_STYLE_COLOUR('',#41);
#122=FILL_AREA_STYLE_COLOUR('',#41);
#123=FILL_AREA_STYLE_COLOUR('',#41);
#124=DRAUGHTING_PRE_DEFINED_COLOUR('yellow');
#125=MANIFOLD_SOLID_BREP('',#127);
#126=MANIFOLD_SOLID_BREP('',#128);
#127=CLOSED_SHELL('',(#129,#130));
#128=CLOSED_SHELL('',(#131,#132,#133,#134,#135,#136,#137,#138,#139));
#129=ADVANCED_FACE('',(#142,#143),#140,.F.);
#130=ADVANCED_FACE('',(#144,#145),#141,.F.);
#131=ADVANCED_FACE('',(#146,#147),#53,.T.);
#132=ADVANCED_FACE('',(#148,#149),#49,.T.);
#133=ADVANCED_FACE('',(#48),#47,.F.);
#134=ADVANCED_FACE('',(#150,#151),#50,.T.);
#135=ADVANCED_FACE('',(#152,#153),#45,.F.);
#136=ADVANCED_FACE('',(#154,#155),#42,.T.);
#137=ADVANCED_FACE('',(#156,#157),#54,.T.);
#138=ADVANCED_FACE('',(#158,#159),#51,.T.);
#139=ADVANCED_FACE('',(#160,#161),#52,.F.);
#140=(
BOUNDED_SURFACE()
B_SPLINE_SURFACE(3,3,((#296,#297,#298,#299,#300,#301,#302),(#303,#304,#305,
#306,#307,#308,#309),(#310,#311,#312,#313,#314,#315,#316),(#317,#318,#319,
#320,#321,#322,#323),(#324,#325,#326,#327,#328,#329,#330),(#331,#332,#333,
#334,#335,#336,#337),(#338,#339,#340,#341,#342,#343,#344)),
 .UNSPECIFIED.,.T.,.F.,.F.)
B_SPLINE_SURFACE_WITH_KNOTS((1,3,3,3,1),(4,3,4),(-0.5,0.,0.5,1.,1.5),(0.,
0.5,1.),.UNSPECIFIED.)
GEOMETRIC_REPRESENTATION_ITEM()
RATIONAL_B_SPLINE_SURFACE(((1.,0.569733618735346,0.569733618735346,1.,0.569733618735346,
0.569733618735346,1.),(0.333333333333334,0.189911206245115,0.189911206245115,
0.333333333333334,0.189911206245115,0.189911206245115,0.333333333333334),
(0.333333333333334,0.189911206245115,0.189911206245115,0.333333333333334,
0.189911206245115,0.189911206245115,0.333333333333334),(1.,0.569733618735346,
0.569733618735346,1.,0.569733618735346,0.569733618735346,1.),(0.333333333333334,
0.189911206245115,0.189911206245115,0.333333333333334,0.189911206245115,
0.189911206245115,0.333333333333334),(0.333333333333334,0.189911206245115,
0.189911206245115,0.333333333333334,0.189911206245115,0.189911206245115,
0.333333333333334),(1.,0.569733618735346,0.569733618735346,1.,0.569733618735346,
0.569733618735346,1.)))
REPRESENTATION_ITEM('')
SURFACE()
);
#141=(
BOUNDED_SURFACE()
B_SPLINE_SURFACE(3,3,((#345,#346,#347,#348),(#349,#350,#351,#352),(#353,
#354,#355,#356),(#357,#358,#359,#360),(#361,#362,#363,#364),(#365,#366,
#367,#368),(#369,#370,#371,#372)),.UNSPECIFIED.,.T.,.F.,.F.)
B_SPLINE_SURFACE_WITH_KNOTS((1,3,3,3,1),(4,4),(-0.5,0.,0.5,1.,1.5),(0.,
1.),.UNSPECIFIED.)
GEOMETRIC_REPRESENTATION_ITEM()
RATIONAL_B_SPLINE_SURFACE(((1.,0.832344715185541,0.832344715185541,1.),
(0.333333333333334,0.277448238395181,0.277448238395181,0.333333333333334),
(0.333333333333334,0.277448238395181,0.277448238395181,0.333333333333334),
(1.,0.832344715185541,0.832344715185541,1.),(0.333333333333334,0.277448238395181,
0.277448238395181,0.333333333333334),(0.333333333333334,0.277448238395181,
0.277448238395181,0.333333333333334),(1.,0.832344715185541,0.832344715185541,
1.)))
REPRESENTATION_ITEM('')
SURFACE()
);
#142=FACE_BOUND('',#162,.T.);
#143=FACE_BOUND('',#163,.T.);
#144=FACE_BOUND('',#164,.T.);
#145=FACE_BOUND('',#165,.T.);
#146=FACE_BOUND('',#166,.T.);
#147=FACE_BOUND('',#167,.T.);
#148=FACE_BOUND('',#168,.T.);
#149=FACE_BOUND('',#169,.T.);
#150=FACE_BOUND('',#171,.T.);
#151=FACE_BOUND('',#172,.T.);
#152=FACE_BOUND('',#173,.T.);
#153=FACE_BOUND('',#46,.T.);
#154=FACE_BOUND('',#174,.T.);
#155=FACE_BOUND('',#175,.T.);
#156=FACE_BOUND('',#176,.T.);
#157=FACE_BOUND('',#177,.T.);
#158=FACE_BOUND('',#178,.T.);
#159=FACE_BOUND('',#179,.T.);
#160=FACE_BOUND('',#180,.T.);
#161=FACE_BOUND('',#181,.T.);
#162=EDGE_LOOP('',(#182));
#163=EDGE_LOOP('',(#183));
#164=EDGE_LOOP('',(#184));
#165=EDGE_LOOP('',(#185));
#166=EDGE_LOOP('',(#186));
#167=EDGE_LOOP('',(#187));
#168=EDGE_LOOP('',(#188));
#169=EDGE_LOOP('',(#189));
#170=EDGE_LOOP('',(#190));
#171=EDGE_LOOP('',(#191));
#172=EDGE_LOOP('',(#192));
#173=EDGE_LOOP('',(#193));
#174=EDGE_LOOP('',(#194));
#175=EDGE_LOOP('',(#195));
#176=EDGE_LOOP('',(#196));
#177=EDGE_LOOP('',(#197));
#178=EDGE_LOOP('',(#198));
#179=EDGE_LOOP('',(#199));
#180=EDGE_LOOP('',(#200));
#181=EDGE_LOOP('',(#201));
#182=ORIENTED_EDGE('',*,*,#213,.T.);
#183=ORIENTED_EDGE('',*,*,#214,.F.);
#184=ORIENTED_EDGE('',*,*,#214,.T.);
#185=ORIENTED_EDGE('',*,*,#213,.F.);
#186=ORIENTED_EDGE('',*,*,#215,.T.);
#187=ORIENTED_EDGE('',*,*,#216,.F.);
#188=ORIENTED_EDGE('',*,*,#215,.F.);
#189=ORIENTED_EDGE('',*,*,#217,.T.);
#190=ORIENTED_EDGE('',*,*,#217,.F.);
#191=ORIENTED_EDGE('',*,*,#218,.F.);
#192=ORIENTED_EDGE('',*,*,#216,.T.);
#193=ORIENTED_EDGE('',*,*,#219,.T.);
#194=ORIENTED_EDGE('',*,*,#219,.F.);
#195=ORIENTED_EDGE('',*,*,#220,.T.);
#196=ORIENTED_EDGE('',*,*,#220,.F.);
#197=ORIENTED_EDGE('',*,*,#221,.T.);
#198=ORIENTED_EDGE('',*,*,#221,.F.);
#199=ORIENTED_EDGE('',*,*,#222,.T.);
#200=ORIENTED_EDGE('',*,*,#222,.F.);
#201=ORIENTED_EDGE('',*,*,#218,.T.);
#202=VERTEX_POINT('',#293);
#203=VERTEX_POINT('',#295);
#204=VERTEX_POINT('',#374);
#205=VERTEX_POINT('',#376);
#206=VERTEX_POINT('',#379);
#207=VERTEX_POINT('',#383);
#208=VERTEX_POINT('',#386);
#209=VERTEX_POINT('',#387);
#210=VERTEX_POINT('',#390);
#211=VERTEX_POINT('',#459);
#212=VERTEX_POINT('',#462);
#213=EDGE_CURVE('',#202,#202,#223,.T.);
#214=EDGE_CURVE('',#203,#203,#224,.T.);
#215=EDGE_CURVE('',#204,#204,#225,.T.);
#216=EDGE_CURVE('',#205,#205,#226,.T.);
#217=EDGE_CURVE('',#206,#206,#227,.T.);
#218=EDGE_CURVE('',#207,#207,#228,.T.);
#219=EDGE_CURVE('',#208,#208,#229,.T.);
#220=EDGE_CURVE('',#210,#210,#230,.T.);
#221=EDGE_CURVE('',#211,#211,#231,.T.);
#222=EDGE_CURVE('',#212,#212,#232,.T.);
#223=CIRCLE('',#234,5.);
#224=CIRCLE('',#235,5.);
#225=CIRCLE('',#236,21.);
#226=CIRCLE('',#237,21.);
#227=CIRCLE('',#239,19.5);
#228=CIRCLE('',#242,20.9272727272727);
#229=CIRCLE('',#244,16.25637117442);
#230=CIRCLE('',#246,23.5);
#231=CIRCLE('',#247,23.5);
#232=CIRCLE('',#249,23.2);
#233=AXIS2_PLACEMENT_3D('',#291,#252,#253);
#234=AXIS2_PLACEMENT_3D('',#292,#254,#255);
#235=AXIS2_PLACEMENT_3D('',#294,#256,#257);
#236=AXIS2_PLACEMENT_3D('',#373,#258,#259);
#237=AXIS2_PLACEMENT_3D('',#375,#260,#261);
#238=AXIS2_PLACEMENT_3D('',#377,#262,#263);
#239=AXIS2_PLACEMENT_3D('',#378,#264,#265);
#240=AXIS2_PLACEMENT_3D('',#380,#266,#267);
#241=AXIS2_PLACEMENT_3D('',#381,#268,#269);
#242=AXIS2_PLACEMENT_3D('',#382,#270,#271);
#243=AXIS2_PLACEMENT_3D('',#384,#272,#273);
#244=AXIS2_PLACEMENT_3D('',#385,#274,#275);
#245=AXIS2_PLACEMENT_3D('',#388,#276,#277);
#246=AXIS2_PLACEMENT_3D('',#389,#278,#279);
#247=AXIS2_PLACEMENT_3D('',#458,#281,#282);
#248=AXIS2_PLACEMENT_3D('',#460,#283,#284);
#249=AXIS2_PLACEMENT_3D('',#461,#285,#286);
#250=AXIS2_PLACEMENT_3D('',#463,#287,#288);
#251=AXIS2_PLACEMENT_3D('',#464,#289,#290);
#252=DIRECTION('',(0.,0.,1.));
#253=DIRECTION('',(1.,0.,0.));
#254=DIRECTION('',(-0.104528463267654,0.987268424156195,0.119895200200198));
#255=DIRECTION('',(0.994521895368273,0.103766092722887,0.0126014933290668));
#256=DIRECTION('',(-0.104528463267654,0.,0.994521895368273));
#257=DIRECTION('',(0.994521895368273,0.,0.104528463267654));
#258=DIRECTION('',(-1.,0.,0.));
#259=DIRECTION('',(0.,0.,1.));
#260=DIRECTION('',(-1.,0.,0.));
#261=DIRECTION('',(0.,0.,1.));
#262=DIRECTION('',(-1.,0.,0.));
#263=DIRECTION('',(0.,0.,1.));
#264=DIRECTION('',(-1.,0.,0.));
#265=DIRECTION('',(0.,0.,1.));
#266=DIRECTION('',(-1.,0.,0.));
#267=DIRECTION('',(0.,0.,1.));
#268=DIRECTION('',(-1.,0.,0.));
#269=DIRECTION('',(0.,0.,1.));
#270=DIRECTION('',(-1.,0.,0.));
#271=DIRECTION('',(0.,0.,1.));
#272=DIRECTION('',(-1.,0.,0.));
#273=DIRECTION('',(0.,0.,1.));
#274=DIRECTION('',(-1.,0.,0.));
#275=DIRECTION('',(0.,0.,1.));
#276=DIRECTION('',(-1.,0.,0.));
#277=DIRECTION('',(-9.25603688947683E-18,0.,1.));
#278=DIRECTION('',(-1.,0.,0.));
#279=DIRECTION('',(0.,0.,1.));
#280=DIRECTION('',(-1.,0.,0.));
#281=DIRECTION('',(-1.,0.,0.));
#282=DIRECTION('',(0.,0.,1.));
#283=DIRECTION('',(-1.,0.,0.));
#284=DIRECTION('',(0.,0.,1.));
#285=DIRECTION('',(-1.,0.,0.));
#286=DIRECTION('',(0.,0.,1.));
#287=DIRECTION('',(-1.,0.,0.));
#288=DIRECTION('',(0.,0.,1.));
#289=DIRECTION('',(-1.,0.,0.));
#290=DIRECTION('',(0.,0.,1.));
#291=CARTESIAN_POINT('',(0.,0.,0.));
#292=CARTESIAN_POINT('',(4.97260947684137,0.108563689714889,20.0311731487612));
#293=CARTESIAN_POINT('',(9.94521895368274,0.627394153329322,20.0941806154065));
#294=CARTESIAN_POINT('',(4.97260947684137,-19.87198932,2.52264231633827));
#295=CARTESIAN_POINT('',(9.94521895368274,-19.87198932,3.04528463267654));
#296=CARTESIAN_POINT('',(9.94521895368274,-19.87198932,3.04528463267654));
#297=CARTESIAN_POINT('',(9.94521895368274,-23.2038338302737,-18.6966497052862));
#298=CARTESIAN_POINT('',(9.94521895368274,-4.05620880010218,-29.5216832988078));
#299=CARTESIAN_POINT('',(9.94521895368274,12.8551477758814,-15.4568720538297));
#300=CARTESIAN_POINT('',(9.94521895368274,29.7665043518649,-1.39206080885166));
#301=CARTESIAN_POINT('',(9.94521895368274,22.6124278849865,19.4077489619847));
#302=CARTESIAN_POINT('',(9.94521895368274,0.627394153329321,20.0941806154065));
#303=CARTESIAN_POINT('',(9.94521895368274,-9.87198931999999,3.04528463267654));
#304=CARTESIAN_POINT('',(9.94521895368272,-13.2038338302737,-7.755654323369));
#305=CARTESIAN_POINT('',(9.94521895368272,-4.28623569500759,-14.7010062705896));
#306=CARTESIAN_POINT('',(9.94521895368274,5.36997704809824,-8.82571686216524));
#307=CARTESIAN_POINT('',(9.94521895368272,15.0261897912041,-2.95042745374084));
#308=CARTESIAN_POINT('',(9.94521895368272,12.9567860010562,8.16168477239263));
#309=CARTESIAN_POINT('',(9.94521895368274,1.83295031814156,10.1671148689997));
#310=CARTESIAN_POINT('',(-1.38414715812049E-15,-9.87198931999999,2.));
#311=CARTESIAN_POINT('',(-1.38414715812049E-15,-12.0601883963834,-8.80093895604554));
#312=CARTESIAN_POINT('',(-1.38414715812049E-15,-2.73705310066173,-14.676961912755));
#313=CARTESIAN_POINT('',(-1.38414715812049E-15,6.06312150997225,-8.04330346869405));
#314=CARTESIAN_POINT('',(-1.38414715812049E-15,14.8632961206062,-1.40964502463314));
#315=CARTESIAN_POINT('',(-1.38414715812049E-15,11.7812521935088,9.17097418038266));
#316=CARTESIAN_POINT('',(-1.38414715812049E-15,0.795289390912698,10.041099935709));
#317=CARTESIAN_POINT('',(-2.60208521396521E-15,-19.87198932,2.));
#318=CARTESIAN_POINT('',(-2.60208521396521E-15,-22.0601883963834,-19.7419343379627));
#319=CARTESIAN_POINT('',(-2.60208521396521E-15,-2.50702620575632,-29.4976389409731));
#320=CARTESIAN_POINT('',(-2.60208521396521E-15,13.5482922377554,-14.6744586603585));
#321=CARTESIAN_POINT('',(-2.60208521396521E-15,29.6036106812671,0.148721620256035));
#322=CARTESIAN_POINT('',(-2.60208521396521E-15,21.436894077439,20.4170383699747));
#323=CARTESIAN_POINT('',(-2.60208521396521E-15,-0.410266773899547,19.9681656821158));
#324=CARTESIAN_POINT('',(-3.82002326980992E-15,-29.87198932,2.));
#325=CARTESIAN_POINT('',(-3.82002326980992E-15,-32.0601883963834,-30.6829297198799));
#326=CARTESIAN_POINT('',(-3.82002326980992E-15,-2.27699931085092,-44.3183159691912));
#327=CARTESIAN_POINT('',(-3.82002326980992E-15,21.0334629655385,-21.305613852023));
#328=CARTESIAN_POINT('',(-3.82002326980992E-15,44.3439252419278,1.70708826514521));
#329=CARTESIAN_POINT('',(-3.82002326980992E-15,31.0925359613693,31.6631025595667));
#330=CARTESIAN_POINT('',(-3.82002326980992E-15,-1.61582293871179,29.8952314285226));
#331=CARTESIAN_POINT('',(9.94521895368274,-29.87198932,3.04528463267654));
#332=CARTESIAN_POINT('',(9.94521895368272,-33.2038338302737,-29.6376450872033));
#333=CARTESIAN_POINT('',(9.94521895368272,-3.82618190519677,-44.3423603270259));
#334=CARTESIAN_POINT('',(9.94521895368274,20.3403185036645,-22.0880272454942));
#335=CARTESIAN_POINT('',(9.94521895368272,44.5068189125257,0.166305836037512));
#336=CARTESIAN_POINT('',(9.94521895368272,32.2680697689167,30.6538131515767));
#337=CARTESIAN_POINT('',(9.94521895368274,-0.578162011482919,30.0212463618132));
#338=CARTESIAN_POINT('',(9.94521895368274,-19.87198932,3.04528463267654));
#339=CARTESIAN_POINT('',(9.94521895368274,-23.2038338302737,-18.6966497052862));
#340=CARTESIAN_POINT('',(9.94521895368274,-4.05620880010218,-29.5216832988078));
#341=CARTESIAN_POINT('',(9.94521895368274,12.8551477758814,-15.4568720538297));
#342=CARTESIAN_POINT('',(9.94521895368274,29.7665043518649,-1.39206080885166));
#343=CARTESIAN_POINT('',(9.94521895368274,22.6124278849865,19.4077489619847));
#344=CARTESIAN_POINT('',(9.94521895368274,0.627394153329321,20.0941806154065));
#345=CARTESIAN_POINT('',(9.94521895368274,0.627394153329323,20.0941806154065));
#346=CARTESIAN_POINT('',(9.94521895368274,-10.0450774544143,20.4274037717236));
#347=CARTESIAN_POINT('',(9.94521895368274,-18.2545701078516,13.5997454423139));
#348=CARTESIAN_POINT('',(9.94521895368274,-19.87198932,3.04528463267654));
#349=CARTESIAN_POINT('',(9.94521895368274,1.83295031814156,10.1671148689997));
#350=CARTESIAN_POINT('',(9.94521895368273,-3.56703323176601,11.1406360392917));
#351=CARTESIAN_POINT('',(9.94521895368273,-8.2545701078516,8.28852036077922));
#352=CARTESIAN_POINT('',(9.94521895368274,-9.87198931999999,3.04528463267654));
#353=CARTESIAN_POINT('',(-1.38414715812049E-15,0.795289390912698,10.041099935709));
#354=CARTESIAN_POINT('',(-1.38414715812049E-15,-4.53776479156074,10.4634960317184));
#355=CARTESIAN_POINT('',(-1.38414715812049E-15,-8.80974430369304,7.24323572810268));
#356=CARTESIAN_POINT('',(-1.38414715812049E-15,-9.87198931999999,2.));
#357=CARTESIAN_POINT('',(-2.60208521396521E-15,-0.410266773899545,19.9681656821158));
#358=CARTESIAN_POINT('',(-2.60208521396521E-15,-11.015809014209,19.7502637641503));
#359=CARTESIAN_POINT('',(-2.60208521396521E-15,-18.8097443036931,12.5544608096374));
#360=CARTESIAN_POINT('',(-2.60208521396521E-15,-19.87198932,2.));
#361=CARTESIAN_POINT('',(-3.82002326980992E-15,-1.61582293871179,29.8952314285226));
#362=CARTESIAN_POINT('',(-3.82002326980992E-15,-17.4938532368572,29.0370314965821));
#363=CARTESIAN_POINT('',(-3.82002326980992E-15,-28.809744303693,17.8656858911721));
#364=CARTESIAN_POINT('',(-3.82002326980992E-15,-29.87198932,2.));
#365=CARTESIAN_POINT('',(9.94521895368274,-0.578162011482919,30.0212463618132));
#366=CARTESIAN_POINT('',(9.94521895368273,-16.5231216770625,29.7141715041554));
#367=CARTESIAN_POINT('',(9.94521895368273,-28.2545701078516,18.9109705238486));
#368=CARTESIAN_POINT('',(9.94521895368274,-29.87198932,3.04528463267654));
#369=CARTESIAN_POINT('',(9.94521895368274,0.627394153329323,20.0941806154065));
#370=CARTESIAN_POINT('',(9.94521895368274,-10.0450774544143,20.4274037717236));
#371=CARTESIAN_POINT('',(9.94521895368274,-18.2545701078516,13.5997454423139));
#372=CARTESIAN_POINT('',(9.94521895368274,-19.87198932,3.04528463267654));
#373=CARTESIAN_POINT('',(48.5,0.,0.));
#374=CARTESIAN_POINT('',(48.5,0.,21.));
#375=CARTESIAN_POINT('',(42.,0.,0.));
#376=CARTESIAN_POINT('',(42.,0.,21.));
#377=CARTESIAN_POINT('',(0.,0.,0.));
#378=CARTESIAN_POINT('',(50.,0.,0.));
#379=CARTESIAN_POINT('',(50.,0.,19.5));
#380=CARTESIAN_POINT('',(48.5,0.,0.));
#381=CARTESIAN_POINT('',(50.,12.,0.));
#382=CARTESIAN_POINT('',(41.1503038948693,0.,0.));
#383=CARTESIAN_POINT('',(41.1503038948693,0.,20.9272727272727));
#384=CARTESIAN_POINT('',(42.,0.,0.));
#385=CARTESIAN_POINT('',(2.99999999999982,0.,0.));
#386=CARTESIAN_POINT('',(2.99999999999982,0.,16.25637117442));
#387=CARTESIAN_POINT('',(7.35588152804658,0.,0.));
#388=CARTESIAN_POINT('',(2.99999999999982,0.,0.));
#389=CARTESIAN_POINT('',(7.92600778839233,0.,0.));
#390=CARTESIAN_POINT('',(7.92600778839233,0.,23.5));
#391=CARTESIAN_POINT('',(0.999214567606952,20.251681020379,0.));
#392=CARTESIAN_POINT('',(0.999214567606953,19.6710517551768,0.));
#393=CARTESIAN_POINT('',(1.0276871622549,19.3838379144484,0.));
#394=CARTESIAN_POINT('',(1.14097575402648,18.8155129716645,0.));
#395=CARTESIAN_POINT('',(1.22506370440792,18.5394220012498,0.));
#396=CARTESIAN_POINT('',(1.44349931544104,18.0104755875569,0.));
#397=CARTESIAN_POINT('',(1.57942416527458,17.7543864551067,0.));
#398=CARTESIAN_POINT('',(1.89888071027065,17.2729100994514,0.));
#399=CARTESIAN_POINT('',(2.07967556067655,17.050767324193,0.));
#400=CARTESIAN_POINT('',(2.4823527677826,16.6427495872457,0.));
#401=CARTESIAN_POINT('',(2.70690810312261,16.455414777697,0.));
#402=CARTESIAN_POINT('',(3.18179555311032,16.1319310786219,0.));
#403=CARTESIAN_POINT('',(3.43279706333505,15.9942634468144,0.));
#404=CARTESIAN_POINT('',(3.96222458937224,15.7676251869812,0.));
#405=CARTESIAN_POINT('',(4.24034440485144,15.6796171767817,0.));
#406=CARTESIAN_POINT('',(4.80073371181366,15.5608650818709,0.));
#407=CARTESIAN_POINT('',(5.08590017886491,15.528720232738,0.));
#408=CARTESIAN_POINT('',(5.66649470666498,15.5216032219449,0.));
#409=CARTESIAN_POINT('',(5.95230638289739,15.5467480555738,0.));
#410=CARTESIAN_POINT('',(6.51526126210141,15.6525074060202,0.));
#411=CARTESIAN_POINT('',(6.7954230979938,15.7345287302753,0.));
#412=CARTESIAN_POINT('',(7.32893691963666,15.950883620513,0.));
#413=CARTESIAN_POINT('',(7.58216123828432,16.0842764925108,0.));
#414=CARTESIAN_POINT('',(8.06166827814267,16.4012628094231,0.));
#415=CARTESIAN_POINT('',(8.28827550653351,16.5861741240682,0.));
#416=CARTESIAN_POINT('',(8.69407633878492,16.9906830891099,0.));
#417=CARTESIAN_POINT('',(8.87617015905178,17.2118701362372,0.));
#418=CARTESIAN_POINT('',(9.19769284147194,17.6930663944531,0.));
#419=CARTESIAN_POINT('',(9.33346864515378,17.9482488708229,0.));
#420=CARTESIAN_POINT('',(9.55192288011969,18.4771872710842,0.));
#421=CARTESIAN_POINT('',(9.63601818886216,18.7548116254929,0.));
#422=CARTESIAN_POINT('',(9.74810431364106,19.3215314752498,0.));
#423=CARTESIAN_POINT('',(9.77581703725416,19.6065459136684,0.));
#424=CARTESIAN_POINT('',(9.77610263291794,20.1797950001804,0.));
#425=CARTESIAN_POINT('',(9.74777250267324,20.4709374307751,0.));
#426=CARTESIAN_POINT('',(9.63666834605574,21.0345035576645,0.));
#427=CARTESIAN_POINT('',(9.55447347436462,21.3086377713298,0.));
#428=CARTESIAN_POINT('',(9.33647600694026,21.8415160170709,0.));
#429=CARTESIAN_POINT('',(9.20015502555326,22.0994773717254,0.));
#430=CARTESIAN_POINT('',(8.88485019425343,22.5775814402711,0.));
#431=CARTESIAN_POINT('',(8.70479370884935,22.8007683849214,0.));
#432=CARTESIAN_POINT('',(8.29808804592595,23.214148392116,0.));
#433=CARTESIAN_POINT('',(8.07711708911507,23.3983877412344,0.));
#434=CARTESIAN_POINT('',(7.60414432526497,23.7210672804459,0.));
#435=CARTESIAN_POINT('',(7.34887301510075,23.8610676144813,0.));
#436=CARTESIAN_POINT('',(6.81845544850034,24.087165185099,0.));
#437=CARTESIAN_POINT('',(6.5453610309729,24.1731268984769,0.));
#438=CARTESIAN_POINT('',(5.98355389433411,24.2914016209874,0.));
#439=CARTESIAN_POINT('',(5.69264292014533,24.3232305663485,0.));
#440=CARTESIAN_POINT('',(5.11906111093196,24.3291551167727,0.));
#441=CARTESIAN_POINT('',(4.83373586224645,24.3042097219338,0.));
#442=CARTESIAN_POINT('',(4.26608741944636,24.1971565742768,0.));
#443=CARTESIAN_POINT('',(3.9876764874675,24.1152390816524,0.));
#444=CARTESIAN_POINT('',(3.45697631363073,23.9005798578692,0.));
#445=CARTESIAN_POINT('',(3.20052867045738,23.7662851429014,0.));
#446=CARTESIAN_POINT('',(2.71756464403893,23.4480602888392,0.));
#447=CARTESIAN_POINT('',(2.49523164342059,23.2673907597664,0.));
#448=CARTESIAN_POINT('',(2.08786959425476,22.8640565805911,0.));
#449=CARTESIAN_POINT('',(1.90136297466675,22.6386148880193,0.));
#450=CARTESIAN_POINT('',(1.58097332869384,22.1617835970389,0.));
#451=CARTESIAN_POINT('',(1.44548600234401,21.9096741861563,0.));
#452=CARTESIAN_POINT('',(1.22421027239346,21.3779104698846,0.));
#453=CARTESIAN_POINT('',(1.13949215258595,21.0988003028768,0.));
#454=CARTESIAN_POINT('',(1.02768548168569,20.5371601792626,0.));
#455=CARTESIAN_POINT('',(0.999214567606952,20.251681020379,0.));
#456=CARTESIAN_POINT('',(0.999214567606953,19.6710517551768,0.));
#457=CARTESIAN_POINT('',(0.,0.,0.));
#458=CARTESIAN_POINT('',(13.8887485234065,0.,0.));
#459=CARTESIAN_POINT('',(13.8887485234065,0.,23.5));
#460=CARTESIAN_POINT('',(0.,0.,0.));
#461=CARTESIAN_POINT('',(15.5946207343297,0.,0.));
#462=CARTESIAN_POINT('',(15.5946207343297,0.,23.2));
#463=CARTESIAN_POINT('',(13.8887485234065,0.,0.));
#464=CARTESIAN_POINT('',(32.6533428435617,0.,0.));
#465=(
GEOMETRIC_REPRESENTATION_CONTEXT(3)
GLOBAL_UNCERTAINTY_ASSIGNED_CONTEXT((#466))
GLOBAL_UNIT_ASSIGNED_CONTEXT((#472,#468,#467))
REPRESENTATION_CONTEXT('model1','TOP_LEVEL_ASSEMBLY_PART')
);
#466=UNCERTAINTY_MEASURE_WITH_UNIT(LENGTH_MEASURE(2.E-5),#472,
'DISTANCE_ACCURACY_VALUE','Maximum Tolerance applied to model');
#467=(
NAMED_UNIT(*)
SI_UNIT($,.STERADIAN.)
SOLID_ANGLE_UNIT()
);
#468=(
CONVERSION_BASED_UNIT('DEGREE',#470)
NAMED_UNIT(#469)
PLANE_ANGLE_UNIT()
);
#469=DIMENSIONAL_EXPONENTS(0.,0.,0.,0.,0.,0.,0.);
#470=PLANE_ANGLE_MEASURE_WITH_UNIT(PLANE_ANGLE_MEASURE(0.0174532925),#471);
#471=(
NAMED_UNIT(*)
PLANE_ANGLE_UNIT()
SI_UNIT($,.RADIAN.)
);
#472=(
LENGTH_UNIT()
NAMED_UNIT(*)
SI_UNIT(.MILLI.,.METRE.)
);
ENDSEC;
END-ISO-10303-21;
