ISO-10303-21;
HEADER;
/* Generated by software containing ST-Developer
 * from STEP Tools, Inc. (www.steptools.com) 
 */
/* OPTION: using custom schema-name function */

FILE_DESCRIPTION(
/* description */ (''),
/* implementation_level */ '2;1');

FILE_NAME(
/* name */ 'model1.stp',
/* time_stamp */ '2023-11-03T12:19:44+03:00',
/* author */ (''),
/* organization */ (''),
/* preprocessor_version */ 'ST-DEVELOPER v19.4',
/* originating_system */ 'SIEMENS PLM Software NX2306.3001',
/* authorisation */ '');

FILE_SCHEMA (('AUTOMOTIVE_DESIGN { 1 0 10303 214 3 1 1 1 }'));
ENDSEC;

DATA;
#10=PROPERTY_DEFINITION_REPRESENTATION(#14,#12);
#11=PROPERTY_DEFINITION_REPRESENTATION(#15,#13);
#12=REPRESENTATION('',(#16),#430);
#13=REPRESENTATION('',(#17),#430);
#14=PROPERTY_DEFINITION('pmi validation property','',#21);
#15=PROPERTY_DEFINITION('pmi validation property','',#21);
#16=VALUE_REPRESENTATION_ITEM('number of annotations',COUNT_MEASURE(0.));
#17=VALUE_REPRESENTATION_ITEM('number of views',COUNT_MEASURE(0.));
#18=SHAPE_REPRESENTATION_RELATIONSHIP('None',
'relationship between model1_objects-None and model1_objects-None',#30,
#19);
#19=ADVANCED_BREP_SHAPE_REPRESENTATION('model1_objects-None',(#117,#118),
#430);
#20=SHAPE_DEFINITION_REPRESENTATION(#21,#30);
#21=PRODUCT_DEFINITION_SHAPE('','',#22);
#22=PRODUCT_DEFINITION(' ','',#24,#23);
#23=PRODUCT_DEFINITION_CONTEXT('part definition',#29,'design');
#24=PRODUCT_DEFINITION_FORMATION_WITH_SPECIFIED_SOURCE(' ',' ',#26,
 .NOT_KNOWN.);
#25=PRODUCT_RELATED_PRODUCT_CATEGORY('part','',(#26));
#26=PRODUCT('model1_objects','model1_objects',' ',(#27));
#27=PRODUCT_CONTEXT(' ',#29,'mechanical');
#28=APPLICATION_PROTOCOL_DEFINITION('international standard',
'automotive_design',2010,#29);
#29=APPLICATION_CONTEXT(
'core data for automotive mechanical design processes');
#30=SHAPE_REPRESENTATION('model1_objects-None',(#215),#430);
#31=OVER_RIDING_STYLED_ITEM('',(#58),#123,#55);
#32=OVER_RIDING_STYLED_ITEM('',(#59),#124,#55);
#33=OVER_RIDING_STYLED_ITEM('',(#60),#125,#55);
#34=OVER_RIDING_STYLED_ITEM('',(#61),#126,#55);
#35=OVER_RIDING_STYLED_ITEM('',(#62),#127,#55);
#36=OVER_RIDING_STYLED_ITEM('',(#63),#128,#55);
#37=OVER_RIDING_STYLED_ITEM('',(#64),#129,#55);
#38=OVER_RIDING_STYLED_ITEM('',(#65),#130,#55);
#39=COLOUR_RGB('Medium Steel',0.611764705882353,0.658823529411765,0.670588235294118);
#40=COLOUR_RGB('silver gray',0.6,0.6,0.6);
#41=VERTEX_LOOP('',#196);
#42=SURFACE_OF_REVOLUTION('',#44,#43);
#43=AXIS1_PLACEMENT('',#427,#264);
#44=B_SPLINE_CURVE_WITH_KNOTS('',3,(#369,#370,#371,#372,#373,#374,#375,
#376,#377,#378,#379,#380,#381,#382,#383,#384,#385,#386,#387,#388,#389,#390,
#391,#392,#393,#394,#395,#396,#397,#398,#399,#400,#401,#402,#403,#404,#405,
#406,#407,#408,#409,#410,#411,#412,#413,#414,#415,#416,#417,#418,#419,#420,
#421,#422,#423,#424,#425,#426),.UNSPECIFIED.,.T.,.F.,(2,2,2,2,2,2,2,2,2,
2,2,2,2,2,2,2,2,2,2,2,2,2,2,2,2,2,2,2,2,2,2),(-0.03125,0.,0.0625,0.09375,
0.125,0.15625,0.1875,0.25,0.28125,0.3125,0.34375,0.375,0.4375,0.46875,0.5,
0.53125,0.5625,0.59375,0.625,0.65625,0.6875,0.71875,0.75,0.8125,0.84375,
0.875,0.90625,0.9375,0.96875,1.,1.0625),.UNSPECIFIED.);
#45=CONICAL_SURFACE('',#229,20.9705428705985,14.9999999999988);
#46=CONICAL_SURFACE('',#231,18.9369711684862,80.0000000000002);
#47=TOROIDAL_SURFACE('',#223,19.5,1.5);
#48=TOROIDAL_SURFACE('',#225,16.,5.);
#49=TOROIDAL_SURFACE('',#227,49.9483176592706,30.);
#50=PLANE('',#222);
#51=FACE_OUTER_BOUND('',#157,.T.);
#52=CYLINDRICAL_SURFACE('',#220,21.);
#53=PRESENTATION_LAYER_ASSIGNMENT('1','Layer 1',(#117,#118));
#54=STYLED_ITEM('',(#56),#117);
#55=STYLED_ITEM('',(#57),#118);
#56=PRESENTATION_STYLE_ASSIGNMENT((#66));
#57=PRESENTATION_STYLE_ASSIGNMENT((#67));
#58=PRESENTATION_STYLE_ASSIGNMENT((#68));
#59=PRESENTATION_STYLE_ASSIGNMENT((#69));
#60=PRESENTATION_STYLE_ASSIGNMENT((#70));
#61=PRESENTATION_STYLE_ASSIGNMENT((#71));
#62=PRESENTATION_STYLE_ASSIGNMENT((#72));
#63=PRESENTATION_STYLE_ASSIGNMENT((#73));
#64=PRESENTATION_STYLE_ASSIGNMENT((#74));
#65=PRESENTATION_STYLE_ASSIGNMENT((#75));
#66=SURFACE_STYLE_USAGE(.BOTH.,#76);
#67=SURFACE_STYLE_USAGE(.BOTH.,#77);
#68=SURFACE_STYLE_USAGE(.BOTH.,#78);
#69=SURFACE_STYLE_USAGE(.BOTH.,#79);
#70=SURFACE_STYLE_USAGE(.BOTH.,#80);
#71=SURFACE_STYLE_USAGE(.BOTH.,#81);
#72=SURFACE_STYLE_USAGE(.BOTH.,#82);
#73=SURFACE_STYLE_USAGE(.BOTH.,#83);
#74=SURFACE_STYLE_USAGE(.BOTH.,#84);
#75=SURFACE_STYLE_USAGE(.BOTH.,#85);
#76=SURFACE_SIDE_STYLE('',(#86));
#77=SURFACE_SIDE_STYLE('',(#87));
#78=SURFACE_SIDE_STYLE('',(#88));
#79=SURFACE_SIDE_STYLE('',(#89));
#80=SURFACE_SIDE_STYLE('',(#90));
#81=SURFACE_SIDE_STYLE('',(#91));
#82=SURFACE_SIDE_STYLE('',(#92));
#83=SURFACE_SIDE_STYLE('',(#93));
#84=SURFACE_SIDE_STYLE('',(#94));
#85=SURFACE_SIDE_STYLE('',(#95));
#86=SURFACE_STYLE_FILL_AREA(#96);
#87=SURFACE_STYLE_FILL_AREA(#97);
#88=SURFACE_STYLE_FILL_AREA(#98);
#89=SURFACE_STYLE_FILL_AREA(#99);
#90=SURFACE_STYLE_FILL_AREA(#100);
#91=SURFACE_STYLE_FILL_AREA(#101);
#92=SURFACE_STYLE_FILL_AREA(#102);
#93=SURFACE_STYLE_FILL_AREA(#103);
#94=SURFACE_STYLE_FILL_AREA(#104);
#95=SURFACE_STYLE_FILL_AREA(#105);
#96=FILL_AREA_STYLE('',(#106));
#97=FILL_AREA_STYLE('',(#107));
#98=FILL_AREA_STYLE('',(#108));
#99=FILL_AREA_STYLE('',(#109));
#100=FILL_AREA_STYLE('',(#110));
#101=FILL_AREA_STYLE('',(#111));
#102=FILL_AREA_STYLE('',(#112));
#103=FILL_AREA_STYLE('',(#113));
#104=FILL_AREA_STYLE('',(#114));
#105=FILL_AREA_STYLE('',(#115));
#106=FILL_AREA_STYLE_COLOUR('',#116);
#107=FILL_AREA_STYLE_COLOUR('',#39);
#108=FILL_AREA_STYLE_COLOUR('',#40);
#109=FILL_AREA_STYLE_COLOUR('',#40);
#110=FILL_AREA_STYLE_COLOUR('',#40);
#111=FILL_AREA_STYLE_COLOUR('',#40);
#112=FILL_AREA_STYLE_COLOUR('',#40);
#113=FILL_AREA_STYLE_COLOUR('',#40);
#114=FILL_AREA_STYLE_COLOUR('',#40);
#115=FILL_AREA_STYLE_COLOUR('',#40);
#116=DRAUGHTING_PRE_DEFINED_COLOUR('yellow');
#117=MANIFOLD_SOLID_BREP('',#119);
#118=MANIFOLD_SOLID_BREP('',#120);
#119=CLOSED_SHELL('',(#121,#122));
#120=CLOSED_SHELL('',(#123,#124,#125,#126,#127,#128,#129,#130));
#121=ADVANCED_FACE('',(#133,#134),#131,.F.);
#122=ADVANCED_FACE('',(#135,#136),#132,.F.);
#123=ADVANCED_FACE('',(#137,#138),#52,.T.);
#124=ADVANCED_FACE('',(#51),#50,.F.);
#125=ADVANCED_FACE('',(#139,#140),#47,.T.);
#126=ADVANCED_FACE('',(#141,#142),#48,.T.);
#127=ADVANCED_FACE('',(#143,#144),#49,.F.);
#128=ADVANCED_FACE('',(#145,#146),#45,.T.);
#129=ADVANCED_FACE('',(#147,#148),#42,.T.);
#130=ADVANCED_FACE('',(#149,#150),#46,.F.);
#131=(
BOUNDED_SURFACE()
B_SPLINE_SURFACE(3,3,((#272,#273,#274,#275,#276,#277,#278),(#279,#280,#281,
#282,#283,#284,#285),(#286,#287,#288,#289,#290,#291,#292),(#293,#294,#295,
#296,#297,#298,#299),(#300,#301,#302,#303,#304,#305,#306),(#307,#308,#309,
#310,#311,#312,#313),(#314,#315,#316,#317,#318,#319,#320)),
 .UNSPECIFIED.,.T.,.F.,.F.)
B_SPLINE_SURFACE_WITH_KNOTS((1,3,3,3,1),(4,3,4),(-0.5,0.,0.5,1.,1.5),(0.,
0.5,1.),.UNSPECIFIED.)
GEOMETRIC_REPRESENTATION_ITEM()
RATIONAL_B_SPLINE_SURFACE(((1.,0.593008107138703,0.593008107138703,1.,0.593008107138703,
0.593008107138703,1.),(0.333333333333334,0.197669369046234,0.197669369046234,
0.333333333333334,0.197669369046234,0.197669369046234,0.333333333333334),
(0.333333333333334,0.197669369046234,0.197669369046234,0.333333333333334,
0.197669369046234,0.197669369046234,0.333333333333334),(1.,0.593008107138703,
0.593008107138703,1.,0.593008107138703,0.593008107138703,1.),(0.333333333333334,
0.197669369046234,0.197669369046234,0.333333333333334,0.197669369046234,
0.197669369046234,0.333333333333334),(0.333333333333334,0.197669369046234,
0.197669369046234,0.333333333333334,0.197669369046234,0.197669369046234,
0.333333333333334),(1.,0.593008107138703,0.593008107138703,1.,0.593008107138703,
0.593008107138703,1.)))
REPRESENTATION_ITEM('')
SURFACE()
);
#132=(
BOUNDED_SURFACE()
B_SPLINE_SURFACE(3,3,((#321,#322,#323,#324),(#325,#326,#327,#328),(#329,
#330,#331,#332),(#333,#334,#335,#336),(#337,#338,#339,#340),(#341,#342,
#343,#344),(#345,#346,#347,#348)),.UNSPECIFIED.,.T.,.F.,.F.)
B_SPLINE_SURFACE_WITH_KNOTS((1,3,3,3,1),(4,4),(-0.5,0.,0.5,1.,1.5),(0.,
1.),.UNSPECIFIED.)
GEOMETRIC_REPRESENTATION_ITEM()
RATIONAL_B_SPLINE_SURFACE(((1.,0.79770703554739,0.79770703554739,1.),(0.333333333333334,
0.265902345182463,0.265902345182463,0.333333333333334),(0.333333333333334,
0.265902345182463,0.265902345182463,0.333333333333334),(1.,0.79770703554739,
0.79770703554739,1.),(0.333333333333334,0.265902345182463,0.265902345182463,
0.333333333333334),(0.333333333333334,0.265902345182463,0.265902345182463,
0.333333333333334),(1.,0.79770703554739,0.79770703554739,1.)))
REPRESENTATION_ITEM('')
SURFACE()
);
#133=FACE_BOUND('',#151,.T.);
#134=FACE_BOUND('',#152,.T.);
#135=FACE_BOUND('',#153,.T.);
#136=FACE_BOUND('',#154,.T.);
#137=FACE_BOUND('',#155,.T.);
#138=FACE_BOUND('',#156,.T.);
#139=FACE_BOUND('',#158,.T.);
#140=FACE_BOUND('',#159,.T.);
#141=FACE_BOUND('',#160,.T.);
#142=FACE_BOUND('',#161,.T.);
#143=FACE_BOUND('',#162,.T.);
#144=FACE_BOUND('',#163,.T.);
#145=FACE_BOUND('',#164,.T.);
#146=FACE_BOUND('',#165,.T.);
#147=FACE_BOUND('',#166,.T.);
#148=FACE_BOUND('',#167,.T.);
#149=FACE_BOUND('',#168,.T.);
#150=FACE_BOUND('',#41,.T.);
#151=EDGE_LOOP('',(#169));
#152=EDGE_LOOP('',(#170));
#153=EDGE_LOOP('',(#171));
#154=EDGE_LOOP('',(#172));
#155=EDGE_LOOP('',(#173));
#156=EDGE_LOOP('',(#174));
#157=EDGE_LOOP('',(#175));
#158=EDGE_LOOP('',(#176));
#159=EDGE_LOOP('',(#177));
#160=EDGE_LOOP('',(#178));
#161=EDGE_LOOP('',(#179));
#162=EDGE_LOOP('',(#180));
#163=EDGE_LOOP('',(#181));
#164=EDGE_LOOP('',(#182));
#165=EDGE_LOOP('',(#183));
#166=EDGE_LOOP('',(#184));
#167=EDGE_LOOP('',(#185));
#168=EDGE_LOOP('',(#186));
#169=ORIENTED_EDGE('',*,*,#197,.T.);
#170=ORIENTED_EDGE('',*,*,#198,.F.);
#171=ORIENTED_EDGE('',*,*,#198,.T.);
#172=ORIENTED_EDGE('',*,*,#197,.F.);
#173=ORIENTED_EDGE('',*,*,#199,.T.);
#174=ORIENTED_EDGE('',*,*,#200,.F.);
#175=ORIENTED_EDGE('',*,*,#201,.F.);
#176=ORIENTED_EDGE('',*,*,#199,.F.);
#177=ORIENTED_EDGE('',*,*,#201,.T.);
#178=ORIENTED_EDGE('',*,*,#202,.F.);
#179=ORIENTED_EDGE('',*,*,#200,.T.);
#180=ORIENTED_EDGE('',*,*,#203,.F.);
#181=ORIENTED_EDGE('',*,*,#202,.T.);
#182=ORIENTED_EDGE('',*,*,#204,.F.);
#183=ORIENTED_EDGE('',*,*,#203,.T.);
#184=ORIENTED_EDGE('',*,*,#205,.F.);
#185=ORIENTED_EDGE('',*,*,#204,.T.);
#186=ORIENTED_EDGE('',*,*,#205,.T.);
#187=VERTEX_POINT('',#269);
#188=VERTEX_POINT('',#271);
#189=VERTEX_POINT('',#350);
#190=VERTEX_POINT('',#352);
#191=VERTEX_POINT('',#355);
#192=VERTEX_POINT('',#359);
#193=VERTEX_POINT('',#362);
#194=VERTEX_POINT('',#365);
#195=VERTEX_POINT('',#368);
#196=VERTEX_POINT('',#428);
#197=EDGE_CURVE('',#187,#187,#206,.T.);
#198=EDGE_CURVE('',#188,#188,#207,.T.);
#199=EDGE_CURVE('',#189,#189,#208,.T.);
#200=EDGE_CURVE('',#190,#190,#209,.T.);
#201=EDGE_CURVE('',#191,#191,#210,.T.);
#202=EDGE_CURVE('',#192,#192,#211,.T.);
#203=EDGE_CURVE('',#193,#193,#212,.T.);
#204=EDGE_CURVE('',#194,#194,#213,.T.);
#205=EDGE_CURVE('',#195,#195,#214,.T.);
#206=CIRCLE('',#216,3.5);
#207=CIRCLE('',#217,3.5);
#208=CIRCLE('',#218,21.);
#209=CIRCLE('',#219,21.);
#210=CIRCLE('',#221,19.5);
#211=CIRCLE('',#224,20.8497596656101);
#212=CIRCLE('',#226,20.9705428705985);
#213=CIRCLE('',#228,24.0109408737425);
#214=CIRCLE('',#230,18.9369711684862);
#215=AXIS2_PLACEMENT_3D('',#267,#232,#233);
#216=AXIS2_PLACEMENT_3D('',#268,#234,#235);
#217=AXIS2_PLACEMENT_3D('',#270,#236,#237);
#218=AXIS2_PLACEMENT_3D('',#349,#238,#239);
#219=AXIS2_PLACEMENT_3D('',#351,#240,#241);
#220=AXIS2_PLACEMENT_3D('',#353,#242,#243);
#221=AXIS2_PLACEMENT_3D('',#354,#244,#245);
#222=AXIS2_PLACEMENT_3D('',#356,#246,#247);
#223=AXIS2_PLACEMENT_3D('',#357,#248,#249);
#224=AXIS2_PLACEMENT_3D('',#358,#250,#251);
#225=AXIS2_PLACEMENT_3D('',#360,#252,#253);
#226=AXIS2_PLACEMENT_3D('',#361,#254,#255);
#227=AXIS2_PLACEMENT_3D('',#363,#256,#257);
#228=AXIS2_PLACEMENT_3D('',#364,#258,#259);
#229=AXIS2_PLACEMENT_3D('',#366,#260,#261);
#230=AXIS2_PLACEMENT_3D('',#367,#262,#263);
#231=AXIS2_PLACEMENT_3D('',#429,#265,#266);
#232=DIRECTION('',(0.,0.,1.));
#233=DIRECTION('',(1.,0.,0.));
#234=DIRECTION('',(0.121869343405148,0.991744180647687,0.0398916443562487));
#235=DIRECTION('',(0.992510112580906,-0.122108946829411,0.0036168396216975));
#236=DIRECTION('',(0.121869343405148,-0.0692365195668007,0.990128359101119));
#237=DIRECTION('',(0.992510112580906,0.,-0.122162500075257));
#238=DIRECTION('',(-1.,0.,0.));
#239=DIRECTION('',(0.,0.,1.));
#240=DIRECTION('',(-1.,0.,0.));
#241=DIRECTION('',(0.,0.,1.));
#242=DIRECTION('',(-1.,0.,0.));
#243=DIRECTION('',(0.,0.,1.));
#244=DIRECTION('',(-1.,0.,0.));
#245=DIRECTION('',(0.,0.,1.));
#246=DIRECTION('',(-1.,0.,0.));
#247=DIRECTION('',(0.,0.,1.));
#248=DIRECTION('',(-1.,0.,0.));
#249=DIRECTION('',(0.,0.,1.));
#250=DIRECTION('',(-1.,0.,0.));
#251=DIRECTION('',(0.,0.,1.));
#252=DIRECTION('',(-1.,0.,0.));
#253=DIRECTION('',(0.,0.,1.));
#254=DIRECTION('',(-1.,0.,0.));
#255=DIRECTION('',(0.,0.,1.));
#256=DIRECTION('',(-1.,0.,0.));
#257=DIRECTION('',(0.,0.,1.));
#258=DIRECTION('',(-1.,0.,0.));
#259=DIRECTION('',(0.,0.,1.));
#260=DIRECTION('',(-1.,0.,0.));
#261=DIRECTION('',(-8.40583930284823E-17,0.,1.));
#262=DIRECTION('',(-1.,0.,0.));
#263=DIRECTION('',(0.,0.,1.));
#264=DIRECTION('',(-1.,0.,0.));
#265=DIRECTION('',(-1.,0.,0.));
#266=DIRECTION('',(-3.58211197005852E-18,0.,1.));
#267=CARTESIAN_POINT('',(0.,0.,0.));
#268=CARTESIAN_POINT('',(3.47391153074462,0.211289076703615,21.5052051837245));
#269=CARTESIAN_POINT('',(6.9476969247778,-0.216092237199324,21.5178641224004));
#270=CARTESIAN_POINT('',(3.47391153074462,-21.5020333852129,-0.425503665334105));
#271=CARTESIAN_POINT('',(6.9476969247778,-21.5020333852129,-0.853072415597504));
#272=CARTESIAN_POINT('',(6.9476969247778,-21.5020333852129,-0.853072415597504));
#273=CARTESIAN_POINT('',(6.9476969247778,-20.6187426117051,-23.1167716673336));
#274=CARTESIAN_POINT('',(6.9476969247778,0.230651616538213,-30.9752236317863));
#275=CARTESIAN_POINT('',(6.9476969247778,15.5895460336247,-14.833449589039));
#276=CARTESIAN_POINT('',(6.9476969247778,30.9484404507111,1.30832445370821));
#277=CARTESIAN_POINT('',(6.9476969247778,22.0639985234402,21.7416109882642));
#278=CARTESIAN_POINT('',(6.9476969247778,-0.216092237199324,21.5178641224004));
#279=CARTESIAN_POINT('',(7.00690366906533,-14.5188314753756,-0.372046794787815));
#280=CARTESIAN_POINT('',(7.00690366906532,-14.1336056784319,-15.4051783904581));
#281=CARTESIAN_POINT('',(7.00690366906531,-0.137720801030036,-20.9059647875003));
#282=CARTESIAN_POINT('',(7.00690366906533,10.3801881212623,-10.1580795820408));
#283=CARTESIAN_POINT('',(7.00690366906532,20.8980970435546,0.589805623418685));
#284=CARTESIAN_POINT('',(7.00690366906531,15.0959190270579,14.4634559993022));
#285=CARTESIAN_POINT('',(7.00690366906533,0.0579723127287933,14.5234818634798));
#286=CARTESIAN_POINT('',(0.0593328809989849,-14.5188314753756,0.483090705738981));
#287=CARTESIAN_POINT('',(0.0593328809989849,-15.0190346883089,-14.5500408899313));
#288=CARTESIAN_POINT('',(0.0593328809989849,-1.36803517769773,-20.8663262847076));
#289=CARTESIAN_POINT('',(0.0593328809989849,9.766628665641,-10.7537346325734));
#290=CARTESIAN_POINT('',(0.0593328809989849,20.9012925089797,-0.641142980439162));
#291=CARTESIAN_POINT('',(0.0593328809989849,15.924466943122,13.5530972638992));
#292=CARTESIAN_POINT('',(0.0593328809989849,0.912734940534673,14.4981639861279));
#293=CARTESIAN_POINT('',(0.000126136711455557,-21.5020333852129,0.00206508492929243));
#294=CARTESIAN_POINT('',(0.000126136711455557,-21.5041716215821,-22.2616341668068));
#295=CARTESIAN_POINT('',(0.000126136711455556,-0.999662760129483,-30.9355851289935));
#296=CARTESIAN_POINT('',(0.000126136711455557,14.9759865780034,-15.4291046395716));
#297=CARTESIAN_POINT('',(0.000126136711455556,30.9516359161362,0.0773758498503664));
#298=CARTESIAN_POINT('',(0.000126136711455556,22.8925464395043,20.8312522528612));
#299=CARTESIAN_POINT('',(0.000126136711455556,0.638670390606552,21.4925462450485));
#300=CARTESIAN_POINT('',(-0.0590806075760739,-28.4852352950502,-0.478960535880396));
#301=CARTESIAN_POINT('',(-0.0590806075760739,-27.9893085548552,-29.9732274436822));
#302=CARTESIAN_POINT('',(-0.0590806075760739,-0.631290342561228,-41.0048439732794));
#303=CARTESIAN_POINT('',(-0.0590806075760739,20.1853444903658,-20.1044746465698));
#304=CARTESIAN_POINT('',(-0.0590806075760739,41.0019793232927,0.795894680139894));
#305=CARTESIAN_POINT('',(-0.0590806075760739,29.8606259358865,28.1094072418231));
#306=CARTESIAN_POINT('',(-0.0590806075760739,0.364605840678432,28.4869285039691));
#307=CARTESIAN_POINT('',(6.88849018049026,-28.4852352950502,-1.33409803640719));
#308=CARTESIAN_POINT('',(6.88849018049026,-27.1038795449783,-30.828364944209));
#309=CARTESIAN_POINT('',(6.88849018049026,0.599024034106464,-41.0444824760721));
#310=CARTESIAN_POINT('',(6.88849018049026,20.798903945987,-19.5088195960372));
#311=CARTESIAN_POINT('',(6.88849018049026,40.9987838578676,2.02684328399774));
#312=CARTESIAN_POINT('',(6.88849018049026,29.0320780198224,29.0197659772262));
#313=CARTESIAN_POINT('',(6.88849018049026,-0.490156787127445,28.512246381321));
#314=CARTESIAN_POINT('',(6.9476969247778,-21.5020333852129,-0.853072415597504));
#315=CARTESIAN_POINT('',(6.9476969247778,-20.6187426117051,-23.1167716673336));
#316=CARTESIAN_POINT('',(6.9476969247778,0.230651616538213,-30.9752236317863));
#317=CARTESIAN_POINT('',(6.9476969247778,15.5895460336247,-14.833449589039));
#318=CARTESIAN_POINT('',(6.9476969247778,30.9484404507111,1.30832445370821));
#319=CARTESIAN_POINT('',(6.9476969247778,22.0639985234402,21.7416109882642));
#320=CARTESIAN_POINT('',(6.9476969247778,-0.216092237199324,21.5178641224004));
#321=CARTESIAN_POINT('',(6.9476969247778,-0.216092237199324,21.5178641224004));
#322=CARTESIAN_POINT('',(6.9476969247778,-13.1189283389422,21.388287938464));
#323=CARTESIAN_POINT('',(6.9476969247778,-22.0135643391571,12.04027104291));
#324=CARTESIAN_POINT('',(6.9476969247778,-21.5020333852129,-0.853072415597502));
#325=CARTESIAN_POINT('',(7.00690366906533,0.0579723127287946,14.5234818634798));
#326=CARTESIAN_POINT('',(7.00690366906533,-8.65079659877458,14.5582440148403));
#327=CARTESIAN_POINT('',(7.00690366906533,-14.7419232649705,8.33393358737192));
#328=CARTESIAN_POINT('',(7.00690366906533,-14.5188314753756,-0.372046794787815));
#329=CARTESIAN_POINT('',(0.0593328809989849,0.912734940534673,14.4981639861279));
#330=CARTESIAN_POINT('',(0.0593328809989849,-7.78085251894087,15.0454705996032));
#331=CARTESIAN_POINT('',(0.0593328809989849,-14.2291540165456,9.18907108789872));
#332=CARTESIAN_POINT('',(0.0593328809989849,-14.5188314753756,0.483090705738982));
#333=CARTESIAN_POINT('',(0.000126136711455557,0.638670390606554,21.4925462450485));
#334=CARTESIAN_POINT('',(0.000126136711455557,-12.2489842591085,21.8755145232269));
#335=CARTESIAN_POINT('',(0.000126136711455557,-21.5007950907323,12.8954085434368));
#336=CARTESIAN_POINT('',(0.000126136711455557,-21.5020333852129,0.00206508492929395));
#337=CARTESIAN_POINT('',(-0.0590806075760739,0.364605840678435,28.4869285039691));
#338=CARTESIAN_POINT('',(-0.0590806075760738,-16.7171159992761,28.7055584468506));
#339=CARTESIAN_POINT('',(-0.0590806075760738,-28.7724361649188,16.601745998975));
#340=CARTESIAN_POINT('',(-0.0590806075760739,-28.4852352950502,-0.478960535880393));
#341=CARTESIAN_POINT('',(6.88849018049026,-0.490156787127444,28.512246381321));
#342=CARTESIAN_POINT('',(6.88849018049027,-17.5870600791098,28.2183318620877));
#343=CARTESIAN_POINT('',(6.88849018049027,-29.2852054133437,15.7466084984482));
#344=CARTESIAN_POINT('',(6.88849018049026,-28.4852352950502,-1.33409803640719));
#345=CARTESIAN_POINT('',(6.9476969247778,-0.216092237199324,21.5178641224004));
#346=CARTESIAN_POINT('',(6.9476969247778,-13.1189283389422,21.388287938464));
#347=CARTESIAN_POINT('',(6.9476969247778,-22.0135643391571,12.04027104291));
#348=CARTESIAN_POINT('',(6.9476969247778,-21.5020333852129,-0.853072415597502));
#349=CARTESIAN_POINT('',(38.5,0.,0.));
#350=CARTESIAN_POINT('',(38.5,0.,21.));
#351=CARTESIAN_POINT('',(32.,0.,0.));
#352=CARTESIAN_POINT('',(32.,0.,21.));
#353=CARTESIAN_POINT('',(0.,0.,0.));
#354=CARTESIAN_POINT('',(40.,0.,0.));
#355=CARTESIAN_POINT('',(40.,0.,19.5));
#356=CARTESIAN_POINT('',(40.,12.,0.));
#357=CARTESIAN_POINT('',(38.5,0.,0.));
#358=CARTESIAN_POINT('',(30.7835168781189,0.,0.));
#359=CARTESIAN_POINT('',(30.7835168781189,0.,20.8497596656101));
#360=CARTESIAN_POINT('',(32.,0.,0.));
#361=CARTESIAN_POINT('',(15.7200467937569,0.,0.));
#362=CARTESIAN_POINT('',(15.7200467937569,0.,20.9705428705985));
#363=CARTESIAN_POINT('',(23.4846181468323,0.,0.));
#364=CARTESIAN_POINT('',(4.37312697079141,0.,0.));
#365=CARTESIAN_POINT('',(4.37312697079141,0.,24.0109408737425));
#366=CARTESIAN_POINT('',(15.7200467937569,0.,0.));
#367=CARTESIAN_POINT('',(2.2,0.,0.));
#368=CARTESIAN_POINT('',(2.2,0.,18.9369711684862));
#369=CARTESIAN_POINT('',(0.440732945218491,21.6584486896908,0.));
#370=CARTESIAN_POINT('',(0.44534634321975,21.113586625739,0.));
#371=CARTESIAN_POINT('',(0.520619510766804,20.7532744887435,0.));
#372=CARTESIAN_POINT('',(0.729962047928812,20.2582648510393,0.));
#373=CARTESIAN_POINT('',(0.81695644207905,20.09817553049,0.));
#374=CARTESIAN_POINT('',(1.01987883016671,19.7998873799169,0.));
#375=CARTESIAN_POINT('',(1.13477725747427,19.6624322579375,0.));
#376=CARTESIAN_POINT('',(1.39128115490187,19.4107542798987,0.));
#377=CARTESIAN_POINT('',(1.53411079633816,19.2961586153056,0.));
#378=CARTESIAN_POINT('',(1.83493309965753,19.100635950268,0.));
#379=CARTESIAN_POINT('',(1.99410224613176,19.0182362033629,0.));
#380=CARTESIAN_POINT('',(2.49857358037415,18.8183318272274,0.));
#381=CARTESIAN_POINT('',(2.85727487215265,18.7540692105966,0.));
#382=CARTESIAN_POINT('',(3.39959630111945,18.765602852304,0.));
#383=CARTESIAN_POINT('',(3.57745555172402,18.7872239566556,0.));
#384=CARTESIAN_POINT('',(3.92752786974412,18.8649035180383,0.));
#385=CARTESIAN_POINT('',(4.10145231382239,18.9219324787112,0.));
#386=CARTESIAN_POINT('',(4.43035470008622,19.0668865334766,0.));
#387=CARTESIAN_POINT('',(4.58639016088327,19.1546527291876,0.));
#388=CARTESIAN_POINT('',(4.88164093679373,19.3607428936506,0.));
#389=CARTESIAN_POINT('',(5.02048586267457,19.4794218539612,0.));
#390=CARTESIAN_POINT('',(5.39350660777315,19.8664398224429,0.));
#391=CARTESIAN_POINT('',(5.59368958765382,20.1763092688572,0.));
#392=CARTESIAN_POINT('',(5.79316317861308,20.6751828874578,0.));
#393=CARTESIAN_POINT('',(5.84414402039637,20.8496863715077,0.));
#394=CARTESIAN_POINT('',(5.91100423114641,21.2045882334487,0.));
#395=CARTESIAN_POINT('',(5.92689075068785,21.3830649638079,0.));
#396=CARTESIAN_POINT('',(5.92404268146392,21.7420427718899,0.));
#397=CARTESIAN_POINT('',(5.90472204327124,21.9241147563281,0.));
#398=CARTESIAN_POINT('',(5.83193144639565,22.2758080715214,0.));
#399=CARTESIAN_POINT('',(5.77874699214362,22.4468960666448,0.));
#400=CARTESIAN_POINT('',(5.63811361416105,22.7793602496464,0.));
#401=CARTESIAN_POINT('',(5.55091347677403,22.9391123075405,0.));
#402=CARTESIAN_POINT('',(5.34922328659457,23.2351733562713,0.));
#403=CARTESIAN_POINT('',(5.23343840045438,23.3737886473355,0.));
#404=CARTESIAN_POINT('',(4.97442734471474,23.6272103258065,0.));
#405=CARTESIAN_POINT('',(4.83435399413695,23.7391827041386,0.));
#406=CARTESIAN_POINT('',(4.53370808123851,23.9345381440467,0.));
#407=CARTESIAN_POINT('',(4.37116189112448,24.0185256769986,0.));
#408=CARTESIAN_POINT('',(4.0367354785772,24.1509448521325,0.));
#409=CARTESIAN_POINT('',(3.86455330094905,24.2001054135063,0.));
#410=CARTESIAN_POINT('',(3.51023599057682,24.2642769748325,0.));
#411=CARTESIAN_POINT('',(3.3280940845101,24.2787540612722,0.));
#412=CARTESIAN_POINT('',(2.79071448932558,24.26838623137,0.));
#413=CARTESIAN_POINT('',(2.43021172981679,24.1889269841905,0.));
#414=CARTESIAN_POINT('',(1.93817363496412,23.9734264010819,0.));
#415=CARTESIAN_POINT('',(1.77937192734921,23.8845480731772,0.));
#416=CARTESIAN_POINT('',(1.48328120996392,23.6781372989348,0.));
#417=CARTESIAN_POINT('',(1.3470695683577,23.561844551432,0.));
#418=CARTESIAN_POINT('',(1.09782737146552,23.3036222063565,0.));
#419=CARTESIAN_POINT('',(0.984100418224756,23.1601452408824,0.));
#420=CARTESIAN_POINT('',(0.789430631503239,22.8583777468371,0.));
#421=CARTESIAN_POINT('',(0.707268605429807,22.6992519236264,0.));
#422=CARTESIAN_POINT('',(0.573631555251843,22.3643307444516,0.));
#423=CARTESIAN_POINT('',(0.522921715349197,22.1892713614636,0.));
#424=CARTESIAN_POINT('',(0.456862901668826,21.8372117929196,0.));
#425=CARTESIAN_POINT('',(0.440732945218491,21.6584486896908,0.));
#426=CARTESIAN_POINT('',(0.44534634321975,21.113586625739,0.));
#427=CARTESIAN_POINT('',(0.,0.,0.));
#428=CARTESIAN_POINT('',(5.53909894990236,0.,0.));
#429=CARTESIAN_POINT('',(2.2,0.,0.));
#430=(
GEOMETRIC_REPRESENTATION_CONTEXT(3)
GLOBAL_UNCERTAINTY_ASSIGNED_CONTEXT((#431))
GLOBAL_UNIT_ASSIGNED_CONTEXT((#437,#433,#432))
REPRESENTATION_CONTEXT('model1','TOP_LEVEL_ASSEMBLY_PART')
);
#431=UNCERTAINTY_MEASURE_WITH_UNIT(LENGTH_MEASURE(2.E-5),#437,
'DISTANCE_ACCURACY_VALUE','Maximum Tolerance applied to model');
#432=(
NAMED_UNIT(*)
SI_UNIT($,.STERADIAN.)
SOLID_ANGLE_UNIT()
);
#433=(
CONVERSION_BASED_UNIT('DEGREE',#435)
NAMED_UNIT(#434)
PLANE_ANGLE_UNIT()
);
#434=DIMENSIONAL_EXPONENTS(0.,0.,0.,0.,0.,0.,0.);
#435=PLANE_ANGLE_MEASURE_WITH_UNIT(PLANE_ANGLE_MEASURE(0.0174532925),#436);
#436=(
NAMED_UNIT(*)
PLANE_ANGLE_UNIT()
SI_UNIT($,.RADIAN.)
);
#437=(
LENGTH_UNIT()
NAMED_UNIT(*)
SI_UNIT(.MILLI.,.METRE.)
);
ENDSEC;
END-ISO-10303-21;
