ISO-10303-21;
HEADER;
/* Generated by software containing ST-Developer
 * from STEP Tools, Inc. (www.steptools.com) 
 */
/* OPTION: using custom schema-name function */

FILE_DESCRIPTION(
/* description */ (''),
/* implementation_level */ '2;1');

FILE_NAME(
/* name */ 'model1.stp',
/* time_stamp */ '2023-11-06T15:18:46+03:00',
/* author */ (''),
/* organization */ (''),
/* preprocessor_version */ 'ST-DEVELOPER v19.4',
/* originating_system */ 'SIEMENS PLM Software NX2306.3001',
/* authorisation */ '');

FILE_SCHEMA (('AUTOMOTIVE_DESIGN { 1 0 10303 214 3 1 1 1 }'));
ENDSEC;

DATA;
#10=PROPERTY_DEFINITION_REPRESENTATION(#14,#12);
#11=PROPERTY_DEFINITION_REPRESENTATION(#15,#13);
#12=REPRESENTATION('',(#16),#463);
#13=REPRESENTATION('',(#17),#463);
#14=PROPERTY_DEFINITION('pmi validation property','',#21);
#15=PROPERTY_DEFINITION('pmi validation property','',#21);
#16=VALUE_REPRESENTATION_ITEM('number of annotations',COUNT_MEASURE(0.));
#17=VALUE_REPRESENTATION_ITEM('number of views',COUNT_MEASURE(0.));
#18=SHAPE_REPRESENTATION_RELATIONSHIP('None',
'relationship between model1_objects-None and model1_objects-None',#30,
#19);
#19=ADVANCED_BREP_SHAPE_REPRESENTATION('model1_objects-None',(#125,#126),
#463);
#20=SHAPE_DEFINITION_REPRESENTATION(#21,#30);
#21=PRODUCT_DEFINITION_SHAPE('','',#22);
#22=PRODUCT_DEFINITION(' ','',#24,#23);
#23=PRODUCT_DEFINITION_CONTEXT('part definition',#29,'design');
#24=PRODUCT_DEFINITION_FORMATION_WITH_SPECIFIED_SOURCE(' ',' ',#26,
 .NOT_KNOWN.);
#25=PRODUCT_RELATED_PRODUCT_CATEGORY('part','',(#26));
#26=PRODUCT('model1_objects','model1_objects',' ',(#27));
#27=PRODUCT_CONTEXT(' ',#29,'mechanical');
#28=APPLICATION_PROTOCOL_DEFINITION('international standard',
'automotive_design',2010,#29);
#29=APPLICATION_CONTEXT(
'core data for automotive mechanical design processes');
#30=SHAPE_REPRESENTATION('model1_objects-None',(#233),#463);
#31=OVER_RIDING_STYLED_ITEM('',(#60),#131,#57);
#32=OVER_RIDING_STYLED_ITEM('',(#61),#132,#57);
#33=OVER_RIDING_STYLED_ITEM('',(#62),#133,#57);
#34=OVER_RIDING_STYLED_ITEM('',(#63),#134,#57);
#35=OVER_RIDING_STYLED_ITEM('',(#64),#135,#57);
#36=OVER_RIDING_STYLED_ITEM('',(#65),#136,#57);
#37=OVER_RIDING_STYLED_ITEM('',(#66),#137,#57);
#38=OVER_RIDING_STYLED_ITEM('',(#67),#138,#57);
#39=OVER_RIDING_STYLED_ITEM('',(#68),#139,#57);
#40=COLOUR_RGB('Medium Steel',0.611764705882353,0.658823529411765,0.670588235294118);
#41=COLOUR_RGB('silver gray',0.6,0.6,0.6);
#42=SURFACE_OF_REVOLUTION('',#44,#43);
#43=AXIS1_PLACEMENT('',#455,#280);
#44=B_SPLINE_CURVE_WITH_KNOTS('',3,(#391,#392,#393,#394,#395,#396,#397,
#398,#399,#400,#401,#402,#403,#404,#405,#406,#407,#408,#409,#410,#411,#412,
#413,#414,#415,#416,#417,#418,#419,#420,#421,#422,#423,#424,#425,#426,#427,
#428,#429,#430,#431,#432,#433,#434,#435,#436,#437,#438,#439,#440,#441,#442,
#443,#444,#445,#446,#447,#448,#449,#450,#451,#452,#453,#454),
 .UNSPECIFIED.,.T.,.F.,(2,2,2,2,2,2,2,2,2,2,2,2,2,2,2,2,2,2,2,2,2,2,2,2,
2,2,2,2,2,2,2,2,2,2),(-0.03125,0.,0.0625,0.09375,0.125,0.15625,0.1875,0.21875,
0.25,0.28125,0.3125,0.34375,0.375,0.40625,0.4375,0.46875,0.5,0.53125,0.5625,
0.59375,0.625,0.65625,0.6875,0.71875,0.75,0.78125,0.8125,0.84375,0.875,
0.90625,0.9375,0.96875,1.,1.0625),.UNSPECIFIED.);
#45=CONICAL_SURFACE('',#245,11.3272200547218,75.0000000002319);
#46=VERTEX_LOOP('',#209);
#47=PLANE('',#243);
#48=FACE_OUTER_BOUND('',#172,.T.);
#49=TOROIDAL_SURFACE('',#240,16.5,1.5);
#50=TOROIDAL_SURFACE('',#242,13.,5.);
#51=TOROIDAL_SURFACE('',#250,13.,5.);
#52=TOROIDAL_SURFACE('',#251,57.,40.);
#53=CYLINDRICAL_SURFACE('',#238,18.);
#54=CYLINDRICAL_SURFACE('',#248,18.);
#55=PRESENTATION_LAYER_ASSIGNMENT('1','Layer 1',(#125,#126));
#56=STYLED_ITEM('',(#58),#125);
#57=STYLED_ITEM('',(#59),#126);
#58=PRESENTATION_STYLE_ASSIGNMENT((#69));
#59=PRESENTATION_STYLE_ASSIGNMENT((#70));
#60=PRESENTATION_STYLE_ASSIGNMENT((#71));
#61=PRESENTATION_STYLE_ASSIGNMENT((#72));
#62=PRESENTATION_STYLE_ASSIGNMENT((#73));
#63=PRESENTATION_STYLE_ASSIGNMENT((#74));
#64=PRESENTATION_STYLE_ASSIGNMENT((#75));
#65=PRESENTATION_STYLE_ASSIGNMENT((#76));
#66=PRESENTATION_STYLE_ASSIGNMENT((#77));
#67=PRESENTATION_STYLE_ASSIGNMENT((#78));
#68=PRESENTATION_STYLE_ASSIGNMENT((#79));
#69=SURFACE_STYLE_USAGE(.BOTH.,#80);
#70=SURFACE_STYLE_USAGE(.BOTH.,#81);
#71=SURFACE_STYLE_USAGE(.BOTH.,#82);
#72=SURFACE_STYLE_USAGE(.BOTH.,#83);
#73=SURFACE_STYLE_USAGE(.BOTH.,#84);
#74=SURFACE_STYLE_USAGE(.BOTH.,#85);
#75=SURFACE_STYLE_USAGE(.BOTH.,#86);
#76=SURFACE_STYLE_USAGE(.BOTH.,#87);
#77=SURFACE_STYLE_USAGE(.BOTH.,#88);
#78=SURFACE_STYLE_USAGE(.BOTH.,#89);
#79=SURFACE_STYLE_USAGE(.BOTH.,#90);
#80=SURFACE_SIDE_STYLE('',(#91));
#81=SURFACE_SIDE_STYLE('',(#92));
#82=SURFACE_SIDE_STYLE('',(#93));
#83=SURFACE_SIDE_STYLE('',(#94));
#84=SURFACE_SIDE_STYLE('',(#95));
#85=SURFACE_SIDE_STYLE('',(#96));
#86=SURFACE_SIDE_STYLE('',(#97));
#87=SURFACE_SIDE_STYLE('',(#98));
#88=SURFACE_SIDE_STYLE('',(#99));
#89=SURFACE_SIDE_STYLE('',(#100));
#90=SURFACE_SIDE_STYLE('',(#101));
#91=SURFACE_STYLE_FILL_AREA(#102);
#92=SURFACE_STYLE_FILL_AREA(#103);
#93=SURFACE_STYLE_FILL_AREA(#104);
#94=SURFACE_STYLE_FILL_AREA(#105);
#95=SURFACE_STYLE_FILL_AREA(#106);
#96=SURFACE_STYLE_FILL_AREA(#107);
#97=SURFACE_STYLE_FILL_AREA(#108);
#98=SURFACE_STYLE_FILL_AREA(#109);
#99=SURFACE_STYLE_FILL_AREA(#110);
#100=SURFACE_STYLE_FILL_AREA(#111);
#101=SURFACE_STYLE_FILL_AREA(#112);
#102=FILL_AREA_STYLE('',(#113));
#103=FILL_AREA_STYLE('',(#114));
#104=FILL_AREA_STYLE('',(#115));
#105=FILL_AREA_STYLE('',(#116));
#106=FILL_AREA_STYLE('',(#117));
#107=FILL_AREA_STYLE('',(#118));
#108=FILL_AREA_STYLE('',(#119));
#109=FILL_AREA_STYLE('',(#120));
#110=FILL_AREA_STYLE('',(#121));
#111=FILL_AREA_STYLE('',(#122));
#112=FILL_AREA_STYLE('',(#123));
#113=FILL_AREA_STYLE_COLOUR('',#124);
#114=FILL_AREA_STYLE_COLOUR('',#40);
#115=FILL_AREA_STYLE_COLOUR('',#41);
#116=FILL_AREA_STYLE_COLOUR('',#41);
#117=FILL_AREA_STYLE_COLOUR('',#41);
#118=FILL_AREA_STYLE_COLOUR('',#41);
#119=FILL_AREA_STYLE_COLOUR('',#41);
#120=FILL_AREA_STYLE_COLOUR('',#41);
#121=FILL_AREA_STYLE_COLOUR('',#41);
#122=FILL_AREA_STYLE_COLOUR('',#41);
#123=FILL_AREA_STYLE_COLOUR('',#41);
#124=DRAUGHTING_PRE_DEFINED_COLOUR('yellow');
#125=MANIFOLD_SOLID_BREP('',#127);
#126=MANIFOLD_SOLID_BREP('',#128);
#127=CLOSED_SHELL('',(#129,#130));
#128=CLOSED_SHELL('',(#131,#132,#133,#134,#135,#136,#137,#138,#139));
#129=ADVANCED_FACE('',(#142,#143),#140,.F.);
#130=ADVANCED_FACE('',(#144,#145),#141,.F.);
#131=ADVANCED_FACE('',(#146,#147),#53,.T.);
#132=ADVANCED_FACE('',(#148,#149),#49,.T.);
#133=ADVANCED_FACE('',(#150,#151),#50,.T.);
#134=ADVANCED_FACE('',(#48),#47,.F.);
#135=ADVANCED_FACE('',(#152,#153),#45,.F.);
#136=ADVANCED_FACE('',(#154,#155),#42,.T.);
#137=ADVANCED_FACE('',(#156,#157),#54,.T.);
#138=ADVANCED_FACE('',(#158,#159),#51,.T.);
#139=ADVANCED_FACE('',(#160,#161),#52,.F.);
#140=(
BOUNDED_SURFACE()
B_SPLINE_SURFACE(3,3,((#296,#297,#298,#299,#300,#301,#302),(#303,#304,#305,
#306,#307,#308,#309),(#310,#311,#312,#313,#314,#315,#316),(#317,#318,#319,
#320,#321,#322,#323),(#324,#325,#326,#327,#328,#329,#330),(#331,#332,#333,
#334,#335,#336,#337),(#338,#339,#340,#341,#342,#343,#344)),
 .UNSPECIFIED.,.T.,.F.,.F.)
B_SPLINE_SURFACE_WITH_KNOTS((1,3,3,3,1),(4,3,4),(-0.5,0.,0.5,1.,1.5),(0.,
0.5,1.),.UNSPECIFIED.)
GEOMETRIC_REPRESENTATION_ITEM()
RATIONAL_B_SPLINE_SURFACE(((1.,0.589394482048771,0.589394482048771,1.,0.589394482048771,
0.589394482048771,1.),(0.333333333333334,0.196464827349591,0.196464827349591,
0.333333333333334,0.196464827349591,0.196464827349591,0.333333333333334),
(0.333333333333334,0.196464827349591,0.196464827349591,0.333333333333334,
0.196464827349591,0.196464827349591,0.333333333333334),(1.,0.589394482048771,
0.589394482048771,1.,0.589394482048771,0.589394482048771,1.),(0.333333333333334,
0.196464827349591,0.196464827349591,0.333333333333334,0.196464827349591,
0.196464827349591,0.333333333333334),(0.333333333333334,0.196464827349591,
0.196464827349591,0.333333333333334,0.196464827349591,0.196464827349591,
0.333333333333334),(1.,0.589394482048771,0.589394482048771,1.,0.589394482048771,
0.589394482048771,1.)))
REPRESENTATION_ITEM('')
SURFACE()
);
#141=(
BOUNDED_SURFACE()
B_SPLINE_SURFACE(3,3,((#345,#346,#347,#348),(#349,#350,#351,#352),(#353,
#354,#355,#356),(#357,#358,#359,#360),(#361,#362,#363,#364),(#365,#366,
#367,#368),(#369,#370,#371,#372)),.UNSPECIFIED.,.T.,.F.,.F.)
B_SPLINE_SURFACE_WITH_KNOTS((1,3,3,3,1),(4,4),(-0.5,0.,0.5,1.,1.5),(0.,
1.),.UNSPECIFIED.)
GEOMETRIC_REPRESENTATION_ITEM()
RATIONAL_B_SPLINE_SURFACE(((1.,0.803298064355591,0.803298064355591,1.),
(0.333333333333334,0.267766021451864,0.267766021451864,0.333333333333334),
(0.333333333333334,0.267766021451864,0.267766021451864,0.333333333333334),
(1.,0.803298064355591,0.803298064355591,1.),(0.333333333333334,0.267766021451864,
0.267766021451864,0.333333333333334),(0.333333333333334,0.267766021451864,
0.267766021451864,0.333333333333334),(1.,0.803298064355591,0.803298064355591,
1.)))
REPRESENTATION_ITEM('')
SURFACE()
);
#142=FACE_BOUND('',#162,.T.);
#143=FACE_BOUND('',#163,.T.);
#144=FACE_BOUND('',#164,.T.);
#145=FACE_BOUND('',#165,.T.);
#146=FACE_BOUND('',#166,.T.);
#147=FACE_BOUND('',#167,.T.);
#148=FACE_BOUND('',#168,.T.);
#149=FACE_BOUND('',#169,.T.);
#150=FACE_BOUND('',#170,.T.);
#151=FACE_BOUND('',#171,.T.);
#152=FACE_BOUND('',#173,.T.);
#153=FACE_BOUND('',#46,.T.);
#154=FACE_BOUND('',#174,.T.);
#155=FACE_BOUND('',#175,.T.);
#156=FACE_BOUND('',#176,.T.);
#157=FACE_BOUND('',#177,.T.);
#158=FACE_BOUND('',#178,.T.);
#159=FACE_BOUND('',#179,.T.);
#160=FACE_BOUND('',#180,.T.);
#161=FACE_BOUND('',#181,.T.);
#162=EDGE_LOOP('',(#182));
#163=EDGE_LOOP('',(#183));
#164=EDGE_LOOP('',(#184));
#165=EDGE_LOOP('',(#185));
#166=EDGE_LOOP('',(#186));
#167=EDGE_LOOP('',(#187));
#168=EDGE_LOOP('',(#188));
#169=EDGE_LOOP('',(#189));
#170=EDGE_LOOP('',(#190));
#171=EDGE_LOOP('',(#191));
#172=EDGE_LOOP('',(#192));
#173=EDGE_LOOP('',(#193));
#174=EDGE_LOOP('',(#194));
#175=EDGE_LOOP('',(#195));
#176=EDGE_LOOP('',(#196));
#177=EDGE_LOOP('',(#197));
#178=EDGE_LOOP('',(#198));
#179=EDGE_LOOP('',(#199));
#180=EDGE_LOOP('',(#200));
#181=EDGE_LOOP('',(#201));
#182=ORIENTED_EDGE('',*,*,#213,.T.);
#183=ORIENTED_EDGE('',*,*,#214,.F.);
#184=ORIENTED_EDGE('',*,*,#214,.T.);
#185=ORIENTED_EDGE('',*,*,#213,.F.);
#186=ORIENTED_EDGE('',*,*,#215,.T.);
#187=ORIENTED_EDGE('',*,*,#216,.F.);
#188=ORIENTED_EDGE('',*,*,#215,.F.);
#189=ORIENTED_EDGE('',*,*,#217,.T.);
#190=ORIENTED_EDGE('',*,*,#218,.F.);
#191=ORIENTED_EDGE('',*,*,#216,.T.);
#192=ORIENTED_EDGE('',*,*,#217,.F.);
#193=ORIENTED_EDGE('',*,*,#219,.T.);
#194=ORIENTED_EDGE('',*,*,#219,.F.);
#195=ORIENTED_EDGE('',*,*,#220,.T.);
#196=ORIENTED_EDGE('',*,*,#220,.F.);
#197=ORIENTED_EDGE('',*,*,#221,.T.);
#198=ORIENTED_EDGE('',*,*,#221,.F.);
#199=ORIENTED_EDGE('',*,*,#222,.T.);
#200=ORIENTED_EDGE('',*,*,#222,.F.);
#201=ORIENTED_EDGE('',*,*,#218,.T.);
#202=VERTEX_POINT('',#293);
#203=VERTEX_POINT('',#295);
#204=VERTEX_POINT('',#374);
#205=VERTEX_POINT('',#376);
#206=VERTEX_POINT('',#379);
#207=VERTEX_POINT('',#382);
#208=VERTEX_POINT('',#386);
#209=VERTEX_POINT('',#387);
#210=VERTEX_POINT('',#390);
#211=VERTEX_POINT('',#457);
#212=VERTEX_POINT('',#460);
#213=EDGE_CURVE('',#202,#202,#223,.T.);
#214=EDGE_CURVE('',#203,#203,#224,.T.);
#215=EDGE_CURVE('',#204,#204,#225,.T.);
#216=EDGE_CURVE('',#205,#205,#226,.T.);
#217=EDGE_CURVE('',#206,#206,#227,.T.);
#218=EDGE_CURVE('',#207,#207,#228,.T.);
#219=EDGE_CURVE('',#208,#208,#229,.T.);
#220=EDGE_CURVE('',#210,#210,#230,.T.);
#221=EDGE_CURVE('',#211,#211,#231,.T.);
#222=EDGE_CURVE('',#212,#212,#232,.T.);
#223=CIRCLE('',#234,5.);
#224=CIRCLE('',#235,5.);
#225=CIRCLE('',#236,18.);
#226=CIRCLE('',#237,18.);
#227=CIRCLE('',#239,16.5);
#228=CIRCLE('',#241,17.8888888888889);
#229=CIRCLE('',#244,11.3272200547218);
#230=CIRCLE('',#246,18.);
#231=CIRCLE('',#247,18.);
#232=CIRCLE('',#249,17.8888888888889);
#233=AXIS2_PLACEMENT_3D('',#291,#252,#253);
#234=AXIS2_PLACEMENT_3D('',#292,#254,#255);
#235=AXIS2_PLACEMENT_3D('',#294,#256,#257);
#236=AXIS2_PLACEMENT_3D('',#373,#258,#259);
#237=AXIS2_PLACEMENT_3D('',#375,#260,#261);
#238=AXIS2_PLACEMENT_3D('',#377,#262,#263);
#239=AXIS2_PLACEMENT_3D('',#378,#264,#265);
#240=AXIS2_PLACEMENT_3D('',#380,#266,#267);
#241=AXIS2_PLACEMENT_3D('',#381,#268,#269);
#242=AXIS2_PLACEMENT_3D('',#383,#270,#271);
#243=AXIS2_PLACEMENT_3D('',#384,#272,#273);
#244=AXIS2_PLACEMENT_3D('',#385,#274,#275);
#245=AXIS2_PLACEMENT_3D('',#388,#276,#277);
#246=AXIS2_PLACEMENT_3D('',#389,#278,#279);
#247=AXIS2_PLACEMENT_3D('',#456,#281,#282);
#248=AXIS2_PLACEMENT_3D('',#458,#283,#284);
#249=AXIS2_PLACEMENT_3D('',#459,#285,#286);
#250=AXIS2_PLACEMENT_3D('',#461,#287,#288);
#251=AXIS2_PLACEMENT_3D('',#462,#289,#290);
#252=DIRECTION('',(0.,0.,1.));
#253=DIRECTION('',(1.,0.,0.));
#254=DIRECTION('',(0.121869343405148,0.990532228677086,0.0631962585127002));
#255=DIRECTION('',(0.992510112580906,-0.122160227830203,0.000745091343315116));
#256=DIRECTION('',(0.121869343405148,-0.0692365195668007,0.990128359101119));
#257=DIRECTION('',(0.992510112580906,0.,-0.122162500075257));
#258=DIRECTION('',(-1.,0.,0.));
#259=DIRECTION('',(0.,0.,1.));
#260=DIRECTION('',(-1.,0.,0.));
#261=DIRECTION('',(0.,0.,1.));
#262=DIRECTION('',(-1.,0.,0.));
#263=DIRECTION('',(0.,0.,1.));
#264=DIRECTION('',(-1.,0.,0.));
#265=DIRECTION('',(0.,0.,1.));
#266=DIRECTION('',(-1.,0.,0.));
#267=DIRECTION('',(0.,0.,1.));
#268=DIRECTION('',(-1.,0.,0.));
#269=DIRECTION('',(0.,0.,1.));
#270=DIRECTION('',(-1.,0.,0.));
#271=DIRECTION('',(0.,0.,1.));
#272=DIRECTION('',(-1.,0.,0.));
#273=DIRECTION('',(0.,0.,1.));
#274=DIRECTION('',(-1.,0.,0.));
#275=DIRECTION('',(0.,0.,1.));
#276=DIRECTION('',(-1.,0.,0.));
#277=DIRECTION('',(-4.17070121380463E-18,0.,1.));
#278=DIRECTION('',(-1.,0.,0.));
#279=DIRECTION('',(0.,0.,1.));
#280=DIRECTION('',(-1.,0.,0.));
#281=DIRECTION('',(-1.,0.,0.));
#282=DIRECTION('',(0.,0.,1.));
#283=DIRECTION('',(-1.,0.,0.));
#284=DIRECTION('',(0.,0.,1.));
#285=DIRECTION('',(-1.,0.,0.));
#286=DIRECTION('',(0.,0.,1.));
#287=DIRECTION('',(-1.,0.,0.));
#288=DIRECTION('',(0.,0.,1.));
#289=DIRECTION('',(-1.,0.,0.));
#290=DIRECTION('',(0.,0.,1.));
#291=CARTESIAN_POINT('',(0.,0.,0.));
#292=CARTESIAN_POINT('',(4.96273075820661,0.48369088050183,15.009268478099));
#293=CARTESIAN_POINT('',(9.92528132111114,-0.127110258649186,15.0129939348156));
#294=CARTESIAN_POINT('',(4.96273075820661,-15.0119394217327,0.392137620951278));
#295=CARTESIAN_POINT('',(9.92528132111114,-15.0119394217327,-0.218674879425005));
#296=CARTESIAN_POINT('',(9.92528132111114,-15.0119394217327,-0.218674879425005));
#297=CARTESIAN_POINT('',(9.92528132111115,-14.7835678572783,-15.8962876909704));
#298=CARTESIAN_POINT('',(9.92528132111115,-0.220791632112048,-21.7070746992781));
#299=CARTESIAN_POINT('',(9.92528132111114,10.7377204295393,-10.4932122765967));
#300=CARTESIAN_POINT('',(9.92528132111115,21.6962324911906,0.720650146084717));
#301=CARTESIAN_POINT('',(9.92528132111115,15.5516038261797,15.1457406348584));
#302=CARTESIAN_POINT('',(9.92528132111114,-0.127110258649185,15.0129939348156));
#303=CARTESIAN_POINT('',(10.009862384379,-5.03593669339371,0.46850457887455));
#304=CARTESIAN_POINT('',(10.009862384379,-5.52521613835322,-4.79074030644539));
#305=CARTESIAN_POINT('',(10.009862384379,-0.857310126793413,-7.26252197282851));
#306=CARTESIAN_POINT('',(10.009862384379,3.21777744441321,-3.90205884611202));
#307=CARTESIAN_POINT('',(10.009862384379,7.29286501561984,-0.541595719395535));
#308=CARTESIAN_POINT('',(10.009862384379,5.75537381785755,4.51163809231626));
#309=CARTESIAN_POINT('',(10.009862384379,0.499210959934269,5.03298552926362));
#310=CARTESIAN_POINT('',(0.0847612585699754,-5.03593669339371,1.69012957962712));
#311=CARTESIAN_POINT('',(0.0847612585699756,-6.80101157188501,-3.56911530569283));
#312=CARTESIAN_POINT('',(0.0847612585699756,-2.6231280266793,-7.21883244173836));
#313=CARTESIAN_POINT('',(0.0847612585699754,2.35132783116612,-4.76323984344514));
#314=CARTESIAN_POINT('',(0.0847612585699756,7.32578368901154,-2.30764724515191));
#315=CARTESIAN_POINT('',(0.0847612585699756,6.96919478738824,3.2284154753819));
#316=CARTESIAN_POINT('',(0.0847612585699754,1.7208132382363,5.02553461583047));
#317=CARTESIAN_POINT('',(0.000180195302076392,-15.0119394217327,1.00295012132756));
#318=CARTESIAN_POINT('',(0.000180195302076393,-16.0593632908101,-14.6746626902178));
#319=CARTESIAN_POINT('',(0.000180195302076393,-1.98660953199794,-21.6633851681879));
#320=CARTESIAN_POINT('',(0.000180195302076392,9.8712708162922,-11.3543932739298));
#321=CARTESIAN_POINT('',(0.000180195302076393,21.7291511645823,-1.04540137967166));
#322=CARTESIAN_POINT('',(0.000180195302076393,16.7654247957104,13.8625180179241));
#323=CARTESIAN_POINT('',(0.000180195302076392,1.09449201965285,15.0055430213825));
#324=CARTESIAN_POINT('',(-0.0844008679658227,-24.9879421500717,0.315770663028006));
#325=CARTESIAN_POINT('',(-0.0844008679658227,-25.3177150097351,-25.7802100747428));
#326=CARTESIAN_POINT('',(-0.0844008679658227,-1.35009103731657,-36.1079378946374));
#327=CARTESIAN_POINT('',(-0.0844008679658227,17.3912138014183,-17.9455467044144));
#328=CARTESIAN_POINT('',(-0.0844008679658227,36.1325186401531,0.216844485808599));
#329=CARTESIAN_POINT('',(-0.0844008679658227,26.5616548040325,24.4966205604662));
#330=CARTESIAN_POINT('',(-0.0844008679658227,0.468170801069392,24.9855514269345));
#331=CARTESIAN_POINT('',(9.84070025784323,-24.9879421500717,-0.905854337724559));
#332=CARTESIAN_POINT('',(9.84070025784325,-24.0419195762033,-27.0018350754954));
#333=CARTESIAN_POINT('',(9.84070025784325,0.41572686256932,-36.1516274257276));
#334=CARTESIAN_POINT('',(9.84070025784323,18.2576634146654,-17.0843657070813));
#335=CARTESIAN_POINT('',(9.84070025784325,36.0995999667614,1.98289601156497));
#336=CARTESIAN_POINT('',(9.84070025784325,25.3478338345018,25.7798431774006));
#337=CARTESIAN_POINT('',(9.84070025784323,-0.753431477232639,24.9930023403676));
#338=CARTESIAN_POINT('',(9.92528132111114,-15.0119394217327,-0.218674879425005));
#339=CARTESIAN_POINT('',(9.92528132111115,-14.7835678572783,-15.8962876909704));
#340=CARTESIAN_POINT('',(9.92528132111115,-0.220791632112048,-21.7070746992781));
#341=CARTESIAN_POINT('',(9.92528132111114,10.7377204295393,-10.4932122765967));
#342=CARTESIAN_POINT('',(9.92528132111115,21.6962324911906,0.720650146084717));
#343=CARTESIAN_POINT('',(9.92528132111115,15.5516038261797,15.1457406348584));
#344=CARTESIAN_POINT('',(9.92528132111114,-0.127110258649185,15.0129939348156));
#345=CARTESIAN_POINT('',(9.92528132111114,-0.127110258649187,15.0129939348156));
#346=CARTESIAN_POINT('',(9.92528132111115,-8.96410771057003,14.9381738798237));
#347=CARTESIAN_POINT('',(9.92528132111115,-15.1406565424262,8.61770186156589));
#348=CARTESIAN_POINT('',(9.92528132111114,-15.0119394217327,-0.218674879425004));
#349=CARTESIAN_POINT('',(10.009862384379,0.499210959934269,5.03298552926362));
#350=CARTESIAN_POINT('',(10.009862384379,-2.46332139642102,5.32683271258123));
#351=CARTESIAN_POINT('',(10.009862384379,-4.76016400023844,3.43277405908474));
#352=CARTESIAN_POINT('',(10.009862384379,-5.03593669339371,0.46850457887455));
#353=CARTESIAN_POINT('',(0.0847612585699754,1.7208132382363,5.02553461583047));
#354=CARTESIAN_POINT('',(0.0847612585699755,-1.23733333715424,6.03844531622453));
#355=CARTESIAN_POINT('',(0.0847612585699755,-4.04108710819907,4.65439905983731));
#356=CARTESIAN_POINT('',(0.0847612585699754,-5.03593669339371,1.69012957962712));
#357=CARTESIAN_POINT('',(0.000180195302076392,1.09449201965285,15.0055430213825));
#358=CARTESIAN_POINT('',(0.000180195302076393,-7.73811965130324,15.649786483467));
#359=CARTESIAN_POINT('',(0.000180195302076393,-14.4215796503868,9.83932686231845));
#360=CARTESIAN_POINT('',(0.000180195302076392,-15.0119394217327,1.00295012132756));
#361=CARTESIAN_POINT('',(-0.0844008679658227,0.468170801069392,24.9855514269345));
#362=CARTESIAN_POINT('',(-0.0844008679658226,-14.2389059654522,25.2611276507095));
#363=CARTESIAN_POINT('',(-0.0844008679658226,-24.8020721925745,15.0242546647996));
#364=CARTESIAN_POINT('',(-0.0844008679658227,-24.9879421500717,0.315770663028009));
#365=CARTESIAN_POINT('',(9.84070025784323,-0.753431477232642,24.9930023403676));
#366=CARTESIAN_POINT('',(9.84070025784323,-15.464894024719,24.5495150470662));
#367=CARTESIAN_POINT('',(9.84070025784323,-25.5211490846139,13.802629664047));
#368=CARTESIAN_POINT('',(9.84070025784323,-24.9879421500717,-0.905854337724558));
#369=CARTESIAN_POINT('',(9.92528132111114,-0.127110258649187,15.0129939348156));
#370=CARTESIAN_POINT('',(9.92528132111115,-8.96410771057003,14.9381738798237));
#371=CARTESIAN_POINT('',(9.92528132111115,-15.1406565424262,8.61770186156589));
#372=CARTESIAN_POINT('',(9.92528132111114,-15.0119394217327,-0.218674879425004));
#373=CARTESIAN_POINT('',(38.5,0.,0.));
#374=CARTESIAN_POINT('',(38.5,0.,18.));
#375=CARTESIAN_POINT('',(33.,0.,0.));
#376=CARTESIAN_POINT('',(33.,0.,18.));
#377=CARTESIAN_POINT('',(0.,0.,0.));
#378=CARTESIAN_POINT('',(40.,0.,0.));
#379=CARTESIAN_POINT('',(40.,0.,16.5));
#380=CARTESIAN_POINT('',(38.5,0.,0.));
#381=CARTESIAN_POINT('',(31.951779874216,0.,0.));
#382=CARTESIAN_POINT('',(31.951779874216,0.,17.8888888888889));
#383=CARTESIAN_POINT('',(33.,0.,0.));
#384=CARTESIAN_POINT('',(40.,9.,0.));
#385=CARTESIAN_POINT('',(3.00000000001867,0.,0.));
#386=CARTESIAN_POINT('',(3.00000000001867,0.,11.3272200547218));
#387=CARTESIAN_POINT('',(6.03511946612185,0.,0.));
#388=CARTESIAN_POINT('',(3.00000000001867,0.,0.));
#389=CARTESIAN_POINT('',(7.34321755946619,0.,0.));
#390=CARTESIAN_POINT('',(7.34321755946619,0.,18.));
#391=CARTESIAN_POINT('',(0.555329932608679,15.2291905389312,0.));
#392=CARTESIAN_POINT('',(0.56208959958875,14.432774415391,0.));
#393=CARTESIAN_POINT('',(0.672324590518487,13.9061890853966,0.));
#394=CARTESIAN_POINT('',(0.980263899421178,13.1831029071153,0.));
#395=CARTESIAN_POINT('',(1.10856823860634,12.9490855875772,0.));
#396=CARTESIAN_POINT('',(1.40701815764251,12.5150929556437,0.));
#397=CARTESIAN_POINT('',(1.57619161264843,12.3152394229323,0.));
#398=CARTESIAN_POINT('',(1.95455239805375,11.9499183689006,0.));
#399=CARTESIAN_POINT('',(2.16479506759579,11.7846151463483,0.));
#400=CARTESIAN_POINT('',(2.60719959389981,11.5039868834918,0.));
#401=CARTESIAN_POINT('',(2.84142441898201,11.3863462236861,0.));
#402=CARTESIAN_POINT('',(3.33671270787083,11.1977934292888,0.));
#403=CARTESIAN_POINT('',(3.5913624220886,11.1295613827564,0.));
#404=CARTESIAN_POINT('',(4.10757665250882,11.0443957406524,0.));
#405=CARTESIAN_POINT('',(4.37271482721704,11.0272142628705,0.));
#406=CARTESIAN_POINT('',(4.90029008723907,11.0453551108176,0.));
#407=CARTESIAN_POINT('',(5.15973147599644,11.080017341458,0.));
#408=CARTESIAN_POINT('',(5.67022844774594,11.1987196231047,0.));
#409=CARTESIAN_POINT('',(5.92367565627695,11.2841486086284,0.));
#410=CARTESIAN_POINT('',(6.40309379629946,11.4989466896669,0.));
#411=CARTESIAN_POINT('',(6.63067069051381,11.6281558896718,0.));
#412=CARTESIAN_POINT('',(7.06153097515548,11.9302470159039,0.));
#413=CARTESIAN_POINT('',(7.2644399369799,12.1037383775186,0.));
#414=CARTESIAN_POINT('',(7.62845665802071,12.4806104341953,0.));
#415=CARTESIAN_POINT('',(7.79203066449995,12.6855137080413,0.));
#416=CARTESIAN_POINT('',(8.08081205634216,13.1295928192202,0.));
#417=CARTESIAN_POINT('',(8.20244906425874,13.3636861547011,0.));
#418=CARTESIAN_POINT('',(8.39822644231955,13.8494174503957,0.));
#419=CARTESIAN_POINT('',(8.47339896330707,14.1045465033914,0.));
#420=CARTESIAN_POINT('',(8.5717855826977,14.6229610998812,0.));
#421=CARTESIAN_POINT('',(8.59512114004951,14.8838245964875,0.));
#422=CARTESIAN_POINT('',(8.59043087534579,15.4088413045709,0.));
#423=CARTESIAN_POINT('',(8.5615265586052,15.674958139766,0.));
#424=CARTESIAN_POINT('',(8.45324668374955,16.1883032986565,0.));
#425=CARTESIAN_POINT('',(8.37422753445152,16.4380548514826,0.));
#426=CARTESIAN_POINT('',(8.16517507271935,16.923366575878,0.));
#427=CARTESIAN_POINT('',(8.03620793761585,17.155227600739,0.));
#428=CARTESIAN_POINT('',(7.73771055806026,17.5852995984371,0.));
#429=CARTESIAN_POINT('',(7.56582223135646,17.7869981659345,0.));
#430=CARTESIAN_POINT('',(7.18410373896851,18.1528195540874,0.));
#431=CARTESIAN_POINT('',(6.97777639645399,18.3141882685228,0.));
#432=CARTESIAN_POINT('',(6.53503665204528,18.595027087298,0.));
#433=CARTESIAN_POINT('',(6.29588724702928,18.7152020309337,0.));
#434=CARTESIAN_POINT('',(5.80548905031605,18.9032063024655,0.));
#435=CARTESIAN_POINT('',(5.55308792919474,18.9724035127123,0.));
#436=CARTESIAN_POINT('',(5.03382070982803,19.060978223949,0.));
#437=CARTESIAN_POINT('',(4.76776730967904,19.0795003325247,0.));
#438=CARTESIAN_POINT('',(4.24441728892402,19.0647081386001,0.));
#439=CARTESIAN_POINT('',(3.98420618049765,19.0320167652788,0.));
#440=CARTESIAN_POINT('',(3.46681659588123,18.9142321002892,0.));
#441=CARTESIAN_POINT('',(3.21764582791124,18.8308955319777,0.));
#442=CARTESIAN_POINT('',(2.73939564688225,18.6181425479836,0.));
#443=CARTESIAN_POINT('',(2.50781820719931,18.4870210544906,0.));
#444=CARTESIAN_POINT('',(2.07643180940743,18.1836516501825,0.));
#445=CARTESIAN_POINT('',(1.87789940407075,18.0130352805645,0.));
#446=CARTESIAN_POINT('',(1.51452943949108,17.6346306227169,0.));
#447=CARTESIAN_POINT('',(1.34871325442948,17.4246331566458,0.));
#448=CARTESIAN_POINT('',(1.06475263088104,16.9832021906493,0.));
#449=CARTESIAN_POINT('',(0.944820915264233,16.7505133325989,0.));
#450=CARTESIAN_POINT('',(0.749659236887978,16.2608605629464,0.));
#451=CARTESIAN_POINT('',(0.675557880974414,16.0050258236078,0.));
#452=CARTESIAN_POINT('',(0.578959048550487,15.490467838507,0.));
#453=CARTESIAN_POINT('',(0.555329932608679,15.2291905389312,0.));
#454=CARTESIAN_POINT('',(0.56208959958875,14.432774415391,0.));
#455=CARTESIAN_POINT('',(0.,0.,0.));
#456=CARTESIAN_POINT('',(14.1320377358868,0.,0.));
#457=CARTESIAN_POINT('',(14.1320377358868,0.,18.));
#458=CARTESIAN_POINT('',(0.,0.,0.));
#459=CARTESIAN_POINT('',(15.180257861671,0.,0.));
#460=CARTESIAN_POINT('',(15.180257861671,0.,17.8888888888889));
#461=CARTESIAN_POINT('',(14.1320377358868,0.,0.));
#462=CARTESIAN_POINT('',(23.5660188679434,0.,0.));
#463=(
GEOMETRIC_REPRESENTATION_CONTEXT(3)
GLOBAL_UNCERTAINTY_ASSIGNED_CONTEXT((#464))
GLOBAL_UNIT_ASSIGNED_CONTEXT((#470,#466,#465))
REPRESENTATION_CONTEXT('model1','TOP_LEVEL_ASSEMBLY_PART')
);
#464=UNCERTAINTY_MEASURE_WITH_UNIT(LENGTH_MEASURE(2.E-5),#470,
'DISTANCE_ACCURACY_VALUE','Maximum Tolerance applied to model');
#465=(
NAMED_UNIT(*)
SI_UNIT($,.STERADIAN.)
SOLID_ANGLE_UNIT()
);
#466=(
CONVERSION_BASED_UNIT('DEGREE',#468)
NAMED_UNIT(#467)
PLANE_ANGLE_UNIT()
);
#467=DIMENSIONAL_EXPONENTS(0.,0.,0.,0.,0.,0.,0.);
#468=PLANE_ANGLE_MEASURE_WITH_UNIT(PLANE_ANGLE_MEASURE(0.0174532925),#469);
#469=(
NAMED_UNIT(*)
PLANE_ANGLE_UNIT()
SI_UNIT($,.RADIAN.)
);
#470=(
LENGTH_UNIT()
NAMED_UNIT(*)
SI_UNIT(.MILLI.,.METRE.)
);
ENDSEC;
END-ISO-10303-21;
